  0
SECTION
  2
HEADER
  9
$ACADVER
  1
AC1009
  9
$INSBASE
 10
0
 20
0
 30
0
  9
$EXTMIN
 10
0
 20
0
  9
$EXTMAX
 10
420
 20
297
  9
$LIMMIN
 10
0
 20
0
  9
$LIMMAX
 10
420
 20
297
  9
$LTSCALE
 40
1
  0
ENDSEC
  0
SECTION
  2
TABLES
  0
TABLE
  2
LTYPE
 70
     9
  0
LTYPE
  2
CONTINUOUS
 70
    64
  3
実線
 72
    65
 73
     0
 40
0.0
  0
LTYPE
  2
DASHED1
 70
    64
  3
--  --  --  --  --  --  --  --  
 72
    65
 73
     2
 40
2.5
 49
1.25
 49
-1.25
  0
LTYPE
  2
DASHED2
 70
    64
  3
----    ----    ----    ----    
 72
    65
 73
     2
 40
5.0
 49
2.5
 49
-2.5
  0
LTYPE
  2
DASHED3
 70
    64
  3
------  ------  ------  ------  
 72
    65
 73
     2
 40
5.0
 49
3.75
 49
-1.25
  0
LTYPE
  2
CENTER1
 70
    64
  3
----- - ----- - ----- - ----- - 
 72
    65
 73
     4
 40
10.0
 49
6.25
 49
-1.25
 49
1.25
 49
-1.25
  0
LTYPE
  2
CENTER2
 70
    64
  3
----------  --  ----------  --  
 72
    65
 73
     4
 40
20.0
 49
12.5
 49
-2.5
 49
2.5
 49
-2.5
  0
LTYPE
  2
PHANTOM1
 70
    64
  3
--- - - --- - - --- - - --- - - 
 72
    65
 73
     6
 40
10.0
 49
3.25
 49
-1.25
 49
1.25
 49
-1.25
 49
1.25
 49
-1.25
  0
LTYPE
  2
PHANTOM2
 70
    64
  3
--------  -  -  --------  -  -  
 72
    65
 73
     6
 40
20.0
 49
10.0
 49
-2.5
 49
1.25
 49
-2.5
 49
1.25
 49
-2.5
  0
LTYPE
  2
DOT
 70
    64
  3
-   -   -   -   -   -   -   -   
 72
    65
 73
     2
 40
2.5
 49
0.625
 49
-1.875
  0
LTYPE
  2
DUMMY
 70
    64
  3
ダミー
 72
    65
 73
     0
 40
0.0
  0
LTYPE
  2
RAND1
 70
    64
  3
ランダム線1
 72
    65
 73
     4
 40
10.0
 49
1.0
 49
-2.0
 49
3.0
 49
-4.0
  0
LTYPE
  2
RAND2
 70
    64
  3
ランダム線2
 72
    65
 73
     4
 40
14.0
 49
2.0
 49
-3.0
 49
4.0
 49
-5.0
  0
LTYPE
  2
RAND3
 70
    64
  3
ランダム線3
 72
    65
 73
     4
 40
18.0
 49
3.0
 49
-4.0
 49
5.0
 49
-6.0
  0
LTYPE
  2
RAND4
 70
    64
  3
ランダム線4
 72
    65
 73
     4
 40
22.0
 49
4.0
 49
-5.0
 49
6.0
 49
-7.0
  0
LTYPE
  2
RAND5
 70
    64
  3
ランダム線5
 72
    65
 73
     4
 40
26.0
 49
5.0
 49
-6.0
 49
7.0
 49
-8.0
  0
LTYPE
  2
LONG1
 70
    64
  3
----------  --  ----------  --  
 72
    65
 73
     4
 40
40.0
 49
32.5
 49
-2.5
 49
2.5
 49
-2.5
  0
LTYPE
  2
LONG2
 70
    64
  3
--------  -  -  --------  -  -  
 72
    65
 73
     6
 40
40.0
 49
30.0
 49
-2.5
 49
1.25
 49
-2.5
 49
1.25
 49
-2.5
  0
LTYPE
  2
LONG3
 70
    64
  3
+++++++++++++++..+++++++++++++++
 72
    65
 73
     2
 40
40.0
 49
37.5
 49
-2.5
  0
LTYPE
  2
LONG4
 70
    64
  3
+++++++++++++++..+++++++++++++++
 72
    65
 73
     2
 40
80.0
 49
75.0
 49
-5.0
  0
LTYPE
  2
LONG5
 70
    64
  3
----------  --  ----------  --  
 72
    65
 73
     4
 40
60.0
 49
37.5
 49
-7.5
 49
7.5
 49
-7.5
  0
LTYPE
  2
dashed
 70
   64
  3
-------   -------------   ------
 72
   65
 73
    2
 40
7.5
 49
6
 49
-1.5
  0
LTYPE
  2
dashed_spaced
 70
   64
  3
----        --------        ----
 72
   65
 73
    2
 40
12
 49
6
 49
-6
  0
LTYPE
  2
long_dashed_dotted
 70
   64
  3
------------- --- --------------
 72
   65
 73
    4
 40
15.25
 49
12
 49
-1.5
 49
0.25
 49
-1.5
  0
LTYPE
  2
long_dashed_double-dotted
 70
   64
  3
----------- --- --- ------------
 72
   65
 73
    6
 40
17
 49
12
 49
-1.5
 49
0.25
 49
-1.5
 49
0.25
 49
-1.5
  0
LTYPE
  2
long_dashed_triplicate-dotted
 70
   64
  3
--------- --- --- --- ----------
 72
   65
 73
    8
 40
18.75
 49
12
 49
-1.5
 49
0.25
 49
-1.5
 49
0.25
 49
-1.5
 49
0.25
 49
-1.5
  0
LTYPE
  2
dotted
 70
   64
  3
   -       -       -       -    
 72
   65
 73
    2
 40
1.75
 49
0.25
 49
-1.5
  0
LTYPE
  2
chain
 70
   64
  3
-------------- -- --------------
 72
   65
 73
    4
 40
18.5
 49
12
 49
-1.5
 49
3.5
 49
-1.5
  0
LTYPE
  2
chain_double_dash
 70
   64
  3
------------ -- -- -------------
 72
   65
 73
    6
 40
23.5
 49
12
 49
-1.5
 49
3.5
 49
-1.5
 49
3.5
 49
-1.5
  0
LTYPE
  2
dashed_dotted
 70
   64
  3
-----------     -     ----------
 72
   65
 73
    4
 40
9.25
 49
6
 49
-1.5
 49
0.25
 49
-1.5
  0
LTYPE
  2
double-dashed_dotted
 70
   64
  3
------   -----------   -   -----
 72
   65
 73
    6
 40
16.75
 49
6
 49
-1.5
 49
6
 49
-1.5
 49
0.25
 49
-1.5
  0
LTYPE
  2
dashed_double-dotted
 70
   64
  3
---------    -    -    ---------
 72
   65
 73
    6
 40
11
 49
6
 49
-1.5
 49
0.25
 49
-1.5
 49
0.25
 49
-1.5
  0
LTYPE
  2
double-dashed_double-dotted
 70
   64
  3
-----   ---------   -   -   ----
 72
   65
 73
    8
 40
18.5
 49
6
 49
-1.5
 49
6
 49
-1.5
 49
0.25
 49
-1.5
 49
0.25
 49
-1.5
  0
LTYPE
  2
dashed_triplicate-dotted
 70
   64
  3
-------    -    -    -    ------
 72
   65
 73
    8
 40
12.75
 49
6
 49
-1.5
 49
0.25
 49
-1.5
 49
0.25
 49
-1.5
 49
0.25
 49
-1.5
  0
LTYPE
  2
double-dashed_triplicate-dotted
 70
   64
  3
-----  ---------  -  -  -  -----
 72
   65
 73
   10
 40
20.25
 49
6
 49
-1.5
 49
6
 49
-1.5
 49
0.25
 49
-1.5
 49
0.25
 49
-1.5
 49
0.25
 49
-1.5
  0
LTYPE
  2
undefined
 70
   64
  3
--------------------------------
 72
   65
 73
    0
 40
0
  0
LTYPE
  2
DOT_17
 70
   64
  3
--             ---             -
 72
   65
 73
    2
 40
5
 49
1
 49
-4
  0
LTYPE
  2
DASHED
 70
   64
  3
---          ------          ---
 72
   65
 73
    2
 40
5
 49
2
 49
-3
  0
LTYPE
  2
DASHED2_19
 70
   64
  3
---          ------          ---
 72
   65
 73
    2
 40
10
 49
4
 49
-6
  0
LTYPE
  2
CENTER
 70
   64
  3
----------    ----    ----------
 72
   65
 73
    4
 40
9
 49
6
 49
-1
 49
1
 49
-1
  0
LTYPE
  2
CENTER2_21
 70
   64
  3
----------    ----    ----------
 72
   65
 73
    4
 40
18
 49
12
 49
-2
 49
2
 49
-2
  0
LTYPE
  2
PHANTOM
 70
   64
  3
---------   ---   ---   --------
 72
   65
 73
    6
 40
10
 49
5
 49
-1
 49
1
 49
-1
 49
1
 49
-1
  0
LTYPE
  2
PHANTOM2_23
 70
   64
  3
------    ----    ----    ------
 72
   65
 73
    6
 40
16
 49
6
 49
-2
 49
2
 49
-2
 49
2
 49
-2
  0
LTYPE
  2
HIDDEN
 70
   64
  3
--             ---             -
 72
   65
 73
    2
 40
2.5
 49
0.5
 49
-2
  0
ENDTAB
  0
TABLE
  2
STYLE
  5
3
100
AcDbSymbolTable
 70
     1
  0
STYLE
  5
10
100
AcDbSymbolTableRecord
100
AcDbTextStyleTableRecord
  2
STANDARD
 70
     0
 40
0.0
 41
1.0
 50
0.0
 71
     0
 42
0.2
  3
txt
  4
bigfont.shx
  0
STYLE
  5
26
100
AcDbSymbolTableRecord
100
AcDbTextStyleTableRecord
  2
TATEGAKI
 70
    68
 40
0.0
 41
1.0
 50
0.0
 71
     0
 42
1.0
  3
txt
  4
bigfont.shx
  0
ENDTAB
  0
TABLE
  2
LAYER
 70
    7
  0
LAYER
  2
_0-0_
 70
   64
 62
    7
  6
CONTINUOUS
  0
LAYER
  2
_0-1_
 70
   64
 62
    7
  6
CONTINUOUS
  0
LAYER
  2
_1-0_
 70
   64
 62
    7
  6
CONTINUOUS
  0
LAYER
  2
_1-1_
 70
   64
 62
    7
  6
CONTINUOUS
  0
LAYER
  2
_1-2_
 70
   64
 62
    7
  6
CONTINUOUS
  0
LAYER
  2
_1-4_
 70
   64
 62
    7
  6
CONTINUOUS
  0
LAYER
  2
ADD_LINE
 70
   64
 62
    7
  6
CONTINUOUS
  0
ENDTAB
  0
ENDSEC
  0
SECTION
  2
BLOCKS
  0
ENDSEC
  0
SECTION
  2
ENTITIES
  0
LINE
  8
_1-0_
  6
CONTINUOUS
 62
    7
 10
111.32608362146327
 20
125.11797105943835
 11
130.44907441010346
 21
126.48586788692991
  0
LINE
  8
_1-0_
  6
CONTINUOUS
 62
    7
 10
130.44908678209461
 20
126.48586788692991
 11
366.48648648648651
 21
232.70270270270271
  0
LINE
  8
_1-0_
  6
CONTINUOUS
 62
    7
 10
131.43394676414695
 20
124.297250283731
 11
130.44907441010346
 21
126.48586788692991
  0
LINE
  8
_1-0_
  6
CONTINUOUS
 62
    7
 10
129.95664441907729
 20
127.58017050253379
 11
365.99405649546031
 21
233.79700531830659
  0
LINE
  8
_1-0_
  6
DASHED1
 62
    3
 10
130.20287178658151
 20
127.03301919473185
 11
366.24025911898229
 21
233.24986638249578
  0
LINE
  8
_1-0_
  6
CONTINUOUS
 62
    7
 10
129.71042942356419
 20
128.12732181033573
 11
365.74782912795609
 21
234.34416899809966
  0
LINE
  8
_1-0_
  6
CONTINUOUS
 62
    7
 10
129.71042942356419
 20
128.12732181033573
 11
129.95664441907729
 21
127.58017050253379
  0
LINE
  8
_1-0_
  6
DASHED1
 62
    3
 10
130.20287178658151
 20
127.03301919473185
 11
110.25919733820736
 21
125.6064172693201
  0
LINE
  8
_1-1_
  6
CONTINUOUS
 62
    7
 10
156.33850510055956
 20
140.10995400918497
 11
155.10740537901182
 21
142.84572292018581
  0
LINE
  8
_1-1_
  6
CONTINUOUS
 62
    7
 10
155.10740537901182
 20
142.84572292018581
 11
159.48464058540964
 21
144.81548000026393
  0
LINE
  8
_1-1_
  6
CONTINUOUS
 62
    7
 10
159.48464058540964
 20
144.81548000026393
 11
160.71574030695734
 21
142.0797110892631
  0
LINE
  8
_1-1_
  6
CONTINUOUS
 62
    7
 10
160.71574030695734
 20
142.0797110892631
 11
156.33850510055956
 21
140.10995400918497
  0
LINE
  8
_1-1_
  6
CONTINUOUS
 62
    7
 10
156.33850510055956
 20
140.10995400918497
 11
159.48464058540964
 21
144.81548000026393
  0
LINE
  8
_1-1_
  6
CONTINUOUS
 62
    7
 10
207.40611308329815
 20
163.09038316881336
 11
206.17501336175044
 21
165.82615207981419
  0
LINE
  8
_1-1_
  6
CONTINUOUS
 62
    7
 10
206.17501336175044
 20
165.82615207981419
 11
210.55226094013938
 21
167.79590915989232
  0
LINE
  8
_1-1_
  6
CONTINUOUS
 62
    7
 10
210.55226094013938
 20
167.79590915989232
 11
211.78334828969597
 21
165.06014024889149
  0
LINE
  8
_1-1_
  6
CONTINUOUS
 62
    7
 10
211.78334828969597
 20
165.06014024889149
 11
207.40611308329815
 21
163.09038316881336
  0
LINE
  8
_1-1_
  6
CONTINUOUS
 62
    7
 10
207.40611308329815
 20
163.09038316881336
 11
210.55226094013938
 21
167.79590915989232
  0
LINE
  8
_1-1_
  6
CONTINUOUS
 62
    7
 10
258.47370869404563
 20
186.0707999564506
 11
257.24262134448901
 21
188.80656886745146
  0
LINE
  8
_1-1_
  6
CONTINUOUS
 62
    7
 10
257.24262134448901
 20
188.80656886745146
 11
261.61985655088682
 21
190.77632594752959
  0
LINE
  8
_1-1_
  6
CONTINUOUS
 62
    7
 10
261.61985655088682
 20
190.77632594752959
 11
262.85094390044344
 21
188.04055703652872
  0
LINE
  8
_1-1_
  6
CONTINUOUS
 62
    7
 10
262.85094390044344
 20
188.04055703652872
 11
258.47370869404563
 21
186.0707999564506
  0
LINE
  8
_1-1_
  6
CONTINUOUS
 62
    7
 10
258.47370869404563
 20
186.0707999564506
 11
261.61985655088682
 21
190.77632594752959
  0
LINE
  8
_1-1_
  6
CONTINUOUS
 62
    7
 10
309.54130430479307
 20
209.0512414880701
 11
308.31021695523651
 21
211.78701039907097
  0
LINE
  8
_1-1_
  6
CONTINUOUS
 62
    7
 10
308.31021695523651
 20
211.78701039907097
 11
312.68745216163433
 21
213.75675510715794
  0
LINE
  8
_1-1_
  6
CONTINUOUS
 62
    7
 10
312.68745216163433
 20
213.75675510715794
 11
313.91853951119089
 21
211.02098619615711
  0
LINE
  8
_1-1_
  6
CONTINUOUS
 62
    7
 10
313.91853951119089
 20
211.02098619615711
 11
309.54130430479307
 21
209.0512414880701
  0
LINE
  8
_1-1_
  6
CONTINUOUS
 62
    7
 10
309.54130430479307
 20
209.0512414880701
 11
312.68745216163433
 21
213.75675510715794
  0
LINE
  8
_1-1_
  6
CONTINUOUS
 62
    7
 10
360.60889991554058
 20
232.03167064769849
 11
359.37781256598396
 21
234.76743955869935
  0
LINE
  8
_1-1_
  6
CONTINUOUS
 62
    7
 10
359.37781256598396
 20
234.76743955869935
 11
363.75504777238177
 21
236.73718426678633
  0
LINE
  8
_1-1_
  6
CONTINUOUS
 62
    7
 10
363.75504777238177
 20
236.73718426678633
 11
364.98613512193839
 21
234.0014153557855
  0
LINE
  8
_1-1_
  6
CONTINUOUS
 62
    7
 10
364.98613512193839
 20
234.0014153557855
 11
360.60889991554058
 21
232.03167064769849
  0
LINE
  8
_1-1_
  6
CONTINUOUS
 62
    7
 10
360.60889991554058
 20
232.03167064769849
 11
363.75504777238177
 21
236.73718426678633
  0
LINE
  8
ADD_LINE
  6
DOT
 62
    4
 10
110.46250626847551
 20
125.97405098580026
 11
112.26865613782729
 21
126.78681657120988
  0
LINE
  8
ADD_LINE
  6
DOT
 62
    4
 10
110.86029052734375
 20
126.15306132548565
 11
159.48464058540964
 21
144.81548000026393
  0
LINE
  8
_1-2_
  6
CONTINUOUS
 62
    3
 10
158.29657064901818
 20
150.14357695708404
 11
159.60359728014149
 21
150.64522408150339
  0
LINE
  8
_1-2_
  6
CONTINUOUS
 62
    3
 10
157.01782638962206
 20
149.01009224556589
 11
158.20948420344172
 21
149.46746001372466
  0
LINE
  8
_1-2_
  6
CONTINUOUS
 62
    3
 10
158.29657064901818
 20
150.14357695708404
 11
158.20948420344172
 21
149.46746001372466
  0
LINE
  8
_1-2_
  6
CONTINUOUS
 62
    3
 10
157.01782638962206
 20
149.01009224556589
 11
156.72918783651818
 21
146.9713118269637
  0
LINE
  8
_1-2_
  6
CONTINUOUS
 62
    3
 10
159.94679631413641
 20
148.634688918655
 11
160.32024486644849
 21
148.77803080790753
  0
LINE
  8
_1-2_
  6
CONTINUOUS
 62
    7
 10
159.60359728014149
 20
150.64522408150339
 11
160.32024486644849
 21
148.77803080790753
  0
LINE
  8
_1-2_
  6
CONTINUOUS
 62
    3
 10
159.94679631413641
 20
148.634688918655
 11
161.16509102486276
 21
145.46046901393581
  0
LINE
  8
_1-2_
  6
CONTINUOUS
 62
    7
 10
159.48464058540964
 20
144.81549237225508
 11
160.90475958746833
 21
142.78985100823479
  0
LINE
  8
_1-2_
  6
CONTINUOUS
 62
    7
 10
160.90475958746833
 20
142.78985100823479
 11
162.39851668074326
 21
143.36316907728042
  0
LINE
  8
_1-2_
  6
CONTINUOUS
 62
    3
 10
98.846091193121836
 20
124.75531088339316
 11
156.72918783651818
 21
146.9713118269637
  0
LINE
  8
_1-2_
  6
CONTINUOUS
 62
    3
 10
97.261653590846706
 20
117.72042351800043
 11
98.699947047877956
 21
118.43823407147383
  0
LINE
  8
_1-2_
  6
CONTINUOUS
 62
    3
 10
99.407297082849453
 20
121.75731762035474
 11
161.16509102486276
 21
145.46046901393581
  0
LINE
  8
_1-2_
  6
CONTINUOUS
 62
    3
 10
98.765994922534844
 20
120.85108164194469
 11
98.699947047877956
 21
118.43823407147383
  0
LINE
  8
_1-2_
  6
CONTINUOUS
 62
    3
 10
159.60359728014149
 20
150.64522408150339
 11
160.32024486644849
 21
148.77803080790753
  0
LINE
  8
_1-2_
  6
CONTINUOUS
 62
    7
 10
160.32024486644849
 20
148.77803080790753
 11
162.39851668074326
 21
143.36316907728042
  0
LINE
  8
ADD_LINE
  6
DOT
 62
    4
 10
159.38434085330448
 20
150.7737566973712
 11
159.7880389239337
 21
150.92870351430534
  0
LINE
  8
ADD_LINE
  6
DOT
 62
    4
 10
159.53244595914273
 20
150.83060599662164
 11
210.55226094013938
 21
167.79590915989232
  0
LINE
  8
_1-2_
  6
CONTINUOUS
 62
    3
 10
209.60746146537164
 20
173.17246720597552
 11
210.93594112911742
 21
173.61422152132602
  0
LINE
  8
_1-2_
  6
CONTINUOUS
 62
    3
 10
208.2785364099451
 20
172.09825670396961
 11
209.48975434174409
 21
172.50101450327281
  0
LINE
  8
_1-2_
  6
CONTINUOUS
 62
    3
 10
209.60746146537164
 20
173.17246720597552
 11
209.48975434174409
 21
172.50101450327281
  0
LINE
  8
_1-2_
  6
CONTINUOUS
 62
    3
 10
208.2785364099451
 20
172.09825670396961
 11
207.89757805901607
 21
170.07469383445948
  0
LINE
  8
_1-2_
  6
CONTINUOUS
 62
    3
 10
211.18743896484375
 20
171.59016377217063
 11
211.56701165276607
 21
171.7163828256968
  0
LINE
  8
_1-2_
  6
CONTINUOUS
 62
    7
 10
210.93594112911742
 20
173.61422152132602
 11
211.56701165276607
 21
171.7163828256968
  0
LINE
  8
_1-2_
  6
CONTINUOUS
 62
    3
 10
211.18743896484375
 20
171.59016377217063
 11
212.26026380384292
 21
168.36387015677789
  0
LINE
  8
_1-2_
  6
CONTINUOUS
 62
    7
 10
210.55223619615711
 20
167.79590915989232
 11
211.87886006123313
 21
165.7078387286212
  0
LINE
  8
_1-2_
  6
CONTINUOUS
 62
    7
 10
211.87886006123313
 20
165.7078387286212
 11
213.39712606894005
 21
166.21270257073482
  0
LINE
  8
_1-2_
  6
CONTINUOUS
 62
    3
 10
147.16249620592274
 20
143.55577623521961
 11
146.16151551942568
 21
148.4921388368349
  0
LINE
  8
_1-2_
  6
CONTINUOUS
 62
    3
 10
149.0649125382707
 20
150.51142099741344
 11
207.89757805901607
 21
170.07469383445948
  0
LINE
  8
_1-2_
  6
CONTINUOUS
 62
    3
 10
147.16249620592274
 20
143.55577623521961
 11
148.63191759264149
 21
144.20750798405828
  0
LINE
  8
_1-2_
  6
CONTINUOUS
 62
    3
 10
149.48933369404563
 20
147.49103443042654
 11
212.26026380384292
 21
168.36387015677789
  0
LINE
  8
_1-2_
  6
CONTINUOUS
 62
    3
 10
148.80751326277451
 20
146.61486239046664
 11
148.63191759264149
 21
144.20750798405828
  0
LINE
  8
_1-2_
  6
CONTINUOUS
 62
    3
 10
210.93594112911742
 20
173.61422152132602
 11
211.56701165276607
 21
171.7163828256968
  0
LINE
  8
_1-2_
  6
CONTINUOUS
 62
    7
 10
211.56701165276607
 20
171.7163828256968
 11
213.39712606894005
 21
166.21270257073482
  0
LINE
  8
ADD_LINE
  6
DOT
 62
    4
 10
210.44838570259714
 20
174.08440667229732
 11
211.1241438582137
 21
174.30910677523227
  0
LINE
  8
ADD_LINE
  6
DOT
 62
    4
 10
210.74662492081927
 20
174.18356818121833
 11
261.61985655088682
 21
190.77632594752959
  0
LINE
  8
_1-2_
  6
CONTINUOUS
 62
    3
 10
260.70598705394849
 20
196.15822869378169
 11
262.03696585990286
 21
196.59233711861276
  0
LINE
  8
_1-2_
  6
CONTINUOUS
 62
    3
 10
259.37090074693833
 20
195.09165171030406
 11
260.58439512510557
 21
195.48744407860011
  0
LINE
  8
_1-2_
  6
CONTINUOUS
 62
    3
 10
260.70598705394849
 20
196.15822869378169
 11
260.58439512510557
 21
195.48744407860011
  0
LINE
  8
_1-2_
  6
CONTINUOUS
 62
    3
 10
259.37090074693833
 20
195.09165171030406
 11
258.97833746832771
 21
193.07031579919766
  0
LINE
  8
_1-2_
  6
CONTINUOUS
 62
    3
 10
262.27683402396536
 20
194.56688133445948
 11
262.65712428737334
 21
194.69091054555534
  0
LINE
  8
_1-2_
  6
CONTINUOUS
 62
    7
 10
262.03696585990286
 20
196.59233711861276
 11
262.65712428737334
 21
194.69091054555534
  0
LINE
  8
_1-2_
  6
CONTINUOUS
 62
    3
 10
262.27683402396536
 20
194.56688133445948
 11
263.33110087626693
 21
191.33446358345651
  0
LINE
  8
_1-2_
  6
CONTINUOUS
 62
    7
 10
261.61985655088682
 20
190.77632594752959
 11
262.93447958456505
 21
188.68067148569469
  0
LINE
  8
_1-2_
  6
CONTINUOUS
 62
    7
 10
262.93447958456505
 20
188.68067148569469
 11
264.45559115023229
 21
189.17680070206927
  0
LINE
  8
_1-2_
  6
CONTINUOUS
 62
    3
 10
198.09197090767526
 20
166.90059764965162
 11
197.11935919684333
 21
171.84261425121412
  0
LINE
  8
_1-2_
  6
CONTINUOUS
 62
    3
 10
200.03429928341427
 20
173.84519422376479
 11
258.97833746832771
 21
193.07031579919766
  0
LINE
  8
_1-2_
  6
CONTINUOUS
 62
    3
 10
198.09197090767526
 20
166.90059764965162
 11
199.56511626372466
 21
167.54386695655617
  0
LINE
  8
_1-2_
  6
CONTINUOUS
 62
    3
 10
200.44136253563136
 20
170.82241986248945
 11
263.33110087626693
 21
191.33446358345651
  0
LINE
  8
_1-2_
  6
CONTINUOUS
 62
    3
 10
199.75453144795188
 20
169.95018211570948
 11
199.56511626372466
 21
167.54386695655617
  0
LINE
  8
_1-2_
  6
CONTINUOUS
 62
    3
 10
262.03696585990286
 20
196.59233711861276
 11
262.65712428737334
 21
194.69091054555534
  0
LINE
  8
_1-2_
  6
CONTINUOUS
 62
    7
 10
262.65712428737334
 20
194.69091054555534
 11
264.45559115023229
 21
189.17680070206927
  0
LINE
  8
_1-2_
  6
CONTINUOUS
 62
    3
 10
311.77358266469594
 20
219.13864548141893
 11
313.10456147065037
 21
219.57277865023227
  0
LINE
  8
_1-2_
  6
CONTINUOUS
 62
    3
 10
310.43849635768584
 20
218.07208086993245
 11
311.65199073585308
 21
218.46788561021961
  0
LINE
  8
_1-2_
  6
CONTINUOUS
 62
    3
 10
311.77358266469594
 20
219.13864548141893
 11
311.65199073585308
 21
218.46788561021961
  0
LINE
  8
_1-2_
  6
CONTINUOUS
 62
    3
 10
310.43849635768584
 20
218.07208086993245
 11
310.04593307907521
 21
216.05074495882602
  0
LINE
  8
_1-2_
  6
CONTINUOUS
 62
    3
 10
313.34442963471287
 20
217.54731049408784
 11
313.72471989812078
 21
217.67135207717484
  0
LINE
  8
_1-2_
  6
CONTINUOUS
 62
    7
 10
313.10456147065037
 20
219.57277865023227
 11
313.72471989812078
 21
217.67135207717484
  0
LINE
  8
_1-2_
  6
CONTINUOUS
 62
    3
 10
313.34442963471287
 20
217.54731049408784
 11
314.39869648701438
 21
214.31490511507602
  0
LINE
  8
_1-2_
  6
CONTINUOUS
 62
    7
 10
312.68745216163433
 20
213.75675510715794
 11
314.0020751953125
 21
211.66111301731419
  0
LINE
  8
_1-2_
  6
CONTINUOUS
 62
    7
 10
314.0020751953125
 20
211.66111301731419
 11
315.52318676097974
 21
212.15722986169766
  0
LINE
  8
_1-2_
  6
CONTINUOUS
 62
    3
 10
249.15957889041385
 20
189.88102680928
 11
248.18694243559969
 21
194.8230434108425
  0
LINE
  8
_1-2_
  6
CONTINUOUS
 62
    3
 10
251.10188252217063
 20
196.82562338339318
 11
310.04593307907521
 21
216.05074495882602
  0
LINE
  8
_1-2_
  6
CONTINUOUS
 62
    3
 10
249.15957889041385
 20
189.88102680928
 11
250.63271187447214
 21
190.52429611618456
  0
LINE
  8
_1-2_
  6
CONTINUOUS
 62
    3
 10
251.50897051836995
 20
193.80284902211784
 11
314.39869648701438
 21
214.31490511507602
  0
LINE
  8
_1-2_
  6
CONTINUOUS
 62
    3
 10
250.82212705869935
 20
192.93061127533784
 11
250.63271187447214
 21
190.52429611618456
  0
LINE
  8
_1-2_
  6
CONTINUOUS
 62
    3
 10
313.10456147065037
 20
219.57277865023227
 11
313.72471989812078
 21
217.67135207717484
  0
LINE
  8
_1-2_
  6
CONTINUOUS
 62
    7
 10
313.72471989812078
 20
217.67135207717484
 11
315.52318676097974
 21
212.15722986169766
  0
LINE
  8
_1-2_
  6
CONTINUOUS
 62
    3
 10
362.84117827544344
 20
242.11907464104732
 11
364.17215708139781
 21
242.55320780986065
  0
LINE
  8
_1-2_
  6
CONTINUOUS
 62
    3
 10
361.50609196843328
 20
241.05251002956084
 11
362.71958634660052
 21
241.448314769848
  0
LINE
  8
_1-2_
  6
CONTINUOUS
 62
    3
 10
362.84117827544344
 20
242.11907464104732
 11
362.71958634660052
 21
241.448314769848
  0
LINE
  8
_1-2_
  6
CONTINUOUS
 62
    3
 10
361.50609196843328
 20
241.05251002956084
 11
361.11352868982266
 21
239.0311741184544
  0
LINE
  8
_1-2_
  6
CONTINUOUS
 62
    3
 10
364.41202524546031
 20
240.52773965371622
 11
364.79231550886828
 21
240.65178123680323
  0
LINE
  8
_1-2_
  6
CONTINUOUS
 62
    7
 10
364.17215708139781
 20
242.55320780986065
 11
364.79231550886828
 21
240.65178123680323
  0
LINE
  8
_1-2_
  6
CONTINUOUS
 62
    3
 10
364.41202524546031
 20
240.52773965371622
 11
365.46629209776182
 21
237.2953342747044
  0
LINE
  8
_1-2_
  6
CONTINUOUS
 62
    7
 10
363.75504777238177
 20
236.73718426678633
 11
365.06967080606
 21
234.64154217694258
  0
LINE
  8
_1-2_
  6
CONTINUOUS
 62
    7
 10
365.06967080606
 20
234.64154217694258
 11
366.59078237172724
 21
235.13765902132602
  0
LINE
  8
_1-2_
  6
CONTINUOUS
 62
    3
 10
300.22714975717906
 20
212.86144359691724
 11
299.25456279032943
 21
217.80346019847974
  0
LINE
  8
_1-2_
  6
CONTINUOUS
 62
    3
 10
302.16950287690037
 20
219.80606491501268
 11
361.11352868982266
 21
239.0311741184544
  0
LINE
  8
_1-2_
  6
CONTINUOUS
 62
    3
 10
300.22714975717906
 20
212.86144359691724
 11
301.70030748521964
 21
213.50473764780406
  0
LINE
  8
_1-2_
  6
CONTINUOUS
 62
    3
 10
302.57654138513516
 20
216.78326580975508
 11
365.46629209776182
 21
237.2953342747044
  0
LINE
  8
_1-2_
  6
CONTINUOUS
 62
    3
 10
301.88972266944683
 20
215.91104043496622
 11
301.70030748521964
 21
213.50473764780406
  0
LINE
  8
_1-2_
  6
CONTINUOUS
 62
    3
 10
364.17215708139781
 20
242.55320780986065
 11
364.79231550886828
 21
240.65178123680323
  0
LINE
  8
_1-2_
  6
CONTINUOUS
 62
    7
 10
364.79231550886828
 20
240.65178123680323
 11
366.59078237172724
 21
235.13765902132602
  0
LINE
  8
_1-2_
  6
CONTINUOUS
 62
    3
 10
97.261653590846706
 20
117.72042351800043
 11
96.037438882363816
 21
122.60618467588684
  0
LINE
  8
_0-0_
  6
CONTINUOUS
 62
    5
 10
12.432428308435391
 20
278.51351351351354
 11
412.43244892842063
 21
278.51351351351354
  0
LINE
  8
_0-0_
  6
CONTINUOUS
 62
    5
 10
412.43244892842063
 20
8.5135135135135158
 11
12.432428308435391
 21
8.5135135135135158
  0
LINE
  8
_0-0_
  6
CONTINUOUS
 62
    5
 10
412.43244892842063
 20
28.513511451515001
 11
12.432415936444272
 21
28.513511451515001
  0
LINE
  8
_0-0_
  6
CONTINUOUS
 62
    5
 10
377.43248192039698
 20
8.5135135135135158
 11
377.43248192039698
 21
28.513511451515001
  0
LINE
  8
_0-0_
  6
CONTINUOUS
 62
    5
 10
142.70271507469386
 20
28.513511451515001
 11
142.70271507469386
 21
8.5135135135135158
  0
LINE
  8
_0-0_
  6
CONTINUOUS
 62
    5
 10
220.54054054054055
 20
28.513511451515001
 11
220.54054054054055
 21
8.5135135135135158
  0
LINE
  8
_0-0_
  6
CONTINUOUS
 62
    5
 10
402.16218690614443
 20
24.324325870823216
 11
389.59456985061234
 21
11.756758303255651
  0
LINE
  8
_1-4_
  6
CONTINUOUS
 62
    7
 10
76.176341288798568
 20
164.57665520745357
 11
127.31982669314823
 21
187.59123106260557
  0
LINE
  8
_1-4_
  6
CONTINUOUS
 62
    7
 10
88.859395207585521
 20
136.39209644214529
 11
76.176341288798568
 21
164.57665520745357
  0
LINE
  8
_1-4_
  6
CONTINUOUS
 62
    7
 10
140.00288679793076
 20
159.40668466928844
 11
127.31982669314823
 21
187.59124343459672
  0
LINE
  8
_1-4_
  6
CONTINUOUS
 62
    7
 10
127.31982669314823
 20
187.59123106260557
 11
178.42309075432857
 21
210.587719066723
  0
LINE
  8
_1-4_
  6
CONTINUOUS
 62
    7
 10
191.10613848711995
 20
182.40316030141472
 11
178.42309075432857
 21
210.587719066723
  0
LINE
  8
_1-4_
  6
CONTINUOUS
 62
    7
 10
178.42309075432857
 20
210.587719066723
 11
229.49749096019849
 21
233.57121648015203
  0
LINE
  8
_1-4_
  6
CONTINUOUS
 62
    7
 10
242.18056343697214
 20
205.3866700868349
 11
229.49751570418076
 21
233.57121648015203
  0
LINE
  8
_1-4_
  6
CONTINUOUS
 62
    7
 10
229.49749096019849
 20
233.57121648015203
 11
280.56511131492823
 21
256.55164563978042
  0
LINE
  8
_1-4_
  6
CONTINUOUS
 62
    7
 10
293.24815904771964
 20
228.36708687447214
 11
280.56508657094594
 21
256.55164563978042
  0
LINE
  8
_1-4_
  6
CONTINUOUS
 62
    7
 10
82.988167840081303
 20
149.43926424593539
 11
97.452472996067357
 21
155.94820589632602
  0
LINE
  8
_1-4_
  6
CONTINUOUS
 62
    7
 10
88.859395207585521
 20
136.39209644214529
 11
82.988167840081303
 21
149.43926424593539
  0
LINE
  8
_1-4_
  6
CONTINUOUS
 62
    7
 10
103.32370036357159
 20
142.90103809253591
 11
97.452472996067357
 21
155.94820589632602
  0
LINE
  8
_1-4_
  6
CONTINUOUS
 62
    7
 10
97.452472996067357
 20
155.94820589632602
 11
134.13165943042654
 21
172.45384010108742
  0
LINE
  8
_1-4_
  6
CONTINUOUS
 62
    7
 10
140.00288679793076
 20
159.40668466928844
 11
134.13165943042654
 21
172.45385247307857
  0
LINE
  8
_0-1_
  6
CONTINUOUS
 62
    7
 10
226.96402884818414
 20
114.30856240762247
 11
243.24324324324326
 21
114.30856240762247
  0
LINE
  8
_0-1_
  6
CONTINUOUS
 62
    7
 10
229.51181772592906
 20
107.30856405722129
 11
243.24324324324326
 21
107.30856405722129
  0
LINE
  8
_0-1_
  6
CONTINUOUS
 62
    7
 10
232.05960660367401
 20
100.3085657068201
 11
243.24324324324326
 21
100.3085657068201
  0
LINE
  8
_0-1_
  6
CONTINUOUS
 62
    7
 10
234.60739548141893
 20
93.308567356418919
 11
243.24324324324326
 21
93.308567356418919
  0
LINE
  8
_0-1_
  6
CONTINUOUS
 62
    7
 10
233.51351351351352
 20
183.24324324324326
 11
226.02732065561656
 21
203.81141868797511
  0
LINE
  8
_0-1_
  6
CONTINUOUS
 62
    7
 10
114.32432432432434
 20
122.43243243243244
 11
102.0047595049884
 21
88.584712260478256
  0
LINE
  8
_0-1_
  6
CONTINUOUS
 62
    7
 10
226.02732065561656
 20
203.81141868797511
 11
220.54054054054055
 21
203.81141868797511
  0
LINE
  8
_0-1_
  6
CONTINUOUS
 62
    7
 10
102.0047595049884
 20
88.584712260478256
 11
99.348808494774076
 21
88.584712260478256
  0
LINE
  8
_1-2_
  6
CONTINUOUS
 62
    3
 10
115.71055644267315
 20
125.68653828388936
 11
110.62697951858108
 21
125.32290072054477
  0
LINE
  8
_1-2_
  6
CONTINUOUS
 62
    3
 10
110.62697951858108
 20
125.32290072054477
 11
108.98396672429266
 21
123.22735760663008
  0
LINE
  8
_1-2_
  6
CONTINUOUS
 62
    3
 10
108.98396672429266
 20
123.22735760663008
 11
109.92425042229731
 21
123.87830992002746
  0
LINE
  8
_1-4_
  6
CONTINUOUS
 62
    7
 10
109.60658717799832
 20
123.83962270375845
 11
102.00730813516154
 21
102.9607680037215
  0
LINE
  8
_1-4_
  6
CONTINUOUS
 62
    7
 10
102.00730813516154
 20
102.9607680037215
 11
99.671816439241979
 21
102.9607680037215
  0
LINE
  8
_1-0_
  6
CONTINUOUS
 62
    7
 10
131.43394676414695
 20
124.297250283731
 11
132.91126148120779
 21
121.01433006492822
  0
LINE
  8
_1-0_
  6
CONTINUOUS
 62
    7
 10
116.49666038719384
 20
113.62776885161529
 11
111.32608362146327
 21
125.11797105943835
  0
LINE
  8
_1-0_
  6
CONTINUOUS
 62
    7
 10
132.91127385319891
 20
121.01434243691935
 11
116.49666038719384
 21
113.62776885161529
  0
LINE
  8
_1-0_
  6
CONTINUOUS
 62
    7
 10
131.81690937763938
 20
94.203823192699545
 11
132.63764252533784
 21
92.379981376029349
  0
LINE
  8
_1-0_
  6
CONTINUOUS
 62
    7
 10
129.08115283862966
 20
92.972729657147383
 11
131.81690937763938
 21
94.203823192699545
  0
LINE
  8
_1-0_
  6
CONTINUOUS
 62
    7
 10
132.63764252533784
 20
92.379981376029349
 11
379.61816736169766
 21
203.52120889199747
  0
LINE
  8
_1-0_
  6
DASHED2
 62
    7
 10
131.81690937763938
 20
94.203823192699545
 11
378.79743421399917
 21
205.34503833667654
  0
LINE
  8
_1-0_
  6
CONTINUOUS
 62
    7
 10
132.8793664880701
 20
120.99997855521538
 11
132.90581780510979
 21
121.02642987225508
  0
LINE
  8
_1-0_
  6
CONTINUOUS
 62
    7
 10
129.27956246040964
 20
119.38006426836994
 11
132.29136286555109
 21
122.39186467351141
  0
LINE
  8
_1-0_
  6
CONTINUOUS
 62
    7
 10
125.67975843274917
 20
117.76016235351562
 11
131.67692029798354
 21
123.75731184675888
  0
LINE
  8
_1-0_
  6
CONTINUOUS
 62
    7
 10
122.07992966110642
 20
116.14023569467906
 11
131.06246535842484
 21
125.12277139199747
  0
LINE
  8
_1-0_
  6
CONTINUOUS
 62
    7
 10
118.48013800543708
 20
114.52033377982475
 11
130.44541230072846
 21
126.48560807511613
  0
LINE
  8
_1-0_
  6
CONTINUOUS
 62
    7
 10
116.22076498495566
 20
114.24087524414062
 11
128.31296353726773
 21
126.33307379645271
  0
LINE
  8
_1-0_
  6
CONTINUOUS
 62
    7
 10
115.60631004539697
 20
115.6063224173881
 11
126.18052714579815
 21
126.18052714579815
  0
LINE
  8
_1-0_
  6
CONTINUOUS
 62
    7
 10
114.9918674778294
 20
116.97175721864443
 11
124.04810312631969
 21
126.02799286713471
  0
LINE
  8
_1-0_
  6
CONTINUOUS
 62
    7
 10
114.3774125382707
 20
118.33721676388303
 11
121.91565436285896
 21
125.87545858847129
  0
LINE
  8
_1-0_
  6
CONTINUOUS
 62
    7
 10
113.76296997070312
 20
119.7026639371305
 11
119.7832303433805
 21
125.72292430980787
  0
LINE
  8
_1-0_
  6
CONTINUOUS
 62
    7
 10
113.14851503114443
 20
121.06809873838684
 11
117.65080632390203
 21
125.57039003114443
  0
LINE
  8
_1-0_
  6
CONTINUOUS
 62
    7
 10
112.53406009158573
 20
122.43355828362543
 11
115.51834518845017
 21
125.417855752481
  0
LINE
  8
_1-0_
  6
CONTINUOUS
 62
    7
 10
111.91961752401816
 20
123.79900545687289
 11
113.38593354096284
 21
125.26530910182645
  0
LINE
  8
_1-4_
  6
CONTINUOUS
 62
    7
 10
208.52864858266472
 20
164.95930852116766
 11
234.60739548141893
 21
93.30856117042336
  0
LINE
  8
_1-0_
  6
CONTINUOUS
 62
    7
 10
134.55272777660474
 20
117.36665880357897
 11
370.59012748099661
 21
223.58348124736065
  0
LINE
  8
_1-0_
  6
CONTINUOUS
 62
    7
 10
134.55272777660474
 20
117.36665880357897
 11
120.87387084960937
 21
111.21118493982264
  0
LINE
  8
_1-0_
  6
CONTINUOUS
 62
    7
 10
119.23242929819469
 20
114.85885620117187
 11
129.08115283862966
 21
92.972729657147383
  0
LINE
  8
_1-0_
  6
CONTINUOUS
 62
    7
 10
182.1771240234375
 20
138.79763216585727
 11
163.35970904376057
 21
106.2049082163218
  0
LINE
  8
_1-0_
  6
CONTINUOUS
 62
    7
 10
186.85713896880279
 20
140.90364198426943
 11
168.03972398912586
 21
108.31091803473396
  0
LINE
  8
_1-0_
  6
CONTINUOUS
 62
    7
 10
191.53714154217695
 20
143.00963943069047
 11
172.7197265625
 21
110.41692785314612
  0
LINE
  8
_1-0_
  6
CONTINUOUS
 62
    7
 10
330.3549771695524
 20
205.47766608160896
 11
311.53757456186656
 21
172.88494213207349
  0
LINE
  8
_1-0_
  6
CONTINUOUS
 62
    7
 10
325.67499934016047
 20
203.37168100717906
 11
306.8575719884924
 21
170.77894468565245
  0
LINE
  8
_1-0_
  6
CONTINUOUS
 62
    7
 10
320.99499676678636
 20
201.2656711887669
 11
302.17756941511828
 21
168.67294723923143
  0
ARC
  8
_1-2_
  6
CONTINUOUS
 62
    3
 10
99.765620876002956
 20
120.82372716955237
 40
0.9999999162313101
 50
110.9971923828125
 51
178.43196105957031
  0
ARC
  8
_1-2_
  6
CONTINUOUS
 62
    3
 10
150.89325775971284
 20
144.78560164168076
 40
6.01062568458351
 50
107.70916748046875
 51
141.92730712890625
  0
ARC
  8
_1-2_
  6
CONTINUOUS
 62
    3
 10
149.80486895586995
 20
146.54211508261193
 40
0.9999999162313101
 50
108.39320373535156
 51
175.82797241210937
  0
ARC
  8
_1-2_
  6
CONTINUOUS
 62
    3
 10
201.82973500844597
 20
168.10898239548143
 40
6.01062568458351
 50
107.38015747070314
 51
141.59829711914062
  0
ARC
  8
_1-2_
  6
CONTINUOUS
 62
    3
 10
200.75144174936656
 20
169.87170657596073
 40
0.9999999162313101
 50
108.06419372558594
 51
175.49896240234378
  0
ARC
  8
_1-2_
  6
CONTINUOUS
 62
    3
 10
252.89733061919344
 20
191.08941155510982
 40
6.01062568458351
 50
107.38015747070314
 51
141.59829711914062
  0
ARC
  8
_1-2_
  6
CONTINUOUS
 62
    3
 10
251.81903736011404
 20
192.85213573558912
 40
0.9999999162313101
 50
108.06419372558594
 51
175.49896240234378
  0
ARC
  8
_1-2_
  6
CONTINUOUS
 62
    3
 10
303.96492622994089
 20
214.06984071473818
 40
6.01062568458351
 50
107.38015747070314
 51
141.59829711914062
  0
ARC
  8
_1-2_
  6
CONTINUOUS
 62
    3
 10
302.88663297086151
 20
215.83255252322635
 40
0.9999999162313101
 50
108.06419372558594
 51
175.49896240234378
  0
ARC
  8
_1-2_
  6
CONTINUOUS
 62
    3
 10
100.93269554344384
 20
119.11848325987121
 40
6.01062568458351
 50
110.31315612792969
 51
144.53143310546875
  0
CIRCLE
  8
_1-0_
  6
CONTINUOUS
 62
    7
 10
133.94500320022172
 20
124.50095511771538
 40
0.2678472770226968
  0
CIRCLE
  8
_1-0_
  6
CONTINUOUS
 62
    7
 10
136.4071778993349
 20
125.82673768739443
 40
0.2678472770226968
  0
CIRCLE
  8
_1-0_
  6
CONTINUOUS
 62
    7
 10
138.67994978621201
 20
126.58432419235642
 40
0.2678472770226968
  0
CIRCLE
  8
_1-0_
  6
CONTINUOUS
 62
    7
 10
139.24814585092906
 20
126.58432419235642
 40
0.2678472770226968
  0
CIRCLE
  8
_1-0_
  6
CONTINUOUS
 62
    7
 10
142.65730986724029
 20
128.09950957427154
 40
0.2678472770226968
  0
CIRCLE
  8
_1-0_
  6
CONTINUOUS
 62
    7
 10
140.76333123284417
 20
127.91010676203548
 40
0.2678472770226968
  0
CIRCLE
  8
_1-0_
  6
CONTINUOUS
 62
    7
 10
137.16477677628802
 20
127.72071632179055
 40
0.2678472770226968
  0
CIRCLE
  8
_1-0_
  6
CONTINUOUS
 62
    7
 10
134.70260207717484
 20
126.01612812763936
 40
0.2678472770226968
  0
CIRCLE
  8
_1-0_
  6
CONTINUOUS
 62
    7
 10
158.75612825960727
 20
133.21324941274284
 40
0.2678472770226968
  0
CIRCLE
  8
_1-0_
  6
CONTINUOUS
 62
    7
 10
155.53636705553211
 20
134.16023872994089
 40
0.2678472770226968
  0
CIRCLE
  8
_1-0_
  6
CONTINUOUS
 62
    7
 10
151.74840978673987
 20
132.6450657200169
 40
0.2678472770226968
  0
CIRCLE
  8
_1-0_
  6
CONTINUOUS
 62
    7
 10
147.58165926546664
 20
129.99348820866766
 40
0.2678472770226968
  0
CIRCLE
  8
_1-0_
  6
CONTINUOUS
 62
    7
 10
159.32432432432432
 20
136.62241342905406
 40
0.2678472770226968
  0
CIRCLE
  8
_1-0_
  6
CONTINUOUS
 62
    7
 10
163.86986809807857
 20
137.94819599873313
 40
0.2678472770226968
  0
CIRCLE
  8
_1-0_
  6
CONTINUOUS
 62
    7
 10
175.04434946421031
 20
141.35736001504435
 40
0.2678472770226968
  0
CIRCLE
  8
_1-0_
  6
CONTINUOUS
 62
    7
 10
176.74893765836148
 20
144.00893752639359
 40
0.2678472770226968
  0
CIRCLE
  8
_1-0_
  6
CONTINUOUS
 62
    7
 10
170.68819613070102
 20
143.25133864944047
 40
0.2678472770226968
  0
CIRCLE
  8
_1-0_
  6
CONTINUOUS
 62
    7
 10
170.30940287822003
 20
141.35736001504435
 40
0.2678472770226968
  0
CIRCLE
  8
_1-0_
  6
CONTINUOUS
 62
    7
 10
177.31713372307857
 20
143.44074146167654
 40
0.2678472770226968
  0
CIRCLE
  8
_1-0_
  6
CONTINUOUS
 62
    7
 10
180.34749211491766
 20
145.52411053631758
 40
0.2678472770226968
  0
CIRCLE
  8
_1-0_
  6
CONTINUOUS
 62
    7
 10
183.37785050675677
 20
146.47111222550677
 40
0.2678472770226968
  0
CIRCLE
  8
_1-0_
  6
CONTINUOUS
 62
    7
 10
187.92340665250211
 20
148.17568804766682
 40
0.2678472770226968
  0
CIRCLE
  8
_1-0_
  6
CONTINUOUS
 62
    7
 10
193.60535492768159
 20
151.77424250422297
 40
0.2678472770226968
  0
CIRCLE
  8
_1-0_
  6
CONTINUOUS
 62
    7
 10
191.14318022856841
 20
151.58485206397805
 40
0.2678472770226968
  0
CIRCLE
  8
_1-0_
  6
CONTINUOUS
 62
    7
 10
213.11331259237755
 20
160.67593961148648
 40
0.2678472770226968
  0
CIRCLE
  8
_1-0_
  6
CONTINUOUS
 62
    7
 10
210.84055307749156
 20
158.78196097709039
 40
0.2678472770226968
  0
CIRCLE
  8
_1-0_
  6
CONTINUOUS
 62
    7
 10
204.77981154983109
 20
156.50918909021325
 40
0.2678472770226968
  0
CIRCLE
  8
_1-0_
  6
CONTINUOUS
 62
    7
 10
200.80245146880279
 20
155.56219977301521
 40
0.2678472770226968
  0
CIRCLE
  8
_1-0_
  6
CONTINUOUS
 62
    7
 10
197.39328745249156
 20
153.2894278861381
 40
0.2678472770226968
  0
CIRCLE
  8
_1-0_
  6
CONTINUOUS
 62
    7
 10
202.88583291543497
 20
152.34243856894005
 40
0.2678472770226968
  0
CIRCLE
  8
_1-0_
  6
CONTINUOUS
 62
    7
 10
222.58320576435813
 20
161.62292892868456
 40
0.2678472770226968
  0
CIRCLE
  8
_1-0_
  6
CONTINUOUS
 62
    7
 10
225.61357652818836
 20
163.32750475084461
 40
0.2678472770226968
  0
CIRCLE
  8
_1-0_
  6
CONTINUOUS
 62
    7
 10
218.60585805532097
 20
163.51690756308068
 40
0.2678472770226968
  0
CIRCLE
  8
_1-0_
  6
CONTINUOUS
 62
    7
 10
221.82561925939612
 20
164.2745064400338
 40
0.2678472770226968
  0
CIRCLE
  8
_1-0_
  6
CONTINUOUS
 62
    7
 10
219.17405412003802
 20
163.32750475084461
 40
0.2678472770226968
  0
CIRCLE
  8
_1-0_
  6
CONTINUOUS
 62
    7
 10
218.41646761507602
 20
161.43352611644849
 40
0.2678472770226968
  0
CIRCLE
  8
_1-0_
  6
CONTINUOUS
 62
    7
 10
223.53020745354732
 20
164.08510362779774
 40
0.2678472770226968
  0
CIRCLE
  8
_1-0_
  6
CONTINUOUS
 62
    7
 10
227.88636078705659
 20
166.1684850744299
 40
0.2678472770226968
  0
CIRCLE
  8
_1-0_
  6
CONTINUOUS
 62
    7
 10
228.83333773226352
 20
168.06246370882602
 40
0.2678472770226968
  0
CIRCLE
  8
_1-0_
  6
CONTINUOUS
 62
    7
 10
232.43190456081084
 20
169.19885583826016
 40
0.2678472770226968
  0
CIRCLE
  8
_1-0_
  6
CONTINUOUS
 62
    7
 10
236.97744833456505
 20
169.76703953098607
 40
0.2678472770226968
  0
CIRCLE
  8
_1-0_
  6
CONTINUOUS
 62
    7
 10
237.54564439928211
 20
169.38824627850508
 40
0.2678472770226968
  0
CIRCLE
  8
_1-0_
  6
CONTINUOUS
 62
    7
 10
238.4926460884713
 20
169.95644234322214
 40
0.2678472770226968
  0
CIRCLE
  8
_1-0_
  6
CONTINUOUS
 62
    7
 10
239.62903821790542
 20
172.41861704233531
 40
0.2678472770226968
  0
CIRCLE
  8
_1-0_
  6
CONTINUOUS
 62
    7
 10
240.95482078758448
 20
173.74439961201438
 40
0.2678472770226968
  0
CIRCLE
  8
_1-0_
  6
CONTINUOUS
 62
    7
 10
243.41699548669766
 20
174.50198611697635
 40
0.2678472770226968
  0
CIRCLE
  8
_1-0_
  6
CONTINUOUS
 62
    7
 10
243.41699548669766
 20
174.50198611697635
 40
0.2678472770226968
  0
CIRCLE
  8
_1-0_
  6
CONTINUOUS
 62
    7
 10
243.98516680743245
 20
172.98681310705237
 40
0.2678472770226968
  0
CIRCLE
  8
_1-0_
  6
CONTINUOUS
 62
    7
 10
249.856517894848
 20
174.6913765572213
 40
0.2678472770226968
  0
CIRCLE
  8
_1-0_
  6
CONTINUOUS
 62
    7
 10
252.88688865867823
 20
176.39595237938136
 40
0.2678472770226968
  0
CIRCLE
  8
_1-0_
  6
CONTINUOUS
 62
    7
 10
249.09893138988599
 20
177.34295406857052
 40
0.2678472770226968
  0
CIRCLE
  8
_1-0_
  6
CONTINUOUS
 62
    7
 10
250.80351958403719
 20
177.15355125633448
 40
0.2678472770226968
  0
CIRCLE
  8
_1-0_
  6
CONTINUOUS
 62
    7
 10
255.15967291754646
 20
179.23693270296664
 40
0.2678472770226968
  0
CIRCLE
  8
_1-0_
  6
CONTINUOUS
 62
    7
 10
256.10664986275339
 20
181.13091133736276
 40
0.2678472770226968
  0
CIRCLE
  8
_1-0_
  6
CONTINUOUS
 62
    7
 10
259.70521669130068
 20
182.26730346679687
 40
0.2678472770226968
  0
CIRCLE
  8
_1-0_
  6
CONTINUOUS
 62
    7
 10
281.29654343063771
 20
188.51741069072003
 40
0.2678472770226968
  0
CIRCLE
  8
_1-0_
  6
CONTINUOUS
 62
    7
 10
284.32691419446792
 20
190.22198651288008
 40
0.2678472770226968
  0
CIRCLE
  8
_1-0_
  6
CONTINUOUS
 62
    7
 10
280.53895692567568
 20
191.16898820206927
 40
0.2678472770226968
  0
CIRCLE
  8
_1-0_
  6
CONTINUOUS
 62
    7
 10
282.24354511982688
 20
190.9795853898332
 40
0.2678472770226968
  0
CIRCLE
  8
_1-0_
  6
CONTINUOUS
 62
    7
 10
286.59969845333615
 20
193.06296683646539
 40
0.2678472770226968
  0
CIRCLE
  8
_1-0_
  6
CONTINUOUS
 62
    7
 10
287.54667539854307
 20
194.95694547086148
 40
0.2678472770226968
  0
CIRCLE
  8
_1-0_
  6
CONTINUOUS
 62
    7
 10
291.14524222709036
 20
196.09333760029563
 40
0.2678472770226968
  0
CIRCLE
  8
_1-0_
  6
CONTINUOUS
 62
    7
 10
271.63725981841219
 20
185.67645511111698
 40
0.2678472770226968
  0
CIRCLE
  8
_1-0_
  6
CONTINUOUS
 62
    7
 10
274.6676305822424
 20
187.38103093327703
 40
0.2678472770226968
  0
CIRCLE
  8
_1-0_
  6
CONTINUOUS
 62
    7
 10
270.87967331345021
 20
188.32803262246622
 40
0.2678472770226968
  0
CIRCLE
  8
_1-0_
  6
CONTINUOUS
 62
    7
 10
272.58426150760135
 20
188.13862981023016
 40
0.2678472770226968
  0
CIRCLE
  8
_1-0_
  6
CONTINUOUS
 62
    7
 10
276.94041484111068
 20
190.22201125686234
 40
0.2678472770226968
  0
CIRCLE
  8
_1-0_
  6
CONTINUOUS
 62
    7
 10
277.88739178631761
 20
192.11598989125847
 40
0.2678472770226968
  0
CIRCLE
  8
_1-0_
  6
CONTINUOUS
 62
    7
 10
281.4859586148649
 20
193.25238202069258
 40
0.2678472770226968
  0
CIRCLE
  8
_1-0_
  6
CONTINUOUS
 62
    7
 10
260.27338801203547
 20
180.18390964817357
 40
0.2678472770226968
  0
CIRCLE
  8
_1-0_
  6
CONTINUOUS
 62
    7
 10
263.30375877586573
 20
181.88848547033362
 40
0.2678472770226968
  0
CIRCLE
  8
_1-0_
  6
CONTINUOUS
 62
    7
 10
259.51580150707349
 20
182.83548715952281
 40
0.2678472770226968
  0
CIRCLE
  8
_1-0_
  6
CONTINUOUS
 62
    7
 10
261.22038970122469
 20
182.64608434728675
 40
0.2678472770226968
  0
CIRCLE
  8
_1-0_
  6
CONTINUOUS
 62
    7
 10
265.57654303473396
 20
184.72946579391893
 40
0.2678472770226968
  0
CIRCLE
  8
_1-0_
  6
CONTINUOUS
 62
    7
 10
266.52351997994089
 20
186.62344442831505
 40
0.2678472770226968
  0
CIRCLE
  8
_1-0_
  6
CONTINUOUS
 62
    7
 10
270.12208680848818
 20
187.75983655774917
 40
0.2678472770226968
  0
CIRCLE
  8
_1-0_
  6
CONTINUOUS
 62
    7
 10
296.82717813027875
 20
195.71454434781461
 40
0.2678472770226968
  0
CIRCLE
  8
_1-0_
  6
CONTINUOUS
 62
    7
 10
299.85754889410896
 20
197.41912016997466
 40
0.2678472770226968
  0
CIRCLE
  8
_1-0_
  6
CONTINUOUS
 62
    7
 10
296.06959162531672
 20
198.36612185916385
 40
0.2678472770226968
  0
CIRCLE
  8
_1-0_
  6
CONTINUOUS
 62
    7
 10
297.77417981946792
 20
198.17671904692779
 40
0.2678472770226968
  0
CIRCLE
  8
_1-0_
  6
CONTINUOUS
 62
    7
 10
302.13033315297719
 20
200.26010049355997
 40
0.2678472770226968
  0
CIRCLE
  8
_1-0_
  6
CONTINUOUS
 62
    7
 10
303.07731009818411
 20
202.15407912795609
 40
0.2678472770226968
  0
CIRCLE
  8
_1-0_
  6
CONTINUOUS
 62
    7
 10
306.67587692673146
 20
203.29047125739021
 40
0.2678472770226968
  0
CIRCLE
  8
_1-0_
  6
CONTINUOUS
 62
    7
 10
325.42624808646536
 20
208.59360153610643
 40
0.2678472770226968
  0
CIRCLE
  8
_1-0_
  6
CONTINUOUS
 62
    7
 10
328.45661885029563
 20
210.29816498627534
 40
0.2678472770226968
  0
CIRCLE
  8
_1-0_
  6
CONTINUOUS
 62
    7
 10
324.66866158150339
 20
211.24516667546453
 40
0.2678472770226968
  0
CIRCLE
  8
_1-0_
  6
CONTINUOUS
 62
    7
 10
326.37324977565459
 20
211.05577623521961
 40
0.2678472770226968
  0
CIRCLE
  8
_1-0_
  6
CONTINUOUS
 62
    7
 10
330.72940310916385
 20
213.13914530986065
 40
0.2678472770226968
  0
CIRCLE
  8
_1-0_
  6
CONTINUOUS
 62
    7
 10
331.67638005437078
 20
215.03312394425677
 40
0.2678472770226968
  0
CIRCLE
  8
_1-0_
  6
CONTINUOUS
 62
    7
 10
335.27494688291807
 20
216.16951607369089
 40
0.2678472770226968
  0
CIRCLE
  8
_1-0_
  6
CONTINUOUS
 62
    7
 10
315.38815884976776
 20
204.995022335568
 40
0.2678472770226968
  0
CIRCLE
  8
_1-0_
  6
CONTINUOUS
 62
    7
 10
318.41852961359797
 20
206.69959815772805
 40
0.2678472770226968
  0
CIRCLE
  8
_1-0_
  6
CONTINUOUS
 62
    7
 10
314.63057234480578
 20
207.64659984691724
 40
0.2678472770226968
  0
CIRCLE
  8
_1-0_
  6
CONTINUOUS
 62
    7
 10
316.33516053895693
 20
207.45719703468117
 40
0.2678472770226968
  0
CIRCLE
  8
_1-0_
  6
CONTINUOUS
 62
    7
 10
320.69131387246625
 20
209.54057848131336
 40
0.2678472770226968
  0
CIRCLE
  8
_1-0_
  6
CONTINUOUS
 62
    7
 10
321.63829081767318
 20
211.43455711570948
 40
0.2678472770226968
  0
CIRCLE
  8
_1-0_
  6
CONTINUOUS
 62
    7
 10
325.23685764622047
 20
212.57094924514359
 40
0.2678472770226968
  0
CIRCLE
  8
_1-0_
  6
CONTINUOUS
 62
    7
 10
307.62285387193839
 20
201.01767462653083
 40
0.2678472770226968
  0
CIRCLE
  8
_1-0_
  6
CONTINUOUS
 62
    7
 10
310.65322463576859
 20
202.72225044869089
 40
0.2678472770226968
  0
CIRCLE
  8
_1-0_
  6
CONTINUOUS
 62
    7
 10
306.86526736697635
 20
203.66925213788008
 40
0.2678472770226968
  0
CIRCLE
  8
_1-0_
  6
CONTINUOUS
 62
    7
 10
308.56985556112755
 20
203.47984932564401
 40
0.2678472770226968
  0
CIRCLE
  8
_1-0_
  6
CONTINUOUS
 62
    7
 10
312.92600889463682
 20
205.5632307722762
 40
0.2678472770226968
  0
CIRCLE
  8
_1-0_
  6
CONTINUOUS
 62
    7
 10
313.87298583984375
 20
207.45720940667232
 40
0.2678472770226968
  0
CIRCLE
  8
_1-0_
  6
CONTINUOUS
 62
    7
 10
317.47155266839104
 20
208.59360153610643
 40
0.2678472770226968
  0
CIRCLE
  8
_1-0_
  6
CONTINUOUS
 62
    7
 10
348.53279732369089
 20
219.76808290223818
 40
0.2678472770226968
  0
CIRCLE
  8
_1-0_
  6
CONTINUOUS
 62
    7
 10
351.56316808752115
 20
221.47264635240711
 40
0.2678472770226968
  0
CIRCLE
  8
_1-0_
  6
CONTINUOUS
 62
    7
 10
347.77521081872891
 20
222.4196480415963
 40
0.2678472770226968
  0
CIRCLE
  8
_1-0_
  6
CONTINUOUS
 62
    7
 10
349.47979901288011
 20
222.23025760135135
 40
0.2678472770226968
  0
CIRCLE
  8
_1-0_
  6
CONTINUOUS
 62
    7
 10
353.83595234638938
 20
224.31362667599242
 40
0.2678472770226968
  0
CIRCLE
  8
_1-0_
  6
CONTINUOUS
 62
    7
 10
354.7829292915963
 20
226.20760531038852
 40
0.2678472770226968
  0
CIRCLE
  8
_1-0_
  6
CONTINUOUS
 62
    7
 10
358.38149612014359
 20
227.34399743982266
 40
0.2678472770226968
  0
CIRCLE
  8
_1-0_
  6
CONTINUOUS
 62
    7
 10
338.87348896748313
 20
214.2755126953125
 40
0.2678472770226968
  0
CIRCLE
  8
_1-0_
  6
CONTINUOUS
 62
    7
 10
341.90385973131339
 20
215.9801008894637
 40
0.2678472770226968
  0
CIRCLE
  8
_1-0_
  6
CONTINUOUS
 62
    7
 10
338.11590246252115
 20
216.92710257865289
 40
0.2678472770226968
  0
CIRCLE
  8
_1-0_
  6
CONTINUOUS
 62
    7
 10
339.82049065667229
 20
216.73768739442568
 40
0.2678472770226968
  0
CIRCLE
  8
_1-0_
  6
CONTINUOUS
 62
    7
 10
344.17664399018162
 20
218.82108121304901
 40
0.2678472770226968
  0
CIRCLE
  8
_1-0_
  6
CONTINUOUS
 62
    7
 10
345.12362093538854
 20
220.7150598474451
 40
0.2678472770226968
  0
CIRCLE
  8
_1-0_
  6
CONTINUOUS
 62
    7
 10
348.72218776393584
 20
221.85145197687925
 40
0.2678472770226968
  0
CIRCLE
  8
_1-0_
  6
CONTINUOUS
 62
    7
 10
358.38147137616136
 20
223.93482105152029
 40
0.2678472770226968
  0
CIRCLE
  8
_1-0_
  6
CONTINUOUS
 62
    7
 10
361.41184213999156
 20
225.63940924567146
 40
0.2678472770226968
  0
CIRCLE
  8
_1-0_
  6
CONTINUOUS
 62
    7
 10
357.62388487119932
 20
226.58641093486065
 40
0.2678472770226968
  0
CIRCLE
  8
_1-0_
  6
CONTINUOUS
 62
    7
 10
359.32847306535052
 20
226.39699575063347
 40
0.2678472770226968
  0
CIRCLE
  8
_1-0_
  6
CONTINUOUS
 62
    7
 10
363.68462639885979
 20
228.48038956925677
 40
0.2678472770226968
  0
CIRCLE
  8
_1-0_
  6
CONTINUOUS
 62
    7
 10
364.63160334406672
 20
230.37436820365289
 40
0.2678472770226968
  0
CIRCLE
  8
_1-0_
  6
CONTINUOUS
 62
    7
 10
368.23017017261407
 20
231.51076033308701
 40
0.2678472770226968
  0
CIRCLE
  8
_1-0_
  6
CONTINUOUS
 62
    7
 10
123.5907353581609
 20
114.12477647936022
 40
0.2678472770226968
  0
CIRCLE
  8
_1-0_
  6
CONTINUOUS
 62
    7
 10
125.86350724503801
 20
114.88236298432221
 40
0.2678472770226968
  0
CIRCLE
  8
_1-0_
  6
CONTINUOUS
 62
    7
 10
126.43170330975508
 20
114.88236298432221
 40
0.2678472770226968
  0
CIRCLE
  8
_1-0_
  6
CONTINUOUS
 62
    7
 10
129.8408673260663
 20
116.39754836623733
 40
0.2678472770226968
  0
CIRCLE
  8
_1-0_
  6
CONTINUOUS
 62
    7
 10
127.9468886916702
 20
116.20814555400128
 40
0.2678472770226968
  0
CIRCLE
  8
_1-0_
  6
CONTINUOUS
 62
    7
 10
124.34833423511402
 20
116.01875511375634
 40
0.2678472770226968
  0
CIRCLE
  8
_1-0_
  6
CONTINUOUS
 62
    7
 10
121.88615953600085
 20
114.31416691960516
 40
0.2678472770226968
  0
CIRCLE
  8
_1-0_
  6
CONTINUOUS
 62
    7
 10
134.76521672429266
 20
118.29152700063345
 40
0.2678472770226968
  0
CIRCLE
  8
_1-0_
  6
CONTINUOUS
 62
    7
 10
134.31753622519005
 20
118.72197331608953
 40
0.2678472770226968
  0
CIRCLE
  8
_1-0_
  6
CONTINUOUS
 62
    7
 10
136.59030811206716
 20
119.47955982105152
 40
0.2678472770226968
  0
CIRCLE
  8
_1-0_
  6
CONTINUOUS
 62
    7
 10
137.15850417678422
 20
119.47955982105152
 40
0.2678472770226968
  0
CIRCLE
  8
_1-0_
  6
CONTINUOUS
 62
    7
 10
140.56766819309544
 20
120.99474520296664
 40
0.2678472770226968
  0
CIRCLE
  8
_1-0_
  6
CONTINUOUS
 62
    7
 10
138.67368955869932
 20
120.80534239073059
 40
0.2678472770226968
  0
CIRCLE
  8
_1-0_
  6
CONTINUOUS
 62
    7
 10
135.07513510214318
 20
120.61595195048565
 40
0.2678472770226968
  0
CIRCLE
  8
_1-0_
  6
CONTINUOUS
 62
    7
 10
132.61296040303
 20
118.91136375633447
 40
0.2678472770226968
  0
CIRCLE
  8
_1-0_
  6
CONTINUOUS
 62
    7
 10
145.4920175913218
 20
122.88872383736276
 40
0.2678472770226968
  0
CIRCLE
  8
_1-0_
  6
CONTINUOUS
 62
    7
 10
143.3726336504962
 20
123.59779976509714
 40
0.2678472770226968
  0
CIRCLE
  8
_1-0_
  6
CONTINUOUS
 62
    7
 10
145.64540553737331
 20
124.35538627005913
 40
0.2678472770226968
  0
CIRCLE
  8
_1-0_
  6
CONTINUOUS
 62
    7
 10
146.21360160209039
 20
124.35538627005913
 40
0.2678472770226968
  0
CIRCLE
  8
_1-0_
  6
CONTINUOUS
 62
    7
 10
149.62276561840162
 20
125.87057165197425
 40
0.2678472770226968
  0
CIRCLE
  8
_1-0_
  6
CONTINUOUS
 62
    7
 10
147.7287869840055
 20
125.68116883973818
 40
0.2678472770226968
  0
CIRCLE
  8
_1-0_
  6
CONTINUOUS
 62
    7
 10
144.13023252744932
 20
125.49177839949326
 40
0.2678472770226968
  0
CIRCLE
  8
_1-0_
  6
CONTINUOUS
 62
    7
 10
141.66805782833615
 20
123.78719020534207
 40
0.2678472770226968
  0
CIRCLE
  8
_1-0_
  6
CONTINUOUS
 62
    7
 10
154.54711501662797
 20
127.76455028637037
 40
0.2678472770226968
  0
CIRCLE
  8
_1-0_
  6
CONTINUOUS
 62
    7
 10
144.90504084406672
 20
125.96604630753801
 40
0.2678472770226968
  0
CIRCLE
  8
_1-0_
  6
CONTINUOUS
 62
    7
 10
147.17781273094386
 20
126.7236328125
 40
0.2678472770226968
  0
CIRCLE
  8
_1-0_
  6
CONTINUOUS
 62
    7
 10
147.74600879566091
 20
126.7236328125
 40
0.2678472770226968
  0
CIRCLE
  8
_1-0_
  6
CONTINUOUS
 62
    7
 10
151.15517281197214
 20
128.23881819441513
 40
0.2678472770226968
  0
CIRCLE
  8
_1-0_
  6
CONTINUOUS
 62
    7
 10
149.26119417757602
 20
128.04941538217906
 40
0.2678472770226968
  0
CIRCLE
  8
_1-0_
  6
CONTINUOUS
 62
    7
 10
145.66263972101984
 20
127.86002494193413
 40
0.2678472770226968
  0
CIRCLE
  8
_1-0_
  6
CONTINUOUS
 62
    7
 10
143.20046502190667
 20
126.15543674778294
 40
0.2678472770226968
  0
CIRCLE
  8
_1-0_
  6
CONTINUOUS
 62
    7
 10
156.07952221019849
 20
130.13279682881125
 40
0.2678472770226968
  0
CIRCLE
  8
_1-0_
  6
CONTINUOUS
 62
    7
 10
150.61670664194469
 20
128.33430522197003
 40
0.2678472770226968
  0
CIRCLE
  8
_1-0_
  6
CONTINUOUS
 62
    7
 10
152.8894785288218
 20
129.091891726932
 40
0.2678472770226968
  0
CIRCLE
  8
_1-0_
  6
CONTINUOUS
 62
    7
 10
153.45767459353885
 20
129.091891726932
 40
0.2678472770226968
  0
CIRCLE
  8
_1-0_
  6
CONTINUOUS
 62
    7
 10
156.86683860985011
 20
130.60707710884714
 40
0.2678472770226968
  0
CIRCLE
  8
_1-0_
  6
CONTINUOUS
 62
    7
 10
154.97285997545399
 20
130.41767429661107
 40
0.2678472770226968
  0
CIRCLE
  8
_1-0_
  6
CONTINUOUS
 62
    7
 10
151.37430551889781
 20
130.22828385636615
 40
0.2678472770226968
  0
CIRCLE
  8
_1-0_
  6
CONTINUOUS
 62
    7
 10
148.91213081978464
 20
128.52369566221495
 40
0.2678472770226968
  0
CIRCLE
  8
_1-0_
  6
CONTINUOUS
 62
    7
 10
161.79118800807643
 20
132.50105574324326
 40
0.2678472770226968
  0
CIRCLE
  8
_1-0_
  6
CONTINUOUS
 62
    7
 10
158.00010062552789
 20
130.56325551625847
 40
0.2678472770226968
  0
CIRCLE
  8
_1-0_
  6
CONTINUOUS
 62
    7
 10
160.272872512405
 20
131.32084202122044
 40
0.2678472770226968
  0
CIRCLE
  8
_1-0_
  6
CONTINUOUS
 62
    7
 10
160.84106857712206
 20
131.32084202122044
 40
0.2678472770226968
  0
CIRCLE
  8
_1-0_
  6
CONTINUOUS
 62
    7
 10
164.25023259343328
 20
132.83602740313557
 40
0.2678472770226968
  0
CIRCLE
  8
_1-0_
  6
CONTINUOUS
 62
    7
 10
162.35625395903716
 20
132.64662459089951
 40
0.2678472770226968
  0
CIRCLE
  8
_1-0_
  6
CONTINUOUS
 62
    7
 10
158.75769950248102
 20
132.45723415065456
 40
0.2678472770226968
  0
CIRCLE
  8
_1-0_
  6
CONTINUOUS
 62
    7
 10
156.29552480336784
 20
130.75264595650339
 40
0.2678472770226968
  0
CIRCLE
  8
_1-0_
  6
CONTINUOUS
 62
    7
 10
169.17458199165964
 20
134.73000603753167
 40
0.2678472770226968
  0
CIRCLE
  8
_1-0_
  6
CONTINUOUS
 62
    7
 10
171.51309863941091
 20
135.99631644584039
 40
0.2678472770226968
  0
CIRCLE
  8
_1-0_
  6
CONTINUOUS
 62
    7
 10
173.78587052628802
 20
136.75390295080237
 40
0.2678472770226968
  0
CIRCLE
  8
_1-0_
  6
CONTINUOUS
 62
    7
 10
174.35406659100508
 20
136.75390295080237
 40
0.2678472770226968
  0
CIRCLE
  8
_1-0_
  6
CONTINUOUS
 62
    7
 10
177.7632306073163
 20
138.2690883327175
 40
0.2678472770226968
  0
CIRCLE
  8
_1-0_
  6
CONTINUOUS
 62
    7
 10
175.86925197292018
 20
138.07968552048143
 40
0.2678472770226968
  0
CIRCLE
  8
_1-0_
  6
CONTINUOUS
 62
    7
 10
172.27069751636404
 20
137.89029508023648
 40
0.2678472770226968
  0
CIRCLE
  8
_1-0_
  6
CONTINUOUS
 62
    7
 10
169.80852281725086
 20
136.18570688608531
 40
0.2678472770226968
  0
CIRCLE
  8
_1-0_
  6
CONTINUOUS
 62
    7
 10
182.68758000554266
 20
140.16306696711359
 40
0.2678472770226968
  0
CIRCLE
  8
_1-0_
  6
CONTINUOUS
 62
    7
 10
175.27444375527872
 20
141.01145151499156
 40
0.2678472770226968
  0
CIRCLE
  8
_1-0_
  6
CONTINUOUS
 62
    7
 10
177.54721564215583
 20
141.76903801995354
 40
0.2678472770226968
  0
CIRCLE
  8
_1-0_
  6
CONTINUOUS
 62
    7
 10
178.11541170687289
 20
141.76903801995354
 40
0.2678472770226968
  0
CIRCLE
  8
_1-0_
  6
CONTINUOUS
 62
    7
 10
181.52457572318414
 20
143.28422340186867
 40
0.2678472770226968
  0
CIRCLE
  8
_1-0_
  6
CONTINUOUS
 62
    7
 10
179.63059708878802
 20
143.0948205896326
 40
0.2678472770226968
  0
CIRCLE
  8
_1-0_
  6
CONTINUOUS
 62
    7
 10
176.03204263223185
 20
142.90543014938768
 40
0.2678472770226968
  0
CIRCLE
  8
_1-0_
  6
CONTINUOUS
 62
    7
 10
173.56986793311867
 20
141.20084195523648
 40
0.2678472770226968
  0
CIRCLE
  8
_1-0_
  6
CONTINUOUS
 62
    7
 10
186.4489251214105
 20
145.17820203626479
 40
0.2678472770226968
  0
CIRCLE
  8
_1-0_
  6
CONTINUOUS
 62
    7
 10
195.75289752032307
 20
147.41967278557857
 40
0.2678472770226968
  0
CIRCLE
  8
_1-0_
  6
CONTINUOUS
 62
    7
 10
198.02566940720018
 20
148.17725929054055
 40
0.2678472770226968
  0
CIRCLE
  8
_1-0_
  6
CONTINUOUS
 62
    7
 10
198.59386547191724
 20
148.17725929054055
 40
0.2678472770226968
  0
CIRCLE
  8
_1-0_
  6
CONTINUOUS
 62
    7
 10
202.00302948822846
 20
149.69244467245568
 40
0.2678472770226968
  0
CIRCLE
  8
_1-0_
  6
CONTINUOUS
 62
    7
 10
200.10905085383237
 20
149.50304186021961
 40
0.2678472770226968
  0
CIRCLE
  8
_1-0_
  6
CONTINUOUS
 62
    7
 10
196.5104963972762
 20
149.31365141997466
 40
0.2678472770226968
  0
CIRCLE
  8
_1-0_
  6
CONTINUOUS
 62
    7
 10
194.04832169816302
 20
147.60906322582349
 40
0.2678472770226968
  0
CIRCLE
  8
_1-0_
  6
CONTINUOUS
 62
    7
 10
206.92737888645482
 20
151.58642330685177
 40
0.2678472770226968
  0
CIRCLE
  8
_1-0_
  6
CONTINUOUS
 62
    7
 10
189.34467624973607
 20
145.3300311114337
 40
0.2678472770226968
  0
CIRCLE
  8
_1-0_
  6
CONTINUOUS
 62
    7
 10
191.61744813661318
 20
146.0876176163957
 40
0.2678472770226968
  0
CIRCLE
  8
_1-0_
  6
CONTINUOUS
 62
    7
 10
192.18564420133023
 20
146.0876176163957
 40
0.2678472770226968
  0
CIRCLE
  8
_1-0_
  6
CONTINUOUS
 62
    7
 10
195.59480821764149
 20
147.60280299831081
 40
0.2678472770226968
  0
CIRCLE
  8
_1-0_
  6
CONTINUOUS
 62
    7
 10
193.70082958324537
 20
147.41340018607477
 40
0.2678472770226968
  0
CIRCLE
  8
_1-0_
  6
CONTINUOUS
 62
    7
 10
190.10227512668919
 20
147.22400974582982
 40
0.2678472770226968
  0
CIRCLE
  8
_1-0_
  6
CONTINUOUS
 62
    7
 10
187.64010042757602
 20
145.51942155167865
 40
0.2678472770226968
  0
CIRCLE
  8
_1-0_
  6
CONTINUOUS
 62
    7
 10
200.51915761586784
 20
149.49678163270693
 40
0.2678472770226968
  0
CIRCLE
  8
_1-0_
  6
CONTINUOUS
 62
    7
 10
209.40520415434966
 20
151.59894376187711
 40
0.2678472770226968
  0
CIRCLE
  8
_1-0_
  6
CONTINUOUS
 62
    7
 10
211.67796366923565
 20
152.35653026683912
 40
0.2678472770226968
  0
CIRCLE
  8
_1-0_
  6
CONTINUOUS
 62
    7
 10
212.24615973395271
 20
152.35653026683912
 40
0.2678472770226968
  0
CIRCLE
  8
_1-0_
  6
CONTINUOUS
 62
    7
 10
215.65533612225508
 20
153.87171564875422
 40
0.2678472770226968
  0
CIRCLE
  8
_1-0_
  6
CONTINUOUS
 62
    7
 10
213.76133274387669
 20
153.68231283651818
 40
0.2678472770226968
  0
CIRCLE
  8
_1-0_
  6
CONTINUOUS
 62
    7
 10
210.16279065931167
 20
153.49292239627323
 40
0.2678472770226968
  0
CIRCLE
  8
_1-0_
  6
CONTINUOUS
 62
    7
 10
207.70061596019849
 20
151.78833420212206
 40
0.2678472770226968
  0
CIRCLE
  8
_1-0_
  6
CONTINUOUS
 62
    7
 10
220.57968552048143
 20
155.76569428315034
 40
0.2678472770226968
  0
CIRCLE
  8
_1-0_
  6
CONTINUOUS
 62
    7
 10
212.05206793707771
 20
155.49959749788852
 40
0.2678472770226968
  0
CIRCLE
  8
_1-0_
  6
CONTINUOUS
 62
    7
 10
214.32485219594597
 20
156.25718400285052
 40
0.2678472770226968
  0
CIRCLE
  8
_1-0_
  6
CONTINUOUS
 62
    7
 10
214.89304826066302
 20
156.25718400285052
 40
0.2678472770226968
  0
CIRCLE
  8
_1-0_
  6
CONTINUOUS
 62
    7
 10
218.30219990498313
 20
157.77236938476562
 40
0.2678472770226968
  0
CIRCLE
  8
_1-0_
  6
CONTINUOUS
 62
    7
 10
216.40824601456927
 20
157.58296657252956
 40
0.2678472770226968
  0
CIRCLE
  8
_1-0_
  6
CONTINUOUS
 62
    7
 10
212.80967918602198
 20
157.39357613228464
 40
0.2678472770226968
  0
CIRCLE
  8
_1-0_
  6
CONTINUOUS
 62
    7
 10
210.3475044869088
 20
155.68898793813347
 40
0.2678472770226968
  0
CIRCLE
  8
_1-0_
  6
CONTINUOUS
 62
    7
 10
223.22654930320948
 20
159.66634801916175
 40
0.2678472770226968
  0
CIRCLE
  8
_1-0_
  6
CONTINUOUS
 62
    7
 10
218.32100533150339
 20
158.14647365260768
 40
0.2678472770226968
  0
CIRCLE
  8
_1-0_
  6
CONTINUOUS
 62
    7
 10
220.59376484638938
 20
158.90406015756969
 40
0.2678472770226968
  0
CIRCLE
  8
_1-0_
  6
CONTINUOUS
 62
    7
 10
221.16196091110643
 20
158.90406015756969
 40
0.2678472770226968
  0
CIRCLE
  8
_1-0_
  6
CONTINUOUS
 62
    7
 10
224.5711372994088
 20
160.41924553948482
 40
0.2678472770226968
  0
CIRCLE
  8
_1-0_
  6
CONTINUOUS
 62
    7
 10
222.67713392103042
 20
160.22984272724875
 40
0.2678472770226968
  0
CIRCLE
  8
_1-0_
  6
CONTINUOUS
 62
    7
 10
219.07859183646539
 20
160.0404522870038
 40
0.2678472770226968
  0
CIRCLE
  8
_1-0_
  6
CONTINUOUS
 62
    7
 10
216.61641713735222
 20
158.33586409285263
 40
0.2678472770226968
  0
CIRCLE
  8
_1-0_
  6
CONTINUOUS
 62
    7
 10
229.49548669763516
 20
162.31322417388091
 40
0.2678472770226968
  0
CIRCLE
  8
_1-0_
  6
CONTINUOUS
 62
    7
 10
222.778881176098
 20
160.09680670660896
 40
0.2678472770226968
  0
CIRCLE
  8
_1-0_
  6
CONTINUOUS
 62
    7
 10
225.05164069098396
 20
160.85439321157097
 40
0.2678472770226968
  0
CIRCLE
  8
_1-0_
  6
CONTINUOUS
 62
    7
 10
225.61983675570102
 20
160.85439321157097
 40
0.2678472770226968
  0
CIRCLE
  8
_1-0_
  6
CONTINUOUS
 62
    7
 10
229.02901314400339
 20
162.36957859348607
 40
0.2678472770226968
  0
CIRCLE
  8
_1-0_
  6
CONTINUOUS
 62
    7
 10
227.135009765625
 20
162.18017578125
 40
0.2678472770226968
  0
CIRCLE
  8
_1-0_
  6
CONTINUOUS
 62
    7
 10
223.53646768105997
 20
161.99078534100508
 40
0.2678472770226968
  0
CIRCLE
  8
_1-0_
  6
CONTINUOUS
 62
    7
 10
221.0742929819468
 20
160.28619714685391
 40
0.2678472770226968
  0
CIRCLE
  8
_1-0_
  6
CONTINUOUS
 62
    7
 10
233.95336254222974
 20
164.26355722788219
 40
0.2678472770226968
  0
CIRCLE
  8
_1-0_
  6
CONTINUOUS
 62
    7
 10
225.56505357896961
 20
162.04712738861909
 40
0.2678472770226968
  0
CIRCLE
  8
_1-0_
  6
CONTINUOUS
 62
    7
 10
227.83783783783784
 20
162.80471389358109
 40
0.2678472770226968
  0
CIRCLE
  8
_1-0_
  6
CONTINUOUS
 62
    7
 10
228.40603390255492
 20
162.80471389358109
 40
0.2678472770226968
  0
CIRCLE
  8
_1-0_
  6
CONTINUOUS
 62
    7
 10
231.815185546875
 20
164.3198992754962
 40
0.2678472770226968
  0
CIRCLE
  8
_1-0_
  6
CONTINUOUS
 62
    7
 10
229.92123165646117
 20
164.13049646326016
 40
0.2678472770226968
  0
CIRCLE
  8
_1-0_
  6
CONTINUOUS
 62
    7
 10
226.32266482791385
 20
163.94110602301521
 40
0.2678472770226968
  0
CIRCLE
  8
_1-0_
  6
CONTINUOUS
 62
    7
 10
223.86049012880068
 20
162.23651782886404
 40
0.2678472770226968
  0
CIRCLE
  8
_1-0_
  6
CONTINUOUS
 62
    7
 10
236.73953494510135
 20
166.21387790989232
 40
0.2678472770226968
  0
CIRCLE
  8
_1-0_
  6
CONTINUOUS
 62
    7
 10
242.14287835198482
 20
170.54500270534206
 40
0.2678472770226968
  0
CIRCLE
  8
_1-0_
  6
CONTINUOUS
 62
    7
 10
244.41563786687078
 20
171.30258921030406
 40
0.2678472770226968
  0
CIRCLE
  8
_1-0_
  6
CONTINUOUS
 62
    7
 10
244.98383393158784
 20
171.30258921030406
 40
0.2678472770226968
  0
CIRCLE
  8
_1-0_
  6
CONTINUOUS
 62
    7
 10
248.39301031989021
 20
172.81777459221919
 40
0.2678472770226968
  0
CIRCLE
  8
_1-0_
  6
CONTINUOUS
 62
    7
 10
246.49900694151185
 20
172.62837177998313
 40
0.2678472770226968
  0
CIRCLE
  8
_1-0_
  6
CONTINUOUS
 62
    7
 10
242.9004648569468
 20
172.43898133973818
 40
0.2678472770226968
  0
CIRCLE
  8
_1-0_
  6
CONTINUOUS
 62
    7
 10
240.43829015783362
 20
170.73439314558701
 40
0.2678472770226968
  0
CIRCLE
  8
_1-0_
  6
CONTINUOUS
 62
    7
 10
253.31735971811656
 20
174.71175322661529
 40
0.2678472770226968
  0
CIRCLE
  8
_1-0_
  6
CONTINUOUS
 62
    7
 10
237.68495301942568
 20
166.36571935705237
 40
0.2678472770226968
  0
CIRCLE
  8
_1-0_
  6
CONTINUOUS
 62
    7
 10
239.95773727829393
 20
167.12330586201438
 40
0.2678472770226968
  0
CIRCLE
  8
_1-0_
  6
CONTINUOUS
 62
    7
 10
240.52593334301099
 20
167.12330586201438
 40
0.2678472770226968
  0
CIRCLE
  8
_1-0_
  6
CONTINUOUS
 62
    7
 10
243.93508498733109
 20
168.63849124392948
 40
0.2678472770226968
  0
CIRCLE
  8
_1-0_
  6
CONTINUOUS
 62
    7
 10
242.04113109691724
 20
168.44908843169341
 40
0.2678472770226968
  0
CIRCLE
  8
_1-0_
  6
CONTINUOUS
 62
    7
 10
238.44256426836995
 20
168.25969799144849
 40
0.2678472770226968
  0
CIRCLE
  8
_1-0_
  6
CONTINUOUS
 62
    7
 10
235.98038956925677
 20
166.55510979729732
 40
0.2678472770226968
  0
CIRCLE
  8
_1-0_
  6
CONTINUOUS
 62
    7
 10
248.85943438555745
 20
170.5324698783256
 40
0.2678472770226968
  0
CIRCLE
  8
_1-0_
  6
CONTINUOUS
 62
    7
 10
255.79512312605576
 20
176.25668087521115
 40
0.2678472770226968
  0
CIRCLE
  8
_1-0_
  6
CONTINUOUS
 62
    7
 10
258.06790738492401
 20
177.01426738017315
 40
0.2678472770226968
  0
CIRCLE
  8
_1-0_
  6
CONTINUOUS
 62
    7
 10
258.63610344964104
 20
177.01426738017315
 40
0.2678472770226968
  0
CIRCLE
  8
_1-0_
  6
CONTINUOUS
 62
    7
 10
262.04525509396115
 20
178.52945276208828
 40
0.2678472770226968
  0
CIRCLE
  8
_1-0_
  6
CONTINUOUS
 62
    7
 10
260.15130120354729
 20
178.34004994985222
 40
0.2678472770226968
  0
CIRCLE
  8
_1-0_
  6
CONTINUOUS
 62
    7
 10
256.552734375
 20
178.15065950960727
 40
0.2678472770226968
  0
CIRCLE
  8
_1-0_
  6
CONTINUOUS
 62
    7
 10
254.09055967588685
 20
176.44607131545609
 40
0.2678472770226968
  0
CIRCLE
  8
_1-0_
  6
CONTINUOUS
 62
    7
 10
266.9696044921875
 20
180.42343139648437
 40
0.2678472770226968
  0
CIRCLE
  8
_1-0_
  6
CONTINUOUS
 62
    7
 10
264.01438120249156
 20
178.2070015572213
 40
0.2678472770226968
  0
CIRCLE
  8
_1-0_
  6
CONTINUOUS
 62
    7
 10
266.28716546135979
 20
178.96458806218328
 40
0.2678472770226968
  0
CIRCLE
  8
_1-0_
  6
CONTINUOUS
 62
    7
 10
266.85536152607688
 20
178.96458806218328
 40
0.2678472770226968
  0
CIRCLE
  8
_1-0_
  6
CONTINUOUS
 62
    7
 10
270.26451317039698
 20
180.47977344409841
 40
0.2678472770226968
  0
CIRCLE
  8
_1-0_
  6
CONTINUOUS
 62
    7
 10
268.37055927998313
 20
180.29037063186234
 40
0.2678472770226968
  0
CIRCLE
  8
_1-0_
  6
CONTINUOUS
 62
    7
 10
264.77199245143584
 20
180.1009801916174
 40
0.2678472770226968
  0
CIRCLE
  8
_1-0_
  6
CONTINUOUS
 62
    7
 10
262.30981775232266
 20
178.39639199746622
 40
0.2678472770226968
  0
CIRCLE
  8
_1-0_
  6
CONTINUOUS
 62
    7
 10
275.18886256862334
 20
182.37375207849453
 40
0.2678472770226968
  0
CIRCLE
  8
_1-0_
  6
CONTINUOUS
 62
    7
 10
268.89018290751693
 20
180.43595185150971
 40
0.2678472770226968
  0
CIRCLE
  8
_1-0_
  6
CONTINUOUS
 62
    7
 10
271.16296716638516
 20
181.19353835647172
 40
0.2678472770226968
  0
CIRCLE
  8
_1-0_
  6
CONTINUOUS
 62
    7
 10
271.73116323110219
 20
181.19353835647172
 40
0.2678472770226968
  0
CIRCLE
  8
_1-0_
  6
CONTINUOUS
 62
    7
 10
275.14031487542229
 20
182.70872373838682
 40
0.2678472770226968
  0
CIRCLE
  8
_1-0_
  6
CONTINUOUS
 62
    7
 10
273.24636098500844
 20
182.51932092615078
 40
0.2678472770226968
  0
CIRCLE
  8
_1-0_
  6
CONTINUOUS
 62
    7
 10
269.64779415646115
 20
182.32993048590583
 40
0.2678472770226968
  0
CIRCLE
  8
_1-0_
  6
CONTINUOUS
 62
    7
 10
267.18561945734797
 20
180.62534229175466
 40
0.2678472770226968
  0
CIRCLE
  8
_1-0_
  6
CONTINUOUS
 62
    7
 10
280.06466427364865
 20
184.60270237278294
 40
0.2678472770226968
  0
CIRCLE
  8
_1-0_
  6
CONTINUOUS
 62
    7
 10
278.92045304581927
 20
186.00830902924409
 40
0.2678472770226968
  0
CIRCLE
  8
_1-0_
  6
CONTINUOUS
 62
    7
 10
281.1932373046875
 20
186.76589553420609
 40
0.2678472770226968
  0
CIRCLE
  8
_1-0_
  6
CONTINUOUS
 62
    7
 10
281.76143336940459
 20
186.76589553420609
 40
0.2678472770226968
  0
CIRCLE
  8
_1-0_
  6
CONTINUOUS
 62
    7
 10
285.17058501372469
 20
188.2810809161212
 40
0.2678472770226968
  0
CIRCLE
  8
_1-0_
  6
CONTINUOUS
 62
    7
 10
283.27663112331084
 20
188.09167810388516
 40
0.2678472770226968
  0
CIRCLE
  8
_1-0_
  6
CONTINUOUS
 62
    7
 10
279.67806429476354
 20
187.90228766364021
 40
0.2678472770226968
  0
CIRCLE
  8
_1-0_
  6
CONTINUOUS
 62
    7
 10
277.21588959565037
 20
186.19769946948904
 40
0.2678472770226968
  0
CIRCLE
  8
_1-0_
  6
CONTINUOUS
 62
    7
 10
290.09493441195104
 20
190.17505955051732
 40
0.2678472770226968
  0
CIRCLE
  8
_1-0_
  6
CONTINUOUS
 62
    7
 10
305.80711570945948
 20
200.6357883762669
 40
0.2678472770226968
  0
CIRCLE
  8
_1-0_
  6
CONTINUOUS
 62
    7
 10
308.07987522434547
 20
201.39337488122891
 40
0.2678472770226968
  0
CIRCLE
  8
_1-0_
  6
CONTINUOUS
 62
    7
 10
308.6480712890625
 20
201.39337488122891
 40
0.2678472770226968
  0
CIRCLE
  8
_1-0_
  6
CONTINUOUS
 62
    7
 10
312.0572476773649
 20
202.90856026314401
 40
0.2678472770226968
  0
CIRCLE
  8
_1-0_
  6
CONTINUOUS
 62
    7
 10
310.16324429898651
 20
202.71915745090794
 40
0.2678472770226968
  0
CIRCLE
  8
_1-0_
  6
CONTINUOUS
 62
    7
 10
306.56470221442146
 20
202.52976701066302
 40
0.2678472770226968
  0
CIRCLE
  8
_1-0_
  6
CONTINUOUS
 62
    7
 10
304.10252751530828
 20
200.82517881651182
 40
0.2678472770226968
  0
CIRCLE
  8
_1-0_
  6
CONTINUOUS
 62
    7
 10
316.98159707559125
 20
204.80253889754013
 40
0.2678472770226968
  0
CIRCLE
  8
_1-0_
  6
CONTINUOUS
 62
    7
 10
296.05546281144427
 20
194.36687572582349
 40
0.2678472770226968
  0
CIRCLE
  8
_1-0_
  6
CONTINUOUS
 62
    7
 10
298.3282470703125
 20
195.1244622307855
 40
0.2678472770226968
  0
CIRCLE
  8
_1-0_
  6
CONTINUOUS
 62
    7
 10
298.89644313502959
 20
195.1244622307855
 40
0.2678472770226968
  0
CIRCLE
  8
_1-0_
  6
CONTINUOUS
 62
    7
 10
302.30559477934969
 20
196.6396476127006
 40
0.2678472770226968
  0
CIRCLE
  8
_1-0_
  6
CONTINUOUS
 62
    7
 10
300.41164088893584
 20
196.45024480046453
 40
0.2678472770226968
  0
CIRCLE
  8
_1-0_
  6
CONTINUOUS
 62
    7
 10
296.81307406038854
 20
196.26085436021961
 40
0.2678472770226968
  0
CIRCLE
  8
_1-0_
  6
CONTINUOUS
 62
    7
 10
294.35089936127537
 20
194.55626616606841
 40
0.2678472770226968
  0
CIRCLE
  8
_1-0_
  6
CONTINUOUS
 62
    7
 10
307.22994417757604
 20
198.53362624709672
 40
0.2678472770226968
  0
CIRCLE
  8
_1-0_
  6
CONTINUOUS
 62
    7
 10
292.85136454814193
 20
192.69515991210937
 40
0.2678472770226968
  0
CIRCLE
  8
_1-0_
  6
CONTINUOUS
 62
    7
 10
295.12412406302786
 20
193.45274641707138
 40
0.2678472770226968
  0
CIRCLE
  8
_1-0_
  6
CONTINUOUS
 62
    7
 10
295.69232012774495
 20
193.45274641707138
 40
0.2678472770226968
  0
CIRCLE
  8
_1-0_
  6
CONTINUOUS
 62
    7
 10
299.10149651604729
 20
194.96793179898648
 40
0.2678472770226968
  0
CIRCLE
  8
_1-0_
  6
CONTINUOUS
 62
    7
 10
297.20749313766896
 20
194.77852898675044
 40
0.2678472770226968
  0
CIRCLE
  8
_1-0_
  6
CONTINUOUS
 62
    7
 10
293.60895105310391
 20
194.5891385465055
 40
0.2678472770226968
  0
CIRCLE
  8
_1-0_
  6
CONTINUOUS
 62
    7
 10
291.14677635399073
 20
192.88455035235432
 40
0.2678472770226968
  0
CIRCLE
  8
_1-0_
  6
CONTINUOUS
 62
    7
 10
304.02584591427365
 20
196.8619104333826
 40
0.2678472770226968
  0
CIRCLE
  8
_1-0_
  6
CONTINUOUS
 62
    7
 10
311.37946051520271
 20
199.93924527554898
 40
0.2678472770226968
  0
CIRCLE
  8
_1-0_
  6
CONTINUOUS
 62
    7
 10
313.65224477407094
 20
200.69683178051099
 40
0.2678472770226968
  0
CIRCLE
  8
_1-0_
  6
CONTINUOUS
 62
    7
 10
314.22044083878802
 20
200.69683178051099
 40
0.2678472770226968
  0
CIRCLE
  8
_1-0_
  6
CONTINUOUS
 62
    7
 10
317.62959248310813
 20
202.21201716242612
 40
0.2678472770226968
  0
CIRCLE
  8
_1-0_
  6
CONTINUOUS
 62
    7
 10
315.73563859269427
 20
202.02261435019005
 40
0.2678472770226968
  0
CIRCLE
  8
_1-0_
  6
CONTINUOUS
 62
    7
 10
312.13707176414698
 20
201.8332239099451
 40
0.2678472770226968
  0
CIRCLE
  8
_1-0_
  6
CONTINUOUS
 62
    7
 10
309.6748970650338
 20
200.12863571579393
 40
0.2678472770226968
  0
CIRCLE
  8
_1-0_
  6
CONTINUOUS
 62
    7
 10
322.55394188133448
 20
204.10599579682221
 40
0.2678472770226968
  0
CIRCLE
  8
_1-0_
  6
CONTINUOUS
 62
    7
 10
319.18079273120782
 20
202.58610905827703
 40
0.2678472770226968
  0
CIRCLE
  8
_1-0_
  6
CONTINUOUS
 62
    7
 10
321.45357699007604
 20
203.34369556323904
 40
0.2678472770226968
  0
CIRCLE
  8
_1-0_
  6
CONTINUOUS
 62
    7
 10
322.02177305479307
 20
203.34369556323904
 40
0.2678472770226968
  0
CIRCLE
  8
_1-0_
  6
CONTINUOUS
 62
    7
 10
325.43092469911318
 20
204.85888094515414
 40
0.2678472770226968
  0
CIRCLE
  8
_1-0_
  6
CONTINUOUS
 62
    7
 10
323.53697080869932
 20
204.66947813291807
 40
0.2678472770226968
  0
CIRCLE
  8
_1-0_
  6
CONTINUOUS
 62
    7
 10
319.93840398015203
 20
204.48008769267315
 40
0.2678472770226968
  0
CIRCLE
  8
_1-0_
  6
CONTINUOUS
 62
    7
 10
317.47622928103885
 20
202.77549949852198
 40
0.2678472770226968
  0
CIRCLE
  8
_1-0_
  6
CONTINUOUS
 62
    7
 10
330.35527409733953
 20
206.75285957955026
 40
0.2678472770226968
  0
CIRCLE
  8
_1-0_
  6
CONTINUOUS
 62
    7
 10
333.80824733424834
 20
209.1336389490076
 40
0.2678472770226968
  0
CIRCLE
  8
_1-0_
  6
CONTINUOUS
 62
    7
 10
336.08103159311656
 20
209.89122545396961
 40
0.2678472770226968
  0
CIRCLE
  8
_1-0_
  6
CONTINUOUS
 62
    7
 10
336.64922765783365
 20
209.89122545396961
 40
0.2678472770226968
  0
CIRCLE
  8
_1-0_
  6
CONTINUOUS
 62
    7
 10
340.05837930215375
 20
211.40639846389359
 40
0.2678472770226968
  0
CIRCLE
  8
_1-0_
  6
CONTINUOUS
 62
    7
 10
338.1644254117399
 20
211.21700802364867
 40
0.2678472770226968
  0
CIRCLE
  8
_1-0_
  6
CONTINUOUS
 62
    7
 10
334.56585858319261
 20
211.02761758340372
 40
0.2678472770226968
  0
CIRCLE
  8
_1-0_
  6
CONTINUOUS
 62
    7
 10
332.10368388407943
 20
209.32302938925255
 40
0.2678472770226968
  0
CIRCLE
  8
_1-0_
  6
CONTINUOUS
 62
    7
 10
344.98272870038011
 20
213.30040184227198
 40
0.2678472770226968
  0
CIRCLE
  8
_1-0_
  6
CONTINUOUS
 62
    7
 10
348.85362779771964
 20
216.79566254486909
 40
0.2678472770226968
  0
CIRCLE
  8
_1-0_
  6
CONTINUOUS
 62
    7
 10
351.12641205658787
 20
217.55324904983109
 40
0.2678472770226968
  0
CIRCLE
  8
_1-0_
  6
CONTINUOUS
 62
    7
 10
351.6946081213049
 20
217.55324904983109
 40
0.2678472770226968
  0
CIRCLE
  8
_1-0_
  6
CONTINUOUS
 62
    7
 10
355.103759765625
 20
219.06842205975508
 40
0.2678472770226968
  0
CIRCLE
  8
_1-0_
  6
CONTINUOUS
 62
    7
 10
353.20980587521115
 20
218.87903161951016
 40
0.2678472770226968
  0
CIRCLE
  8
_1-0_
  6
CONTINUOUS
 62
    7
 10
349.61123904666385
 20
218.68964117926521
 40
0.2678472770226968
  0
CIRCLE
  8
_1-0_
  6
CONTINUOUS
 62
    7
 10
347.14906434755068
 20
216.98505298511404
 40
0.2678472770226968
  0
CIRCLE
  8
_1-0_
  6
CONTINUOUS
 62
    7
 10
360.02810916385135
 20
220.96242543813347
 40
0.2678472770226968
  0
CIRCLE
  8
_1-0_
  6
CONTINUOUS
 62
    7
 10
359.71974965688349
 20
221.67146424989443
 40
0.2678472770226968
  0
CIRCLE
  8
_1-0_
  6
CONTINUOUS
 62
    7
 10
361.99250917176943
 20
222.42905075485643
 40
0.2678472770226968
  0
CIRCLE
  8
_1-0_
  6
CONTINUOUS
 62
    7
 10
362.56070523648651
 20
222.42905075485643
 40
0.2678472770226968
  0
CIRCLE
  8
_1-0_
  6
CONTINUOUS
 62
    7
 10
365.96988162478885
 20
223.94422376478042
 40
0.2678472770226968
  0
CIRCLE
  8
_1-0_
  6
CONTINUOUS
 62
    7
 10
364.07587824641047
 20
223.7548333245355
 40
0.2678472770226968
  0
CIRCLE
  8
_1-0_
  6
CONTINUOUS
 62
    7
 10
360.47733616184547
 20
223.56544288429055
 40
0.2678472770226968
  0
CIRCLE
  8
_1-0_
  6
CONTINUOUS
 62
    7
 10
358.01516146273229
 20
221.86085469013938
 40
0.2678472770226968
  0
CIRCLE
  8
_1-0_
  6
CONTINUOUS
 62
    7
 10
370.89423102301521
 20
225.8382271431588
 40
0.2678472770226968
  0
TEXT
  8
_0-0_
 62
    7
 10
147.56756962956609
 20
22.702702702702709
 40
2.5
 41
1
 50
0
  1
図名
  0
TEXT
  8
_0-0_
 62
    7
 10
147.56756962956609
 20
12.972972972972968
 40
2.5
 41
1
 50
0
  1
縮尺
  0
TEXT
  8
_0-0_
 62
    7
 10
382.77784605284
 20
21.243871740392734
 40
2.5
 41
1
 50
0
  1
ＮＯ
  0
TEXT
  8
_0-0_
 62
    7
 10
20.270270012520456
 20
22.702702702702709
 40
2.5
 41
1
 50
0
  1
Ｆ形
  0
TEXT
  8
_0-0_
 62
    7
 10
389.99062615471917
 20
16.178650211643514
 40
2.5
 41
1
 50
0
  1
Ｆ
  0
TEXT
  8
_0-0_
 62
    7
 10
45.397583729511979
 20
13.77361400707349
 40
2.5
 41
1
 50
0
  1
軒先　1
  0
TEXT
  8
_0-0_
 62
    7
 10
171.37221877639359
 20
12.362518826046511
 40
2.5
 41
1
 50
0
  1
1/5
  0
TEXT
  8
_1-4_
 62
    7
 10
99.833047534606649
 20
175.77047368384564
 40
2.5
 41
1
 50
24.227719460851677
  1
280
  0
TEXT
  8
_1-4_
 62
    7
 10
150.95642845336721
 20
198.77599324148923
 40
2.5
 41
1
 50
24.227719460851628
  1
280
  0
TEXT
  8
_1-4_
 62
    7
 10
202.04526908781719
 20
221.76598699198524
 40
2.5
 41
1
 50
24.227891841336668
  1
280
  0
TEXT
  8
_1-4_
 62
    7
 10
253.11626185186239
 20
244.74794796357384
 40
2.5
 41
1
 50
24.227969413213451
  1
280
  0
TEXT
  8
_1-4_
 62
    7
 10
88.875237937567135
 20
152.63674367188372
 40
2.5
 41
1
 50
24.227700068058738
  1
80
  0
TEXT
  8
_1-4_
 62
    7
 10
113.87702666388242
 20
163.88755973351837
 40
2.5
 41
1
 50
24.227719460851652
  1
200
  0
TEXT
  8
_0-1_
 62
    7
 10
210.27705424540756
 20
202.11651776288008
 40
2.5
 41
1
 50
0
  1
桟瓦
  0
TEXT
  8
_0-1_
 62
    7
 10
249.72972560573271
 20
112.42017591321792
 40
2.5
 41
1
 50
0
  1
瓦桟
  0
TEXT
  8
_0-1_
 62
    7
 10
249.72972972972974
 20
104.91626636402027
 40
2.5
 41
1
 50
0
  1
流し桟
  0
TEXT
  8
_0-1_
 62
    7
 10
249.7297338537268
 20
97.633048392630911
 40
2.5
 41
1
 50
0
  1
下葺き材
  0
TEXT
  8
_0-1_
 62
    7
 10
79.91964597959776
 20
87.337473276499153
 40
2.5
 41
1
 50
0
  1
広小舞　45ｘ90
  0
TEXT
  8
_1-4_
 62
    7
 10
86.988417135702605
 20
102.07529841242611
 40
2.5
 41
1
 50
0
  1
軒先水切
  0
TEXT
  8
_1-0_
 62
    7
 10
264.11144772091427
 20
97.633048392630911
 40
2.5
 41
1
 50
0
  1
ゴムアス系ルーフィング
  0
TEXT
  8
_1-0_
 62
    7
 10
249.72972972972974
 20
91.011954642630911
 40
2.5
 41
1
 50
0
  1
パーライト系モルタル　　ｔ＝50
  0
TEXT
  8
_0-1_
 62
    7
 10
401.13534051018792
 20
14.192322395943307
 40
2.5
 41
1
 50
0
  1
15
  0
TEXT
  8
_1-0_
 62
    7
 10
261.63989917652026
 20
109.55999425939612
 40
2.5
 41
1
 50
0
  1
※　地域により瓦桟木の大きさは、異なります
  0
TEXT
  8
_1-0_
 62
    7
 10
261.55698209195526
 20
112.52140354465794
 40
2.5
 41
1
 50
0
  1
１５×３０　（防腐処理）
  0
POINT
  8
_1-4_
 62
    7
 10
76.176341288798568
 20
164.57665520745357
  0
POINT
  8
_1-4_
 62
    7
 10
127.31982669314823
 20
187.59123106260557
  0
POINT
  8
_1-4_
 62
    7
 10
178.42309075432857
 20
210.587719066723
  0
POINT
  8
_1-4_
 62
    7
 10
229.49749096019849
 20
233.57121648015203
  0
POINT
  8
_1-4_
 62
    7
 10
280.56511131492823
 20
256.55164563978042
  0
POINT
  8
_1-4_
 62
    7
 10
82.988167840081303
 20
149.43926424593539
  0
POINT
  8
_1-4_
 62
    7
 10
97.452472996067357
 20
155.94820589632602
  0
POINT
  8
_1-4_
 62
    7
 10
134.13165943042654
 20
172.45384010108742
  0
TEXT
  8
_1-0_
 62
    7
 10
27.39527299204596
 20
17.256177308479209
 40
2.5
 41
1
 50
0
  1
ＲＣ
  0
ENDSEC
  0
EOF
