  0
SECTION
  2
HEADER
  9
$ACADVER
  1
AC1009
  9
$INSBASE
 10
0
 20
0
 30
0
  9
$EXTMIN
 10
0
 20
0
  9
$EXTMAX
 10
420
 20
297
  9
$LIMMIN
 10
0
 20
0
  9
$LIMMAX
 10
420
 20
297
  9
$LTSCALE
 40
1
  0
ENDSEC
  0
SECTION
  2
TABLES
  0
TABLE
  2
LTYPE
 70
     9
  0
LTYPE
  2
CONTINUOUS
 70
    64
  3
実線
 72
    65
 73
     0
 40
0.0
  0
LTYPE
  2
DASHED1
 70
    64
  3
--  --  --  --  --  --  --  --  
 72
    65
 73
     2
 40
2.5
 49
1.25
 49
-1.25
  0
LTYPE
  2
DASHED2
 70
    64
  3
----    ----    ----    ----    
 72
    65
 73
     2
 40
5.0
 49
2.5
 49
-2.5
  0
LTYPE
  2
DASHED3
 70
    64
  3
------  ------  ------  ------  
 72
    65
 73
     2
 40
5.0
 49
3.75
 49
-1.25
  0
LTYPE
  2
CENTER1
 70
    64
  3
----- - ----- - ----- - ----- - 
 72
    65
 73
     4
 40
10.0
 49
6.25
 49
-1.25
 49
1.25
 49
-1.25
  0
LTYPE
  2
CENTER2
 70
    64
  3
----------  --  ----------  --  
 72
    65
 73
     4
 40
20.0
 49
12.5
 49
-2.5
 49
2.5
 49
-2.5
  0
LTYPE
  2
PHANTOM1
 70
    64
  3
--- - - --- - - --- - - --- - - 
 72
    65
 73
     6
 40
10.0
 49
3.25
 49
-1.25
 49
1.25
 49
-1.25
 49
1.25
 49
-1.25
  0
LTYPE
  2
PHANTOM2
 70
    64
  3
--------  -  -  --------  -  -  
 72
    65
 73
     6
 40
20.0
 49
10.0
 49
-2.5
 49
1.25
 49
-2.5
 49
1.25
 49
-2.5
  0
LTYPE
  2
DOT
 70
    64
  3
-   -   -   -   -   -   -   -   
 72
    65
 73
     2
 40
2.5
 49
0.625
 49
-1.875
  0
LTYPE
  2
DUMMY
 70
    64
  3
ダミー
 72
    65
 73
     0
 40
0.0
  0
LTYPE
  2
RAND1
 70
    64
  3
ランダム線1
 72
    65
 73
     4
 40
10.0
 49
1.0
 49
-2.0
 49
3.0
 49
-4.0
  0
LTYPE
  2
RAND2
 70
    64
  3
ランダム線2
 72
    65
 73
     4
 40
14.0
 49
2.0
 49
-3.0
 49
4.0
 49
-5.0
  0
LTYPE
  2
RAND3
 70
    64
  3
ランダム線3
 72
    65
 73
     4
 40
18.0
 49
3.0
 49
-4.0
 49
5.0
 49
-6.0
  0
LTYPE
  2
RAND4
 70
    64
  3
ランダム線4
 72
    65
 73
     4
 40
22.0
 49
4.0
 49
-5.0
 49
6.0
 49
-7.0
  0
LTYPE
  2
RAND5
 70
    64
  3
ランダム線5
 72
    65
 73
     4
 40
26.0
 49
5.0
 49
-6.0
 49
7.0
 49
-8.0
  0
LTYPE
  2
LONG1
 70
    64
  3
----------  --  ----------  --  
 72
    65
 73
     4
 40
40.0
 49
32.5
 49
-2.5
 49
2.5
 49
-2.5
  0
LTYPE
  2
LONG2
 70
    64
  3
--------  -  -  --------  -  -  
 72
    65
 73
     6
 40
40.0
 49
30.0
 49
-2.5
 49
1.25
 49
-2.5
 49
1.25
 49
-2.5
  0
LTYPE
  2
LONG3
 70
    64
  3
+++++++++++++++..+++++++++++++++
 72
    65
 73
     2
 40
40.0
 49
37.5
 49
-2.5
  0
LTYPE
  2
LONG4
 70
    64
  3
+++++++++++++++..+++++++++++++++
 72
    65
 73
     2
 40
80.0
 49
75.0
 49
-5.0
  0
LTYPE
  2
LONG5
 70
    64
  3
----------  --  ----------  --  
 72
    65
 73
     4
 40
60.0
 49
37.5
 49
-7.5
 49
7.5
 49
-7.5
  0
LTYPE
  2
dashed
 70
   64
  3
-------   -------------   ------
 72
   65
 73
    2
 40
7.5
 49
6
 49
-1.5
  0
LTYPE
  2
dashed_spaced
 70
   64
  3
----        --------        ----
 72
   65
 73
    2
 40
12
 49
6
 49
-6
  0
LTYPE
  2
long_dashed_dotted
 70
   64
  3
------------- --- --------------
 72
   65
 73
    4
 40
15.25
 49
12
 49
-1.5
 49
0.25
 49
-1.5
  0
LTYPE
  2
long_dashed_double-dotted
 70
   64
  3
----------- --- --- ------------
 72
   65
 73
    6
 40
17
 49
12
 49
-1.5
 49
0.25
 49
-1.5
 49
0.25
 49
-1.5
  0
LTYPE
  2
long_dashed_triplicate-dotted
 70
   64
  3
--------- --- --- --- ----------
 72
   65
 73
    8
 40
18.75
 49
12
 49
-1.5
 49
0.25
 49
-1.5
 49
0.25
 49
-1.5
 49
0.25
 49
-1.5
  0
LTYPE
  2
dotted
 70
   64
  3
   -       -       -       -    
 72
   65
 73
    2
 40
1.75
 49
0.25
 49
-1.5
  0
LTYPE
  2
chain
 70
   64
  3
-------------- -- --------------
 72
   65
 73
    4
 40
18.5
 49
12
 49
-1.5
 49
3.5
 49
-1.5
  0
LTYPE
  2
chain_double_dash
 70
   64
  3
------------ -- -- -------------
 72
   65
 73
    6
 40
23.5
 49
12
 49
-1.5
 49
3.5
 49
-1.5
 49
3.5
 49
-1.5
  0
LTYPE
  2
dashed_dotted
 70
   64
  3
-----------     -     ----------
 72
   65
 73
    4
 40
9.25
 49
6
 49
-1.5
 49
0.25
 49
-1.5
  0
LTYPE
  2
double-dashed_dotted
 70
   64
  3
------   -----------   -   -----
 72
   65
 73
    6
 40
16.75
 49
6
 49
-1.5
 49
6
 49
-1.5
 49
0.25
 49
-1.5
  0
LTYPE
  2
dashed_double-dotted
 70
   64
  3
---------    -    -    ---------
 72
   65
 73
    6
 40
11
 49
6
 49
-1.5
 49
0.25
 49
-1.5
 49
0.25
 49
-1.5
  0
LTYPE
  2
double-dashed_double-dotted
 70
   64
  3
-----   ---------   -   -   ----
 72
   65
 73
    8
 40
18.5
 49
6
 49
-1.5
 49
6
 49
-1.5
 49
0.25
 49
-1.5
 49
0.25
 49
-1.5
  0
LTYPE
  2
dashed_triplicate-dotted
 70
   64
  3
-------    -    -    -    ------
 72
   65
 73
    8
 40
12.75
 49
6
 49
-1.5
 49
0.25
 49
-1.5
 49
0.25
 49
-1.5
 49
0.25
 49
-1.5
  0
LTYPE
  2
double-dashed_triplicate-dotted
 70
   64
  3
-----  ---------  -  -  -  -----
 72
   65
 73
   10
 40
20.25
 49
6
 49
-1.5
 49
6
 49
-1.5
 49
0.25
 49
-1.5
 49
0.25
 49
-1.5
 49
0.25
 49
-1.5
  0
LTYPE
  2
undefined
 70
   64
  3
--------------------------------
 72
   65
 73
    0
 40
0
  0
ENDTAB
  0
TABLE
  2
STYLE
  5
3
100
AcDbSymbolTable
 70
     1
  0
STYLE
  5
10
100
AcDbSymbolTableRecord
100
AcDbTextStyleTableRecord
  2
STANDARD
 70
     0
 40
0.0
 41
1.0
 50
0.0
 71
     0
 42
0.2
  3
txt
  4
bigfont.shx
  0
STYLE
  5
26
100
AcDbSymbolTableRecord
100
AcDbTextStyleTableRecord
  2
TATEGAKI
 70
    68
 40
0.0
 41
1.0
 50
0.0
 71
     0
 42
1.0
  3
txt
  4
bigfont.shx
  0
ENDTAB
  0
TABLE
  2
LAYER
 70
    8
  0
LAYER
  2
_0-0_
 70
   64
 62
    7
  6
CONTINUOUS
  0
LAYER
  2
_0-1_
 70
   64
 62
    7
  6
CONTINUOUS
  0
LAYER
  2
_1-0_
 70
   64
 62
    7
  6
CONTINUOUS
  0
LAYER
  2
_1-1_
 70
   64
 62
    7
  6
CONTINUOUS
  0
LAYER
  2
_1-2_
 70
   64
 62
    7
  6
CONTINUOUS
  0
LAYER
  2
_1-3_
 70
   64
 62
    7
  6
CONTINUOUS
  0
LAYER
  2
_1-4_
 70
   64
 62
    7
  6
CONTINUOUS
  0
LAYER
  2
ADD_LINE
 70
   64
 62
    7
  6
CONTINUOUS
  0
ENDTAB
  0
ENDSEC
  0
SECTION
  2
BLOCKS
  0
ENDSEC
  0
SECTION
  2
ENTITIES
  0
LINE
  8
_1-0_
  6
CONTINUOUS
 62
    7
 10
95.58422191722974
 20
126.48586788692991
 11
331.62162162162161
 21
232.70270270270271
  0
LINE
  8
_1-0_
  6
CONTINUOUS
 62
    7
 10
95.091779554212422
 20
127.58017050253379
 11
331.12919163059547
 21
233.79700531830659
  0
LINE
  8
_1-0_
  6
DASHED1
 62
    3
 10
95.338006921716641
 20
127.03301919473185
 11
331.3753942541174
 21
233.24986638249578
  0
LINE
  8
_1-0_
  6
CONTINUOUS
 62
    7
 10
94.845564558699323
 20
128.12732181033573
 11
330.88296426309125
 21
234.34416899809966
  0
LINE
  8
_1-1_
  6
CONTINUOUS
 62
    7
 10
121.47364023569469
 20
140.10995400918497
 11
120.24254051414697
 21
142.84572292018581
  0
LINE
  8
_1-1_
  6
CONTINUOUS
 62
    7
 10
120.24254051414697
 20
142.84572292018581
 11
124.61977572054477
 21
144.81548000026393
  0
LINE
  8
_1-1_
  6
CONTINUOUS
 62
    7
 10
124.61977572054477
 20
144.81548000026393
 11
125.85087544209249
 21
142.0797110892631
  0
LINE
  8
_1-1_
  6
CONTINUOUS
 62
    7
 10
125.85087544209249
 20
142.0797110892631
 11
121.47364023569469
 21
140.10995400918497
  0
LINE
  8
_1-1_
  6
CONTINUOUS
 62
    7
 10
121.47364023569469
 20
140.10995400918497
 11
124.61977572054477
 21
144.81548000026393
  0
LINE
  8
_1-1_
  6
CONTINUOUS
 62
    7
 10
172.54124821843328
 20
163.09038316881336
 11
171.31014849688557
 21
165.82615207981419
  0
LINE
  8
_1-1_
  6
CONTINUOUS
 62
    7
 10
171.31014849688557
 20
165.82615207981419
 11
175.68739607527451
 21
167.79590915989232
  0
LINE
  8
_1-1_
  6
CONTINUOUS
 62
    7
 10
175.68739607527451
 20
167.79590915989232
 11
176.91848342483109
 21
165.06014024889149
  0
LINE
  8
_1-1_
  6
CONTINUOUS
 62
    7
 10
176.91848342483109
 20
165.06014024889149
 11
172.54124821843328
 21
163.09038316881336
  0
LINE
  8
_1-1_
  6
CONTINUOUS
 62
    7
 10
172.54124821843328
 20
163.09038316881336
 11
175.68739607527451
 21
167.79590915989232
  0
LINE
  8
_1-1_
  6
CONTINUOUS
 62
    7
 10
223.60884382918076
 20
186.0707999564506
 11
222.37775647962417
 21
188.80656886745146
  0
LINE
  8
_1-1_
  6
CONTINUOUS
 62
    7
 10
222.37775647962417
 20
188.80656886745146
 11
226.75499168602198
 21
190.77632594752959
  0
LINE
  8
_1-1_
  6
CONTINUOUS
 62
    7
 10
226.75499168602198
 20
190.77632594752959
 11
227.98607903557857
 21
188.04055703652872
  0
LINE
  8
_1-1_
  6
CONTINUOUS
 62
    7
 10
227.98607903557857
 20
188.04055703652872
 11
223.60884382918076
 21
186.0707999564506
  0
LINE
  8
_1-1_
  6
CONTINUOUS
 62
    7
 10
223.60884382918076
 20
186.0707999564506
 11
226.75499168602198
 21
190.77632594752959
  0
LINE
  8
_1-1_
  6
CONTINUOUS
 62
    7
 10
274.67643943992823
 20
209.0512414880701
 11
273.44535209037161
 21
211.78701039907097
  0
LINE
  8
_1-1_
  6
CONTINUOUS
 62
    7
 10
273.44535209037161
 20
211.78701039907097
 11
277.82258729676943
 21
213.75675510715794
  0
LINE
  8
_1-1_
  6
CONTINUOUS
 62
    7
 10
277.82258729676943
 20
213.75675510715794
 11
279.05367464632604
 21
211.02098619615711
  0
LINE
  8
_1-1_
  6
CONTINUOUS
 62
    7
 10
279.05367464632604
 20
211.02098619615711
 11
274.67643943992823
 21
209.0512414880701
  0
LINE
  8
_1-1_
  6
CONTINUOUS
 62
    7
 10
274.67643943992823
 20
209.0512414880701
 11
277.82258729676943
 21
213.75675510715794
  0
LINE
  8
_1-1_
  6
CONTINUOUS
 62
    7
 10
325.74403505067568
 20
232.03167064769849
 11
324.51294770111912
 21
234.76743955869935
  0
LINE
  8
_1-1_
  6
CONTINUOUS
 62
    7
 10
324.51294770111912
 20
234.76743955869935
 11
328.89018290751693
 21
236.73718426678633
  0
LINE
  8
_1-1_
  6
CONTINUOUS
 62
    7
 10
328.89018290751693
 20
236.73718426678633
 11
330.12127025707349
 21
234.0014153557855
  0
LINE
  8
_1-1_
  6
CONTINUOUS
 62
    7
 10
330.12127025707349
 20
234.0014153557855
 11
325.74403505067568
 21
232.03167064769849
  0
LINE
  8
_1-1_
  6
CONTINUOUS
 62
    7
 10
325.74403505067568
 20
232.03167064769849
 11
328.89018290751693
 21
236.73718426678633
  0
LINE
  8
_0-0_
  6
CONTINUOUS
 62
    5
 10
12.432428308435391
 20
278.51351351351354
 11
412.43244892842063
 21
278.51351351351354
  0
LINE
  8
_0-0_
  6
CONTINUOUS
 62
    5
 10
412.43244892842063
 20
8.5135135135135158
 11
12.432428308435391
 21
8.5135135135135158
  0
LINE
  8
_0-0_
  6
CONTINUOUS
 62
    5
 10
412.43244892842063
 20
28.513511451515001
 11
12.432415936444272
 21
28.513511451515001
  0
LINE
  8
_0-0_
  6
CONTINUOUS
 62
    5
 10
377.43248192039698
 20
8.5135135135135158
 11
377.43248192039698
 21
28.513511451515001
  0
LINE
  8
_0-0_
  6
CONTINUOUS
 62
    5
 10
142.70271507469386
 20
28.513511451515001
 11
142.70271507469386
 21
8.5135135135135158
  0
LINE
  8
_0-0_
  6
CONTINUOUS
 62
    5
 10
220.54054054054055
 20
28.513511451515001
 11
220.54054054054055
 21
8.5135135135135158
  0
LINE
  8
_0-0_
  6
CONTINUOUS
 62
    5
 10
142.70271507469386
 20
18.513512482514244
 11
220.54054054054055
 21
18.513512482514244
  0
LINE
  8
_0-0_
  6
CONTINUOUS
 62
    5
 10
402.16218690614443
 20
24.324325870823216
 11
389.59456985061234
 21
11.756758303255651
  0
LINE
  8
_1-4_
  6
CONTINUOUS
 62
    7
 10
41.311476423933698
 20
164.57665520745357
 11
92.454961828283373
 21
187.59123106260557
  0
LINE
  8
_1-4_
  6
CONTINUOUS
 62
    7
 10
53.994536528716225
 20
136.39209644214529
 11
41.311476423933698
 21
164.57665520745357
  0
LINE
  8
_1-4_
  6
CONTINUOUS
 62
    7
 10
105.13802193306589
 20
159.40668466928844
 11
92.454961828283373
 21
187.59124343459672
  0
LINE
  8
_1-4_
  6
CONTINUOUS
 62
    7
 10
92.454961828283373
 20
187.59123106260557
 11
143.5582258894637
 21
210.587719066723
  0
LINE
  8
_1-4_
  6
CONTINUOUS
 62
    7
 10
156.24127362225508
 20
182.40316030141472
 11
143.5582258894637
 21
210.587719066723
  0
LINE
  8
_1-4_
  6
CONTINUOUS
 62
    7
 10
143.5582258894637
 20
210.587719066723
 11
194.63262609533362
 21
233.57121648015203
  0
LINE
  8
_1-4_
  6
CONTINUOUS
 62
    7
 10
207.31569857210727
 20
205.3866700868349
 11
194.63265083931589
 21
233.57121648015203
  0
LINE
  8
_1-4_
  6
CONTINUOUS
 62
    7
 10
194.63262609533362
 20
233.57121648015203
 11
245.70024645006336
 21
256.55164563978042
  0
LINE
  8
_1-4_
  6
CONTINUOUS
 62
    7
 10
258.38329418285474
 20
228.36708687447214
 11
245.70022170608109
 21
256.55164563978042
  0
LINE
  8
_1-4_
  6
CONTINUOUS
 62
    7
 10
48.123309161212006
 20
149.43926424593539
 11
62.587601945206927
 21
155.94820589632602
  0
LINE
  8
_1-4_
  6
CONTINUOUS
 62
    7
 10
53.994536528716225
 20
136.39209644214529
 11
48.123309161212006
 21
149.43926424593539
  0
LINE
  8
_1-4_
  6
CONTINUOUS
 62
    7
 10
68.458829312711146
 20
142.90103809253591
 11
62.587601945206927
 21
155.94820589632602
  0
LINE
  8
_1-4_
  6
CONTINUOUS
 62
    7
 10
62.587601945206927
 20
155.94820589632602
 11
99.266794565561668
 21
172.45384010108742
  0
LINE
  8
_1-4_
  6
CONTINUOUS
 62
    7
 10
105.13802193306589
 20
159.40668466928844
 11
99.266794565561668
 21
172.45385247307857
  0
LINE
  8
_0-1_
  6
CONTINUOUS
 62
    7
 10
192.09916398331927
 20
114.30856240762247
 11
208.37837837837839
 21
114.30856240762247
  0
LINE
  8
_0-1_
  6
CONTINUOUS
 62
    7
 10
194.64695286106419
 20
107.30856405722129
 11
208.37837837837839
 21
107.30856405722129
  0
LINE
  8
_0-1_
  6
CONTINUOUS
 62
    7
 10
197.19474173880914
 20
100.3085657068201
 11
208.37837837837839
 21
100.3085657068201
  0
LINE
  8
_0-1_
  6
CONTINUOUS
 62
    7
 10
198.64864864864865
 20
183.24324324324326
 11
191.16245579075169
 21
203.81141868797511
  0
LINE
  8
_0-1_
  6
CONTINUOUS
 62
    7
 10
191.16245579075169
 20
203.81141868797511
 11
185.67567567567568
 21
203.81141868797511
  0
LINE
  8
_1-4_
  6
CONTINUOUS
 62
    7
 10
70.926521919869089
 20
101.6975938951647
 11
68.591036409945104
 21
101.6975938951647
  0
LINE
  8
_1-0_
  6
CONTINUOUS
 62
    7
 10
95.58422191722974
 20
126.48586788692991
 11
76.433851912214948
 21
117.86820695206926
  0
LINE
  8
_1-2_
  6
DASHED1
 62
    3
 10
95.338006921716641
 20
127.03301919473185
 11
76.235615498310835
 21
118.43694738439612
  0
LINE
  8
_1-2_
  6
CONTINUOUS
 62
    3
 10
88.476401664115286
 20
123.59705744562923
 11
75.270229030299845
 21
117.65428285341005
  0
LINE
  8
_1-2_
  6
CONTINUOUS
 62
    3
 10
75.270229030299845
 20
117.65428285341005
 11
75.483002533783804
 21
110.82264255832982
  0
LINE
  8
_1-2_
  6
CONTINUOUS
 62
    3
 10
75.483002533783804
 20
110.82264255832982
 11
76.066972887193856
 21
112.20957988017315
  0
LINE
  8
_1-4_
  6
CONTINUOUS
 62
    7
 10
75.482111750422291
 20
114.21396616342906
 11
70.926521919869089
 21
101.6975938951647
  0
LINE
  8
_1-0_
  6
CONTINUOUS
 62
    7
 10
95.091779554212422
 20
127.58017050253379
 11
81.172448235589115
 21
121.31646646035685
  0
LINE
  8
_1-0_
  6
CONTINUOUS
 62
    7
 10
89.133527601087422
 20
125.55690456081082
 11
80.926233240076016
 21
121.86361776815879
  0
LINE
  8
_1-0_
  6
CONTINUOUS
 62
    7
 10
80.926233240076016
 20
121.86361776815879
 11
78.430963464685391
 21
120.74074822503168
  0
LINE
  8
_1-0_
  6
CONTINUOUS
 62
    7
 10
81.172448235589115
 20
121.31646646035685
 11
78.67717846019849
 21
120.19359691722974
  0
LINE
  8
_1-0_
  6
CONTINUOUS
 62
    7
 10
78.430963464685391
 20
120.74074822503168
 11
78.67717846019849
 21
120.19359691722974
  0
LINE
  8
_1-0_
  6
CONTINUOUS
 62
    7
 10
80.926233240076016
 20
121.86361776815879
 11
94.845564558699323
 21
128.12732181033573
  0
LINE
  8
ADD_LINE
  6
DOT
 62
    7
 10
76.461218756598385
 20
125.11797105943835
 11
78.67717846019849
 21
120.19359691722974
  0
LINE
  8
_1-0_
  6
CONTINUOUS
 62
    7
 10
78.430963464685391
 20
120.74074822503168
 11
74.737676672033359
 21
128.94804258604307
  0
LINE
  8
_1-0_
  6
CONTINUOUS
 62
    7
 10
74.737676672033359
 20
128.94804258604307
 11
82.944971033044766
 21
132.6413293786951
  0
LINE
  8
_1-0_
  6
CONTINUOUS
 62
    7
 10
82.944971033044766
 20
132.6413293786951
 11
86.638257825696797
 21
124.43403501768371
  0
LINE
  8
_1-0_
  6
CONTINUOUS
 62
    7
 10
86.638257825696797
 20
124.43403501768371
 11
78.430963464685391
 21
120.74074822503168
  0
LINE
  8
ADD_LINE
  6
DOT
 62
    4
 10
124.61977572054477
 20
144.81549237225508
 11
82.944971033044766
 21
132.6413293786951
  0
LINE
  8
_1-2_
  6
CONTINUOUS
 62
    3
 10
123.8734972154772
 20
150.22317834802575
 11
125.21733052021749
 21
150.61574162663641
  0
LINE
  8
_1-2_
  6
CONTINUOUS
 62
    3
 10
122.50593443174621
 20
149.19860427444047
 11
123.73114508551521
 21
149.55651360589107
  0
LINE
  8
_1-2_
  6
CONTINUOUS
 62
    3
 10
123.8734972154772
 20
150.22317834802575
 11
123.73114508551521
 21
149.55651360589107
  0
LINE
  8
_1-2_
  6
CONTINUOUS
 62
    3
 10
122.50593443174621
 20
149.19860427444047
 11
122.05078125
 21
147.19040741791596
  0
LINE
  8
_1-2_
  6
CONTINUOUS
 62
    7
 10
125.21733052021749
 20
150.61574162663641
 11
125.77814050622889
 21
148.69596739073057
  0
LINE
  8
_1-2_
  6
CONTINUOUS
 62
    3
 10
125.39417576145482
 20
148.58380291913008
 11
126.34753665408573
 21
145.32020775047511
  0
LINE
  8
_1-2_
  6
CONTINUOUS
 62
    7
 10
124.61977572054477
 20
144.81549237225508
 11
125.86866636533996
 21
142.6800248429582
  0
LINE
  8
_1-2_
  6
CONTINUOUS
 62
    7
 10
125.86866636533996
 20
142.6800248429582
 11
127.40447585647172
 21
143.12867035736909
  0
LINE
  8
_1-2_
  6
CONTINUOUS
 62
    3
 10
60.380945978937916
 20
122.92450363571579
 11
59.562303697740703
 21
127.89433247334249
  0
LINE
  8
_1-2_
  6
CONTINUOUS
 62
    3
 10
62.538039748733127
 20
129.80539682749156
 11
122.05078125
 21
147.19040741791596
  0
LINE
  8
_1-2_
  6
CONTINUOUS
 62
    3
 10
60.380945978937916
 20
122.92450363571579
 11
61.873366897170627
 21
123.5216996476457
  0
LINE
  8
_1-2_
  6
CONTINUOUS
 62
    3
 10
62.851026380384297
 20
126.77145055822425
 11
126.34753665408573
 21
145.32020775047511
  0
LINE
  8
_1-2_
  6
CONTINUOUS
 62
    3
 10
62.137434675886823
 20
125.92097514384503
 11
61.873366897170627
 21
123.5216996476457
  0
LINE
  8
_1-2_
  6
CONTINUOUS
 62
    3
 10
125.21733052021749
 20
150.61574162663641
 11
125.77814050622889
 21
148.69596739073057
  0
LINE
  8
_1-2_
  6
CONTINUOUS
 62
    7
 10
125.77814050622889
 20
148.69596739073057
 11
127.40447585647172
 21
143.12867035736909
  0
LINE
  8
ADD_LINE
  6
DOT
 62
    4
 10
125.04908381281673
 20
151.19167018581081
 11
175.68739607527451
 21
167.7958967879012
  0
LINE
  8
_1-2_
  6
CONTINUOUS
 62
    3
 10
174.76506413640203
 20
173.17636438318203
 11
176.09535011085305
 21
173.61256367451438
  0
LINE
  8
_1-2_
  6
CONTINUOUS
 62
    3
 10
173.43166042018581
 20
172.10770890519427
 11
174.64453619879646
 21
172.50540656012458
  0
LINE
  8
_1-2_
  6
CONTINUOUS
 62
    3
 10
174.76506413640203
 20
173.17636438318203
 11
174.64453619879646
 21
172.50540656012458
  0
LINE
  8
_1-2_
  6
CONTINUOUS
 62
    3
 10
173.43166042018581
 20
172.10770890519427
 11
173.0422643713049
 21
170.08572965054898
  0
LINE
  8
_1-2_
  6
CONTINUOUS
 62
    3
 10
176.33841024862755
 20
171.58749142208615
 11
176.71850256017737
 21
171.71212686074747
  0
LINE
  8
_1-2_
  6
CONTINUOUS
 62
    7
 10
176.09535011085305
 20
173.61256367451438
 11
176.71850256017737
 21
171.71212686074747
  0
LINE
  8
_1-2_
  6
CONTINUOUS
 62
    3
 10
176.33841024862755
 20
171.58749142208615
 11
177.39777436127534
 21
168.35674388988599
  0
LINE
  8
_1-2_
  6
CONTINUOUS
 62
    7
 10
175.68739607527451
 20
167.79590915989232
 11
177.00531005859375
 21
165.70233319256758
  0
LINE
  8
_1-2_
  6
CONTINUOUS
 62
    7
 10
177.00531005859375
 20
165.70233319256758
 11
178.52565456081081
 21
166.20085020323057
  0
LINE
  8
_1-2_
  6
CONTINUOUS
 62
    3
 10
114.12852519267315
 20
150.76800372149495
 11
173.0422643713049
 21
170.08572965054898
  0
LINE
  8
_1-2_
  6
CONTINUOUS
 62
    3
 10
114.54033928948481
 20
147.74587270375847
 11
177.39777436127534
 21
168.35674388988599
  0
LINE
  8
_1-2_
  6
CONTINUOUS
 62
    3
 10
176.09535011085305
 20
173.61256367451438
 11
176.71850256017737
 21
171.71212686074747
  0
LINE
  8
_1-2_
  6
CONTINUOUS
 62
    7
 10
176.71850256017737
 20
171.71212686074747
 11
178.52565456081081
 21
166.20085020323057
  0
LINE
  8
ADD_LINE
  6
DOT
 62
    4
 10
174.5781233504012
 20
173.74650285050677
 11
175.90840932485222
 21
174.18270214183912
  0
LINE
  8
ADD_LINE
  6
DOT
 62
    4
 10
175.90840932485222
 20
174.18270214183912
 11
226.75499168602198
 21
190.77632594752959
  0
LINE
  8
_1-2_
  6
CONTINUOUS
 62
    3
 10
225.84020666173987
 20
196.15806785789698
 11
227.17111123574747
 21
196.59241135055956
  0
LINE
  8
_1-2_
  6
CONTINUOUS
 62
    3
 10
224.50529356260557
 20
195.0912805505701
 11
225.71873845280828
 21
195.48728324271539
  0
LINE
  8
_1-2_
  6
CONTINUOUS
 62
    3
 10
225.84020666173987
 20
196.15806785789698
 11
225.71873845280828
 21
195.48728324271539
  0
LINE
  8
_1-2_
  6
CONTINUOUS
 62
    3
 10
224.50529356260557
 20
195.0912805505701
 11
224.11307669974664
 21
193.06985803552578
  0
LINE
  8
_1-2_
  6
CONTINUOUS
 62
    3
 10
227.41132581556167
 20
194.56699268237966
 11
227.79159133498734
 21
194.69108375343117
  0
LINE
  8
_1-2_
  6
CONTINUOUS
 62
    7
 10
227.17111123574747
 20
196.59241135055956
 11
227.79159133498734
 21
194.69108375343117
  0
LINE
  8
_1-2_
  6
CONTINUOUS
 62
    3
 10
227.41132581556167
 20
194.56699268237966
 11
228.46616177945526
 21
191.33476051124367
  0
LINE
  8
_1-2_
  6
CONTINUOUS
 62
    7
 10
226.75499168602198
 20
190.77632594752959
 11
228.06996113545188
 21
188.68089418153505
  0
LINE
  8
_1-2_
  6
CONTINUOUS
 62
    7
 10
228.06996113545188
 20
188.68089418153505
 11
229.59099846917232
 21
189.17728320972341
  0
LINE
  8
_1-2_
  6
CONTINUOUS
 62
    3
 10
163.23116405590162
 20
166.88980927338471
 11
162.25771104967274
 21
171.83165266707138
  0
LINE
  8
_1-2_
  6
CONTINUOUS
 62
    3
 10
165.17231709248313
 20
173.8347151472762
 11
224.11307669974664
 21
193.06985803552578
  0
LINE
  8
_1-2_
  6
CONTINUOUS
 62
    3
 10
163.23116405590162
 20
166.88980927338471
 11
164.70418569203972
 21
167.53332602011193
  0
LINE
  8
_1-2_
  6
CONTINUOUS
 62
    3
 10
165.57989996832771
 20
170.81201501794766
 11
228.46616177945526
 21
191.33476051124367
  0
LINE
  8
_1-2_
  6
CONTINUOUS
 62
    3
 10
164.89320497255068
 20
169.93967829523859
 11
164.70418569203972
 21
167.53332602011193
  0
LINE
  8
_1-2_
  6
CONTINUOUS
 62
    3
 10
227.17111123574747
 20
196.59241135055956
 11
227.79159133498734
 21
194.69108375343117
  0
LINE
  8
_1-2_
  6
CONTINUOUS
 62
    7
 10
227.79159133498734
 20
194.69108375343117
 11
229.59099846917232
 21
189.17728320972341
  0
LINE
  8
_1-2_
  6
CONTINUOUS
 62
    3
 10
276.90780227248734
 20
219.13849701752534
 11
278.23870684649495
 21
219.5728281381968
  0
LINE
  8
_1-2_
  6
CONTINUOUS
 62
    3
 10
275.57288917335308
 20
218.07170971019849
 11
276.78633406355578
 21
218.46771240234375
  0
LINE
  8
_1-2_
  6
CONTINUOUS
 62
    3
 10
276.90780227248734
 20
219.13849701752534
 11
276.78633406355578
 21
218.46771240234375
  0
LINE
  8
_1-2_
  6
CONTINUOUS
 62
    3
 10
275.57288917335308
 20
218.07170971019849
 11
275.18067231049412
 21
216.05027482316302
  0
LINE
  8
_1-2_
  6
CONTINUOUS
 62
    3
 10
278.47892142630911
 20
217.5474094700169
 11
278.85918694573479
 21
217.67152528505068
  0
LINE
  8
_1-2_
  6
CONTINUOUS
 62
    7
 10
278.23870684649495
 20
219.5728281381968
 11
278.85918694573479
 21
217.67152528505068
  0
LINE
  8
_1-2_
  6
CONTINUOUS
 62
    3
 10
278.47892142630911
 20
217.5474094700169
 11
279.53375739020271
 21
214.31517729888091
  0
LINE
  8
_1-2_
  6
CONTINUOUS
 62
    7
 10
277.82258729676943
 20
213.75675510715794
 11
279.13755674619932
 21
211.66133571315459
  0
LINE
  8
_1-2_
  6
CONTINUOUS
 62
    7
 10
279.13755674619932
 20
211.66133571315459
 11
280.65859407991979
 21
212.15772474134292
  0
LINE
  8
_1-2_
  6
CONTINUOUS
 62
    3
 10
214.29877203864021
 20
189.8702384330131
 11
213.32529428842906
 21
194.81208182669977
  0
LINE
  8
_1-2_
  6
CONTINUOUS
 62
    3
 10
216.23991270323057
 20
196.81514430690459
 11
275.18067231049412
 21
216.05027482316302
  0
LINE
  8
_1-2_
  6
CONTINUOUS
 62
    3
 10
214.29877203864021
 20
189.8702384330131
 11
215.77178130278716
 21
190.51375517974029
  0
LINE
  8
_1-2_
  6
CONTINUOUS
 62
    3
 10
216.64749557907518
 20
193.79244417757602
 11
279.53375739020271
 21
214.31517729888091
  0
LINE
  8
_1-2_
  6
CONTINUOUS
 62
    3
 10
215.96080058329815
 20
192.92010745486698
 11
215.77178130278716
 21
190.51375517974029
  0
LINE
  8
_1-2_
  6
CONTINUOUS
 62
    3
 10
278.23870684649495
 20
219.5728281381968
 11
278.85918694573479
 21
217.67152528505068
  0
LINE
  8
_1-2_
  6
CONTINUOUS
 62
    7
 10
278.85918694573479
 20
217.67152528505068
 11
280.65859407991979
 21
212.15772474134292
  0
LINE
  8
_1-2_
  6
CONTINUOUS
 62
    3
 10
327.97539788323479
 20
242.11892617715372
 11
329.3063024572424
 21
242.55325729782518
  0
LINE
  8
_1-2_
  6
CONTINUOUS
 62
    3
 10
326.64048478410052
 20
241.05213886982688
 11
327.85392967430323
 21
241.44814156197214
  0
LINE
  8
_1-2_
  6
CONTINUOUS
 62
    3
 10
327.97539788323479
 20
242.11892617715372
 11
327.85392967430323
 21
241.44814156197214
  0
LINE
  8
_1-2_
  6
CONTINUOUS
 62
    3
 10
326.64048478410052
 20
241.05213886982688
 11
326.24826792124156
 21
239.03070398279141
  0
LINE
  8
_1-2_
  6
CONTINUOUS
 62
    3
 10
329.54651703705662
 20
240.52783862964529
 11
329.92678255648229
 21
240.65195444467906
  0
LINE
  8
_1-2_
  6
CONTINUOUS
 62
    7
 10
329.3063024572424
 20
242.55325729782518
 11
329.92678255648229
 21
240.65195444467906
  0
LINE
  8
_1-2_
  6
CONTINUOUS
 62
    3
 10
329.54651703705662
 20
240.52783862964529
 11
330.60135300095021
 21
237.2956064585093
  0
LINE
  8
_1-2_
  6
CONTINUOUS
 62
    7
 10
328.89018290751693
 20
236.73718426678633
 11
330.20515235694683
 21
234.64176487278294
  0
LINE
  8
_1-2_
  6
CONTINUOUS
 62
    7
 10
330.20515235694683
 20
234.64176487278294
 11
331.72618969066724
 21
235.1381539009713
  0
LINE
  8
_1-2_
  6
CONTINUOUS
 62
    3
 10
265.36634290540542
 20
212.8506799646326
 11
264.3929146431588
 21
217.79252335831927
  0
LINE
  8
_1-2_
  6
CONTINUOUS
 62
    3
 10
267.30750831397808
 20
219.79557346653294
 11
326.24826792124156
 21
239.03070398279141
  0
LINE
  8
_1-2_
  6
CONTINUOUS
 62
    3
 10
265.36634290540542
 20
212.8506799646326
 11
266.83937691353464
 21
213.49417196737755
  0
LINE
  8
_1-2_
  6
CONTINUOUS
 62
    3
 10
267.71509118982266
 20
216.7728733372044
 11
330.60135300095021
 21
237.2956064585093
  0
LINE
  8
_1-2_
  6
CONTINUOUS
 62
    3
 10
267.02839619404563
 20
215.90052424250425
 11
266.83937691353464
 21
213.49417196737755
  0
LINE
  8
_1-2_
  6
CONTINUOUS
 62
    3
 10
329.3063024572424
 20
242.55325729782518
 11
329.92678255648229
 21
240.65195444467906
  0
LINE
  8
_1-2_
  6
CONTINUOUS
 62
    7
 10
329.92678255648229
 20
240.65195444467906
 11
331.72618969066724
 21
235.1381539009713
  0
LINE
  8
ADD_LINE
  6
DOT
 62
    3
 10
112.07573968010981
 20
144.31596085831927
 11
112.1555637668919
 21
144.31596085831927
  0
LINE
  8
_1-2_
  6
CONTINUOUS
 62
    3
 10
113.85488149282095
 20
146.87257096574115
 11
113.71224480706293
 21
145.02352740313557
  0
LINE
  8
_1-3_
  6
CONTINUOUS
 62
    3
 10
112.098763955606
 20
144.31596085831927
 11
113.71224480706293
 21
145.02352740313557
  0
LINE
  8
_1-2_
  6
CONTINUOUS
 62
    3
 10
112.098763955606
 20
144.31596085831927
 11
111.21672759184966
 21
148.76084611222552
  0
LINE
  8
_1-0_
  6
CONTINUOUS
 62
    7
 10
74.737689044024478
 20
128.94804258604307
 11
86.638257825696797
 21
124.43403501768371
  0
LINE
  8
_1-0_
  6
CONTINUOUS
 62
    7
 10
82.944971033044766
 20
132.6413293786951
 11
78.549784067514793
 21
120.79421997070312
  0
LINE
  8
_1-4_
  6
CONTINUOUS
 62
    7
 10
72.622350744298984
 20
123.52812071104309
 11
67.848543734163854
 21
110.41220175253379
  0
LINE
  8
_1-4_
  6
CONTINUOUS
 62
    7
 10
72.622350744298984
 20
123.52812071104309
 11
79.196492787953957
 21
123.52812071104309
  0
LINE
  8
_1-4_
  6
CONTINUOUS
 62
    7
 10
67.848543734163854
 20
110.41220175253379
 11
64.733375343116563
 21
110.41220175253379
  0
LINE
  8
_1-0_
  6
CONTINUOUS
 62
    7
 10
76.433851912214948
 20
117.86820695206926
 11
78.896051355310391
 21
112.39668150205871
  0
LINE
  8
_1-0_
  6
CONTINUOUS
 62
    7
 10
77.418736638249584
 20
115.67958934887037
 11
78.896051355310391
 21
112.39668150205871
  0
LINE
  8
_1-0_
  6
CONTINUOUS
 62
    7
 10
78.896051355310391
 20
112.39668150205871
 11
95.310640077333204
 21
119.78324271537163
  0
LINE
  8
_1-0_
  6
CONTINUOUS
 62
    7
 10
92.848440634237761
 20
125.25476816538219
 11
95.310640077333204
 21
119.78324271537163
  0
LINE
  8
_1-0_
  6
CONTINUOUS
 62
    7
 10
94.414697595544766
 20
119.38006426836994
 11
95.157709894953555
 21
120.12307656777872
  0
LINE
  8
_1-0_
  6
CONTINUOUS
 62
    7
 10
90.814881195893165
 20
117.76014998152451
 11
94.543254955394858
 21
121.48852374102619
  0
LINE
  8
_1-0_
  6
CONTINUOUS
 62
    7
 10
87.215077168232696
 20
116.14023569467906
 11
93.92880001583616
 21
122.85397091427366
  0
LINE
  8
_1-0_
  6
CONTINUOUS
 62
    7
 10
83.615248396589948
 20
114.52032140783362
 11
93.314357448268581
 21
124.21941808752112
  0
LINE
  8
_1-0_
  6
CONTINUOUS
 62
    7
 10
80.015444368929479
 20
112.90040712098818
 11
91.978182406038854
 21
124.86314515809755
  0
LINE
  8
_1-0_
  6
CONTINUOUS
 62
    7
 10
78.472669446790547
 20
113.33752193966428
 11
88.378378378378386
 21
123.24324324324326
  0
LINE
  8
_1-0_
  6
CONTINUOUS
 62
    7
 10
77.85821450723185
 20
114.70298148490288
 11
84.778561978726785
 21
121.62332895639781
  0
LINE
  8
_1-0_
  6
CONTINUOUS
 62
    7
 10
77.243759567673152
 20
116.06841628615921
 11
81.178745579075155
 21
120.00341466955237
  0
LINE
  8
_1-0_
  6
CONTINUOUS
 62
    7
 10
76.629304628114426
 20
117.43387583139781
 11
77.578916807432449
 21
118.38348801071579
  0
LINE
  8
_1-0_
  6
CONTINUOUS
 62
    7
 10
82.543734988650769
 20
114.03813542546453
 11
89.930333317937084
 21
97.623565261428425
  0
LINE
  8
_1-0_
  6
CONTINUOUS
 62
    7
 10
94.398750098975938
 20
97.441183554159636
 11
347.78639509871203
 21
211.46561081345018
  0
LINE
  8
_1-0_
  6
CONTINUOUS
 62
    7
 10
93.578016951277448
 20
99.265025370829818
 11
94.398750098975938
 21
97.441183554159636
  0
LINE
  8
_1-0_
  6
DASHED1
 62
    7
 10
93.578016951277448
 20
99.265025370829818
 11
346.96568669499578
 21
213.28946500211148
  0
LINE
  8
_1-0_
  6
CONTINUOUS
 62
    7
 10
89.930333317937084
 20
97.623565261428425
 11
93.578016951277448
 21
99.265025370829818
  0
LINE
  8
_1-0_
  6
CENTER1
 62
    7
 10
95.310640077333204
 20
119.78324271537163
 11
335.16265869140625
 21
227.71664181271117
  0
LINE
  8
_1-0_
  6
CONTINUOUS
 62
    7
 10
240.17867629592484
 20
188.47632330817146
 11
252.37703890413852
 21
154.96161383551521
  0
LINE
  8
_1-0_
  6
CONTINUOUS
 62
    7
 10
252.37703890413852
 20
154.96161383551521
 11
256.80121344489021
 21
154.96161383551521
  0
LINE
  8
_1-4_
  6
CONTINUOUS
 62
    7
 10
173.66378371779984
 20
164.95930852116766
 11
197.19474173880914
 21
100.30857189281568
  0
LINE
  8
_1-0_
  6
CONTINUOUS
 62
    7
 10
298.97431244721287
 20
218.01140862542232
 11
276.73555941195104
 21
179.492748363598
  0
LINE
  8
_1-0_
  6
CONTINUOUS
 62
    7
 10
302.0943306587838
 20
219.41543166701859
 11
279.85557762352198
 21
180.89674666121201
  0
LINE
  8
_1-0_
  6
CONTINUOUS
 62
    7
 10
305.21434887035474
 20
220.8194299646326
 11
282.97557109111068
 21
182.30074495882602
  0
LINE
  8
_1-0_
  6
CONTINUOUS
 62
    7
 10
138.86651941247888
 20
145.96289557379646
 11
116.62775400522594
 21
107.44423531197214
  0
LINE
  8
_1-0_
  6
CONTINUOUS
 62
    7
 10
135.74650120090794
 20
144.55889727618245
 11
113.50774816564612
 21
106.04022464236698
  0
LINE
  8
_1-0_
  6
CONTINUOUS
 62
    7
 10
132.62649536132812
 20
143.15488660657729
 11
110.38772995407517
 21
104.63622634475296
  0
LINE
  8
_1-0_
  6
CONTINUOUS
 62
    3
 10
125.39417576145482
 20
148.58380291913008
 11
125.77814050622889
 21
148.69596739073057
  0
ARC
  8
_1-2_
  6
CONTINUOUS
 62
    3
 10
64.154440390097136
 20
124.01619576119089
 40
6.01062568458351
 50
105.60023498535158
 51
139.81837463378906
  0
ARC
  8
_1-2_
  6
CONTINUOUS
 62
    3
 10
63.131425187394427
 20
125.81155725427577
 40
0.9999999162313101
 50
106.28427124023437
 51
173.71903991699222
  0
ARC
  8
_1-2_
  6
CONTINUOUS
 62
    3
 10
115.93298009923987
 20
145.03462507918076
 40
6.01062568458351
 50
107.47019958496094
 51
141.68833923339844
  0
ARC
  8
_1-2_
  6
CONTINUOUS
 62
    3
 10
114.85191551414697
 20
146.795654296875
 40
0.9999999162313101
 50
108.15423583984375
 51
175.58900451660156
  0
ARC
  8
_1-2_
  6
CONTINUOUS
 62
    3
 10
166.96873020481419
 20
168.09881261877112
 40
6.01062568458351
 50
107.389892578125
 51
141.6080322265625
  0
ARC
  8
_1-2_
  6
CONTINUOUS
 62
    3
 10
165.89014001794766
 20
169.86136359137458
 40
0.9999999162313101
 50
108.07392883300781
 51
175.50869750976562
  0
ARC
  8
_1-2_
  6
CONTINUOUS
 62
    3
 10
218.03632581556167
 20
191.07924177839951
 40
6.01062568458351
 50
107.389892578125
 51
141.6080322265625
  0
ARC
  8
_1-2_
  6
CONTINUOUS
 62
    3
 10
216.9577356286951
 20
192.84179275100297
 40
0.9999999162313101
 50
108.07392883300781
 51
175.50869750976562
  0
ARC
  8
_1-2_
  6
CONTINUOUS
 62
    3
 10
269.10392142630911
 20
214.05967093802789
 40
6.01062568458351
 50
107.389892578125
 51
141.6080322265625
  0
ARC
  8
_1-2_
  6
CONTINUOUS
 62
    3
 10
268.02533123944261
 20
215.82220953864021
 40
0.9999999162313101
 50
108.07392883300781
 51
175.50869750976562
  0
TEXT
  8
_0-0_
 62
    7
 10
147.56756962956609
 20
22.702702702702709
 40
2.5
 41
1
 50
0
  1
図名
  0
TEXT
  8
_0-0_
 62
    7
 10
147.56756962956609
 20
12.972972972972968
 40
2.5
 41
1
 50
0
  1
縮尺
  0
TEXT
  8
_0-0_
 62
    7
 10
382.77784605284
 20
21.243871740392734
 40
2.5
 41
1
 50
0
  1
ＮＯ
  0
TEXT
  8
_0-0_
 62
    7
 10
20.270270012520456
 20
22.702702702702709
 40
2.5
 41
1
 50
0
  1
Ｆ形
  0
TEXT
  8
_0-0_
 62
    7
 10
389.99062615471917
 20
16.178650211643514
 40
2.5
 41
1
 50
0
  1
Ｆ
  0
TEXT
  8
_0-0_
 62
    7
 10
171.37221877639359
 20
12.362518826046511
 40
2.5
 41
1
 50
0
  1
1/5
  0
TEXT
  8
_1-4_
 62
    7
 10
64.968182669741765
 20
175.77047368384564
 40
2.5
 41
1
 50
24.227719460851677
  1
280
  0
TEXT
  8
_1-4_
 62
    7
 10
116.09156358850235
 20
198.77599324148923
 40
2.5
 41
1
 50
24.227719460851628
  1
280
  0
TEXT
  8
_1-4_
 62
    7
 10
167.18040422295232
 20
221.76598699198524
 40
2.5
 41
1
 50
24.227891841336653
  1
280
  0
TEXT
  8
_1-4_
 62
    7
 10
218.25139698699752
 20
244.74794796357384
 40
2.5
 41
1
 50
24.227969413213462
  1
280
  0
TEXT
  8
_1-4_
 62
    7
 10
54.010373072702265
 20
152.63674367188372
 40
2.5
 41
1
 50
24.227700068058738
  1
80
  0
TEXT
  8
_1-4_
 62
    7
 10
79.012161799017548
 20
163.88755973351837
 40
2.5
 41
1
 50
24.227719460851652
  1
200
  0
TEXT
  8
_0-1_
 62
    7
 10
175.41218938054266
 20
202.11651776288008
 40
2.5
 41
1
 50
0
  1
桟瓦
  0
TEXT
  8
_0-1_
 62
    7
 10
214.86486074086781
 20
112.42017591321792
 40
2.5
 41
1
 50
0
  1
瓦桟
  0
TEXT
  8
_0-1_
 62
    7
 10
214.86486486486487
 20
104.91626636402027
 40
2.5
 41
1
 50
0
  1
流し桟
  0
TEXT
  8
_0-1_
 62
    7
 10
214.86486898886193
 20
97.633048392630911
 40
2.5
 41
1
 50
0
  1
下葺き材
  0
TEXT
  8
_1-4_
 62
    7
 10
55.907630920410156
 20
100.81212430386931
 40
2.5
 41
1
 50
0
  1
軒先水切
  0
TEXT
  8
_1-4_
 62
    7
 10
45.397583729511979
 20
13.77361400707349
 40
2.5
 41
1
 50
0
  1
軒先　2
  0
TEXT
  8
_1-4_
 62
    7
 10
48.626725480363177
 20
109.72242613096496
 40
2.5
 41
1
 50
0
  1
瓦座　45ｘ45
  0
TEXT
  8
_0-1_
 62
    7
 10
31.231870393495313
 20
18.589955922719582
 40
2.5
 41
1
 50
0
  1
ＲＣ
  0
TEXT
  8
_0-1_
 62
    7
 10
257.44495288745776
 20
154.61754876214107
 40
2.5
 41
1
 50
0
  1
木煉瓦
  0
TEXT
  8
_0-1_
 62
    7
 10
271.82667912663641
 20
154.61754876214107
 40
2.5
 41
1
 50
0
  1
防腐処理
  0
TEXT
  8
_1-0_
 62
    7
 10
229.24658285604943
 20
97.633048392630911
 40
2.5
 41
1
 50
0
  1
ゴムアス系ルーフィング
  0
POINT
  8
_1-4_
 62
    7
 10
41.311476423933698
 20
164.57665520745357
  0
POINT
  8
_1-4_
 62
    7
 10
92.454961828283373
 20
187.59123106260557
  0
POINT
  8
_1-4_
 62
    7
 10
143.5582258894637
 20
210.587719066723
  0
POINT
  8
_1-4_
 62
    7
 10
194.63262609533362
 20
233.57121648015203
  0
POINT
  8
_1-4_
 62
    7
 10
245.70024645006336
 20
256.55164563978042
  0
POINT
  8
_1-4_
 62
    7
 10
48.123309161212006
 20
149.43926424593539
  0
POINT
  8
_1-4_
 62
    7
 10
62.587601945206927
 20
155.94820589632602
  0
POINT
  8
_1-4_
 62
    7
 10
99.266794565561668
 20
172.45384010108742
  0
TEXT
  8
_0-1_
 62
    7
 10
398.75143102697427
 20
13.200719678724141
 40
2.5
 41
1
 50
0
  1
16
  0
TEXT
  8
_1-0_
 62
    7
 10
226.97391369755363
 20
109.69207055841804
 40
2.5
 41
1
 50
0
  1
※　地域により瓦桟木の大きさは、異なります
  0
TEXT
  8
_1-0_
 62
    7
 10
226.89099462219079
 20
112.65348496329977
 40
2.5
 41
1
 50
0
  1
１５×３０　（樹脂桟木）
  0
ENDSEC
  0
EOF
