  0
SECTION
  2
HEADER
  9
$ACADVER
  1
AC1009
  9
$INSBASE
 10
0
 20
0
 30
0
  9
$EXTMIN
 10
0
 20
0
  9
$EXTMAX
 10
420
 20
297
  9
$LIMMIN
 10
0
 20
0
  9
$LIMMAX
 10
420
 20
297
  9
$LTSCALE
 40
1
  0
ENDSEC
  0
SECTION
  2
TABLES
  0
TABLE
  2
LTYPE
 70
     9
  0
LTYPE
  2
CONTINUOUS
 70
    64
  3
実線
 72
    65
 73
     0
 40
0.0
  0
LTYPE
  2
DASHED1
 70
    64
  3
--  --  --  --  --  --  --  --  
 72
    65
 73
     2
 40
2.5
 49
1.25
 49
-1.25
  0
LTYPE
  2
DASHED2
 70
    64
  3
----    ----    ----    ----    
 72
    65
 73
     2
 40
5.0
 49
2.5
 49
-2.5
  0
LTYPE
  2
DASHED3
 70
    64
  3
------  ------  ------  ------  
 72
    65
 73
     2
 40
5.0
 49
3.75
 49
-1.25
  0
LTYPE
  2
CENTER1
 70
    64
  3
----- - ----- - ----- - ----- - 
 72
    65
 73
     4
 40
10.0
 49
6.25
 49
-1.25
 49
1.25
 49
-1.25
  0
LTYPE
  2
CENTER2
 70
    64
  3
----------  --  ----------  --  
 72
    65
 73
     4
 40
20.0
 49
12.5
 49
-2.5
 49
2.5
 49
-2.5
  0
LTYPE
  2
PHANTOM1
 70
    64
  3
--- - - --- - - --- - - --- - - 
 72
    65
 73
     6
 40
10.0
 49
3.25
 49
-1.25
 49
1.25
 49
-1.25
 49
1.25
 49
-1.25
  0
LTYPE
  2
PHANTOM2
 70
    64
  3
--------  -  -  --------  -  -  
 72
    65
 73
     6
 40
20.0
 49
10.0
 49
-2.5
 49
1.25
 49
-2.5
 49
1.25
 49
-2.5
  0
LTYPE
  2
DOT
 70
    64
  3
-   -   -   -   -   -   -   -   
 72
    65
 73
     2
 40
2.5
 49
0.625
 49
-1.875
  0
LTYPE
  2
DUMMY
 70
    64
  3
ダミー
 72
    65
 73
     0
 40
0.0
  0
LTYPE
  2
RAND1
 70
    64
  3
ランダム線1
 72
    65
 73
     4
 40
10.0
 49
1.0
 49
-2.0
 49
3.0
 49
-4.0
  0
LTYPE
  2
RAND2
 70
    64
  3
ランダム線2
 72
    65
 73
     4
 40
14.0
 49
2.0
 49
-3.0
 49
4.0
 49
-5.0
  0
LTYPE
  2
RAND3
 70
    64
  3
ランダム線3
 72
    65
 73
     4
 40
18.0
 49
3.0
 49
-4.0
 49
5.0
 49
-6.0
  0
LTYPE
  2
RAND4
 70
    64
  3
ランダム線4
 72
    65
 73
     4
 40
22.0
 49
4.0
 49
-5.0
 49
6.0
 49
-7.0
  0
LTYPE
  2
RAND5
 70
    64
  3
ランダム線5
 72
    65
 73
     4
 40
26.0
 49
5.0
 49
-6.0
 49
7.0
 49
-8.0
  0
LTYPE
  2
LONG1
 70
    64
  3
----------  --  ----------  --  
 72
    65
 73
     4
 40
40.0
 49
32.5
 49
-2.5
 49
2.5
 49
-2.5
  0
LTYPE
  2
LONG2
 70
    64
  3
--------  -  -  --------  -  -  
 72
    65
 73
     6
 40
40.0
 49
30.0
 49
-2.5
 49
1.25
 49
-2.5
 49
1.25
 49
-2.5
  0
LTYPE
  2
LONG3
 70
    64
  3
+++++++++++++++..+++++++++++++++
 72
    65
 73
     2
 40
40.0
 49
37.5
 49
-2.5
  0
LTYPE
  2
LONG4
 70
    64
  3
+++++++++++++++..+++++++++++++++
 72
    65
 73
     2
 40
80.0
 49
75.0
 49
-5.0
  0
LTYPE
  2
LONG5
 70
    64
  3
----------  --  ----------  --  
 72
    65
 73
     4
 40
60.0
 49
37.5
 49
-7.5
 49
7.5
 49
-7.5
  0
LTYPE
  2
dashed
 70
   64
  3
-------   -------------   ------
 72
   65
 73
    2
 40
7.5
 49
6
 49
-1.5
  0
LTYPE
  2
dashed_spaced
 70
   64
  3
----        --------        ----
 72
   65
 73
    2
 40
12
 49
6
 49
-6
  0
LTYPE
  2
long_dashed_dotted
 70
   64
  3
------------- --- --------------
 72
   65
 73
    4
 40
15.25
 49
12
 49
-1.5
 49
0.25
 49
-1.5
  0
LTYPE
  2
long_dashed_double-dotted
 70
   64
  3
----------- --- --- ------------
 72
   65
 73
    6
 40
17
 49
12
 49
-1.5
 49
0.25
 49
-1.5
 49
0.25
 49
-1.5
  0
LTYPE
  2
long_dashed_triplicate-dotted
 70
   64
  3
--------- --- --- --- ----------
 72
   65
 73
    8
 40
18.75
 49
12
 49
-1.5
 49
0.25
 49
-1.5
 49
0.25
 49
-1.5
 49
0.25
 49
-1.5
  0
LTYPE
  2
dotted
 70
   64
  3
   -       -       -       -    
 72
   65
 73
    2
 40
1.75
 49
0.25
 49
-1.5
  0
LTYPE
  2
chain
 70
   64
  3
-------------- -- --------------
 72
   65
 73
    4
 40
18.5
 49
12
 49
-1.5
 49
3.5
 49
-1.5
  0
LTYPE
  2
chain_double_dash
 70
   64
  3
------------ -- -- -------------
 72
   65
 73
    6
 40
23.5
 49
12
 49
-1.5
 49
3.5
 49
-1.5
 49
3.5
 49
-1.5
  0
LTYPE
  2
dashed_dotted
 70
   64
  3
-----------     -     ----------
 72
   65
 73
    4
 40
9.25
 49
6
 49
-1.5
 49
0.25
 49
-1.5
  0
LTYPE
  2
double-dashed_dotted
 70
   64
  3
------   -----------   -   -----
 72
   65
 73
    6
 40
16.75
 49
6
 49
-1.5
 49
6
 49
-1.5
 49
0.25
 49
-1.5
  0
LTYPE
  2
dashed_double-dotted
 70
   64
  3
---------    -    -    ---------
 72
   65
 73
    6
 40
11
 49
6
 49
-1.5
 49
0.25
 49
-1.5
 49
0.25
 49
-1.5
  0
LTYPE
  2
double-dashed_double-dotted
 70
   64
  3
-----   ---------   -   -   ----
 72
   65
 73
    8
 40
18.5
 49
6
 49
-1.5
 49
6
 49
-1.5
 49
0.25
 49
-1.5
 49
0.25
 49
-1.5
  0
LTYPE
  2
dashed_triplicate-dotted
 70
   64
  3
-------    -    -    -    ------
 72
   65
 73
    8
 40
12.75
 49
6
 49
-1.5
 49
0.25
 49
-1.5
 49
0.25
 49
-1.5
 49
0.25
 49
-1.5
  0
LTYPE
  2
double-dashed_triplicate-dotted
 70
   64
  3
-----  ---------  -  -  -  -----
 72
   65
 73
   10
 40
20.25
 49
6
 49
-1.5
 49
6
 49
-1.5
 49
0.25
 49
-1.5
 49
0.25
 49
-1.5
 49
0.25
 49
-1.5
  0
LTYPE
  2
undefined
 70
   64
  3
--------------------------------
 72
   65
 73
    0
 40
0
  0
ENDTAB
  0
TABLE
  2
STYLE
  5
3
100
AcDbSymbolTable
 70
     1
  0
STYLE
  5
10
100
AcDbSymbolTableRecord
100
AcDbTextStyleTableRecord
  2
STANDARD
 70
     0
 40
0.0
 41
1.0
 50
0.0
 71
     0
 42
0.2
  3
txt
  4
bigfont.shx
  0
STYLE
  5
26
100
AcDbSymbolTableRecord
100
AcDbTextStyleTableRecord
  2
TATEGAKI
 70
    68
 40
0.0
 41
1.0
 50
0.0
 71
     0
 42
1.0
  3
txt
  4
bigfont.shx
  0
ENDTAB
  0
TABLE
  2
LAYER
 70
    7
  0
LAYER
  2
_0-0_
 70
   64
 62
    7
  6
CONTINUOUS
  0
LAYER
  2
_0-1_
 70
   64
 62
    7
  6
CONTINUOUS
  0
LAYER
  2
_1-0_
 70
   64
 62
    7
  6
CONTINUOUS
  0
LAYER
  2
_1-1_
 70
   64
 62
    7
  6
CONTINUOUS
  0
LAYER
  2
_1-2_
 70
   64
 62
    7
  6
CONTINUOUS
  0
LAYER
  2
_1-3_
 70
   64
 62
    7
  6
CONTINUOUS
  0
LAYER
  2
ADD_LINE
 70
   64
 62
    7
  6
CONTINUOUS
  0
ENDTAB
  0
ENDSEC
  0
SECTION
  2
BLOCKS
  0
ENDSEC
  0
SECTION
  2
ENTITIES
  0
LINE
  8
_0-0_
  6
CONTINUOUS
 62
    5
 10
12.432428308435391
 20
278.51351351351354
 11
412.43244892842063
 21
278.51351351351354
  0
LINE
  8
_0-0_
  6
CONTINUOUS
 62
    5
 10
412.43244892842063
 20
28.513511451515001
 11
12.432415936444272
 21
28.513511451515001
  0
LINE
  8
_0-0_
  6
CONTINUOUS
 62
    5
 10
377.43248192039698
 20
8.5135135135135158
 11
377.43248192039698
 21
28.513511451515001
  0
LINE
  8
_0-0_
  6
CONTINUOUS
 62
    5
 10
142.70271507469386
 20
28.513511451515001
 11
142.70271507469386
 21
8.5135135135135158
  0
LINE
  8
_0-0_
  6
CONTINUOUS
 62
    5
 10
220.54054054054055
 20
28.513511451515001
 11
220.54054054054055
 21
8.5135135135135158
  0
LINE
  8
_0-0_
  6
CONTINUOUS
 62
    5
 10
142.70271507469386
 20
18.513512482514244
 11
220.54054054054055
 21
18.513512482514244
  0
LINE
  8
_0-0_
  6
CONTINUOUS
 62
    5
 10
402.16218690614443
 20
24.324325870823216
 11
389.59456985061234
 21
11.756758303255651
  0
LINE
  8
_1-0_
  6
CONTINUOUS
 62
    7
 10
47.140552417652032
 20
171.2594728212099
 11
47.140552417652032
 21
170.65946836729307
  0
LINE
  8
_1-0_
  6
CONTINUOUS
 62
    7
 10
47.140552417652032
 20
170.65946836729307
 11
47.140552417652032
 21
171.2594728212099
  0
LINE
  8
_1-0_
  6
CONTINUOUS
 62
    7
 10
47.140552417652032
 20
171.2594728212099
 11
51.940538561021953
 21
171.2594728212099
  0
LINE
  8
_1-0_
  6
CONTINUOUS
 62
    7
 10
51.940538561021953
 20
171.2594728212099
 11
51.940538561021953
 21
170.65946836729307
  0
LINE
  8
_1-0_
  6
CONTINUOUS
 62
    7
 10
51.940538561021953
 20
170.65946836729307
 11
47.140552417652032
 21
170.65946836729307
  0
LINE
  8
_1-0_
  6
CONTINUOUS
 62
    7
 10
47.140552417652032
 20
171.2594728212099
 11
51.940538561021953
 21
170.65946836729307
  0
LINE
  8
_1-0_
  6
CONTINUOUS
 62
    7
 10
107.74054449957771
 20
170.65946836729307
 11
107.74054449957771
 21
171.2594728212099
  0
LINE
  8
_1-0_
  6
CONTINUOUS
 62
    7
 10
107.74054449957771
 20
171.2594728212099
 11
112.54053064294764
 21
171.2594728212099
  0
LINE
  8
_1-0_
  6
CONTINUOUS
 62
    7
 10
112.54053064294764
 20
171.2594728212099
 11
112.54053064294764
 21
170.65946836729307
  0
LINE
  8
_1-0_
  6
CONTINUOUS
 62
    7
 10
112.54053064294764
 20
170.65946836729307
 11
107.74054449957771
 21
170.65946836729307
  0
LINE
  8
_1-0_
  6
CONTINUOUS
 62
    7
 10
107.74054449957771
 20
171.2594728212099
 11
112.54053064294764
 21
170.65946836729307
  0
LINE
  8
_1-0_
  6
CONTINUOUS
 62
    7
 10
168.34053658150339
 20
170.65946836729307
 11
168.34053658150339
 21
171.2594728212099
  0
LINE
  8
_1-0_
  6
CONTINUOUS
 62
    7
 10
168.34053658150339
 20
171.2594728212099
 11
173.14052272487331
 21
171.2594728212099
  0
LINE
  8
_1-0_
  6
CONTINUOUS
 62
    7
 10
173.14052272487331
 20
171.2594728212099
 11
173.14052272487331
 21
170.65946836729307
  0
LINE
  8
_1-0_
  6
CONTINUOUS
 62
    7
 10
173.14052272487331
 20
170.65946836729307
 11
168.34053658150339
 21
170.65946836729307
  0
LINE
  8
_1-0_
  6
CONTINUOUS
 62
    7
 10
168.34053658150339
 20
171.2594728212099
 11
173.14052272487331
 21
170.65946836729307
  0
LINE
  8
_1-0_
  6
CONTINUOUS
 62
    7
 10
228.94052866342906
 20
170.65946836729307
 11
228.94052866342906
 21
171.2594728212099
  0
LINE
  8
_1-0_
  6
CONTINUOUS
 62
    7
 10
228.94052866342906
 20
171.2594728212099
 11
233.74051480679901
 21
171.2594728212099
  0
LINE
  8
_1-0_
  6
CONTINUOUS
 62
    7
 10
233.74051480679901
 20
171.2594728212099
 11
233.74051480679901
 21
170.65946836729307
  0
LINE
  8
_1-0_
  6
CONTINUOUS
 62
    7
 10
233.74051480679901
 20
170.65946836729307
 11
228.94052866342906
 21
170.65946836729307
  0
LINE
  8
_1-0_
  6
CONTINUOUS
 62
    7
 10
228.94052866342906
 20
171.2594728212099
 11
233.74051480679901
 21
170.65946836729307
  0
LINE
  8
_1-1_
  6
CONTINUOUS
 62
    3
 10
49.340539880701016
 20
179.85947892472552
 11
49.340539880701016
 21
176.25947694520693
  0
LINE
  8
_1-1_
  6
CONTINUOUS
 62
    3
 10
110.54052404455237
 20
179.85947892472552
 11
110.54052404455237
 21
177.45947348104943
  0
LINE
  8
_1-1_
  6
CONTINUOUS
 62
    3
 10
49.340539880701016
 20
179.85947892472552
 11
50.540548788534636
 21
179.85947892472552
  0
LINE
  8
_1-1_
  6
CONTINUOUS
 62
    3
 10
100.67831503378379
 20
179.85947892472552
 11
110.54052404455237
 21
179.85947892472552
  0
LINE
  8
_1-1_
  6
CONTINUOUS
 62
    3
 10
102.54052239495356
 20
177.45947348104943
 11
99.540512497360652
 21
174.25947034681167
  0
LINE
  8
_1-1_
  6
CONTINUOUS
 62
    3
 10
108.94052866342906
 20
177.45947348104943
 11
108.94052866342906
 21
177.05947463576859
  0
LINE
  8
_1-1_
  6
CONTINUOUS
 62
    3
 10
108.14053097286741
 20
177.45947348104943
 11
108.14053097286741
 21
177.05947463576859
  0
LINE
  8
_1-1_
  6
CONTINUOUS
 62
    3
 10
106.54053559174409
 20
177.45947348104943
 11
106.54053559174409
 21
177.05947463576859
  0
LINE
  8
_1-1_
  6
CONTINUOUS
 62
    3
 10
105.74053790118244
 20
177.45947348104943
 11
105.74053790118244
 21
177.05947463576859
  0
LINE
  8
_1-1_
  6
CONTINUOUS
 62
    3
 10
102.54052239495356
 20
177.45947348104943
 11
105.74053790118244
 21
177.45947348104943
  0
LINE
  8
_1-1_
  6
CONTINUOUS
 62
    3
 10
106.54053559174409
 20
177.45947348104943
 11
108.14053097286741
 21
177.45947348104943
  0
LINE
  8
_1-1_
  6
CONTINUOUS
 62
    3
 10
108.94052866342906
 20
177.45947348104943
 11
110.54052404455237
 21
177.45947348104943
  0
LINE
  8
_1-1_
  6
CONTINUOUS
 62
    3
 10
105.74053790118244
 20
177.05947463576859
 11
106.54053559174409
 21
177.05947463576859
  0
LINE
  8
_1-1_
  6
CONTINUOUS
 62
    3
 10
108.14053097286741
 20
177.05947463576859
 11
108.94052866342906
 21
177.05947463576859
  0
LINE
  8
_1-1_
  6
CONTINUOUS
 62
    3
 10
54.140550768053203
 20
177.25946787241344
 11
97.940517116237331
 21
177.25946787241344
  0
LINE
  8
ADD_LINE
  6
DOT
 62
    3
 10
49.540545489337006
 20
174.71588547165331
 11
49.540545489337006
 21
173.89319754935602
  0
LINE
  8
_1-1_
  6
CONTINUOUS
 62
    3
 10
102.74052800358953
 20
176.8594690271326
 11
102.74052800358953
 21
174.25947034681167
  0
LINE
  8
_1-1_
  6
CONTINUOUS
 62
    3
 10
110.54052404455237
 20
179.85947892472552
 11
110.54052404455237
 21
176.25947694520693
  0
LINE
  8
_1-1_
  6
CONTINUOUS
 62
    3
 10
171.74050820840372
 20
179.85947892472552
 11
171.74050820840372
 21
177.45947348104943
  0
LINE
  8
_1-1_
  6
CONTINUOUS
 62
    3
 10
102.74052800358953
 20
174.25947034681167
 11
160.74050903320312
 21
174.25947034681167
  0
LINE
  8
_1-1_
  6
CONTINUOUS
 62
    3
 10
110.54052404455237
 20
179.85947892472552
 11
111.74055769636826
 21
179.85947892472552
  0
LINE
  8
_1-1_
  6
CONTINUOUS
 62
    3
 10
161.87831156962628
 20
179.85947892472552
 11
171.74050820840372
 21
179.85947892472552
  0
LINE
  8
_1-1_
  6
CONTINUOUS
 62
    3
 10
163.7405065588049
 20
177.45947348104943
 11
160.74050903320312
 21
174.25947034681167
  0
LINE
  8
_1-1_
  6
CONTINUOUS
 62
    3
 10
170.14051282728042
 20
177.45947348104943
 11
170.14051282728042
 21
177.05947463576859
  0
LINE
  8
_1-1_
  6
CONTINUOUS
 62
    3
 10
169.34051513671875
 20
177.45947348104943
 11
169.34051513671875
 21
177.05947463576859
  0
LINE
  8
_1-1_
  6
CONTINUOUS
 62
    3
 10
167.74051975559544
 20
177.45947348104943
 11
167.74051975559544
 21
177.05947463576859
  0
LINE
  8
_1-1_
  6
CONTINUOUS
 62
    3
 10
166.9405220650338
 20
177.45947348104943
 11
166.9405220650338
 21
177.05947463576859
  0
LINE
  8
_1-1_
  6
CONTINUOUS
 62
    3
 10
163.7405065588049
 20
177.45947348104943
 11
166.9405220650338
 21
177.45947348104943
  0
LINE
  8
_1-1_
  6
CONTINUOUS
 62
    3
 10
167.74051975559544
 20
177.45947348104943
 11
169.34051513671875
 21
177.45947348104943
  0
LINE
  8
_1-1_
  6
CONTINUOUS
 62
    3
 10
170.14051282728042
 20
177.45947348104943
 11
171.74050820840372
 21
177.45947348104943
  0
LINE
  8
_1-1_
  6
CONTINUOUS
 62
    3
 10
166.9405220650338
 20
177.05947463576859
 11
167.74051975559544
 21
177.05947463576859
  0
LINE
  8
_1-1_
  6
CONTINUOUS
 62
    3
 10
169.34051513671875
 20
177.05947463576859
 11
170.14051282728042
 21
177.05947463576859
  0
LINE
  8
_1-1_
  6
CONTINUOUS
 62
    3
 10
115.34053493190457
 20
177.25946787241344
 11
159.1405012800887
 21
177.25946787241344
  0
LINE
  8
_1-1_
  6
CONTINUOUS
 62
    3
 10
103.94051216744089
 20
176.8594690271326
 11
104.22459782780828
 21
176.25947694520693
  0
LINE
  8
_1-1_
  6
CONTINUOUS
 62
    3
 10
102.74052800358953
 20
176.8594690271326
 11
103.94051216744089
 21
176.8594690271326
  0
LINE
  8
_1-1_
  6
CONTINUOUS
 62
    3
 10
104.22459782780828
 20
176.25947694520693
 11
110.54052404455237
 21
176.25947694520693
  0
LINE
  8
_1-1_
  6
CONTINUOUS
 62
    3
 10
163.94052453943203
 20
176.8594690271326
 11
163.94052453943203
 21
174.25947034681167
  0
LINE
  8
_1-1_
  6
CONTINUOUS
 62
    3
 10
171.74050820840372
 20
179.85947892472552
 11
171.74050820840372
 21
176.25947694520693
  0
LINE
  8
_1-1_
  6
CONTINUOUS
 62
    3
 10
232.94049237225508
 20
179.85947892472552
 11
232.94049237225508
 21
177.45947348104943
  0
LINE
  8
_1-0_
  6
CONTINUOUS
 62
    3
 10
163.94052453943203
 20
174.25947034681167
 11
221.94050556904563
 21
174.25947034681167
  0
LINE
  8
_1-1_
  6
CONTINUOUS
 62
    3
 10
171.74050820840372
 20
179.85947892472552
 11
172.94054186021961
 21
179.85947892472552
  0
LINE
  8
_1-1_
  6
CONTINUOUS
 62
    3
 10
223.07830810546875
 20
179.85947892472552
 11
232.94049237225508
 21
179.85947892472552
  0
LINE
  8
_1-1_
  6
CONTINUOUS
 62
    3
 10
224.94051546663852
 20
177.45947348104943
 11
221.94050556904563
 21
174.25947034681167
  0
LINE
  8
_1-1_
  6
CONTINUOUS
 62
    3
 10
231.34049699113177
 20
177.45947348104943
 11
231.34049699113177
 21
177.05947463576859
  0
LINE
  8
_1-1_
  6
CONTINUOUS
 62
    3
 10
230.54052404455237
 20
177.45947348104943
 11
230.54052404455237
 21
177.05947463576859
  0
LINE
  8
_1-1_
  6
CONTINUOUS
 62
    3
 10
228.94052866342906
 20
177.45947348104943
 11
228.94052866342906
 21
177.05947463576859
  0
LINE
  8
_1-1_
  6
CONTINUOUS
 62
    3
 10
228.14050622888516
 20
177.45947348104943
 11
228.14050622888516
 21
177.05947463576859
  0
LINE
  8
_1-1_
  6
CONTINUOUS
 62
    3
 10
224.94051546663852
 20
177.45947348104943
 11
228.14050622888516
 21
177.45947348104943
  0
LINE
  8
_1-1_
  6
CONTINUOUS
 62
    3
 10
228.94052866342906
 20
177.45947348104943
 11
230.54052404455237
 21
177.45947348104943
  0
LINE
  8
_1-1_
  6
CONTINUOUS
 62
    3
 10
231.34049699113177
 20
177.45947348104943
 11
232.94049237225508
 21
177.45947348104943
  0
LINE
  8
_1-1_
  6
CONTINUOUS
 62
    3
 10
228.14050622888516
 20
177.05947463576859
 11
228.94052866342906
 21
177.05947463576859
  0
LINE
  8
_1-1_
  6
CONTINUOUS
 62
    3
 10
230.54052404455237
 20
177.05947463576859
 11
231.34049699113177
 21
177.05947463576859
  0
LINE
  8
_1-1_
  6
CONTINUOUS
 62
    3
 10
176.54054383973818
 20
177.25946787241344
 11
220.34051018792232
 21
177.25946787241344
  0
LINE
  8
_1-1_
  6
CONTINUOUS
 62
    3
 10
165.14050870328336
 20
176.8594690271326
 11
165.42459436365078
 21
176.25947694520693
  0
LINE
  8
_1-1_
  6
CONTINUOUS
 62
    3
 10
163.94052453943203
 20
176.8594690271326
 11
165.14050870328336
 21
176.8594690271326
  0
LINE
  8
_1-1_
  6
CONTINUOUS
 62
    3
 10
165.42459436365078
 20
176.25947694520693
 11
171.74050820840372
 21
176.25947694520693
  0
LINE
  8
_1-1_
  6
CONTINUOUS
 62
    3
 10
225.14052107527451
 20
176.8594690271326
 11
225.14052107527451
 21
174.25947034681167
  0
LINE
  8
_1-1_
  6
CONTINUOUS
 62
    3
 10
232.94051711623734
 20
179.85947892472552
 11
232.94051711623734
 21
176.25947694520693
  0
LINE
  8
_1-1_
  6
CONTINUOUS
 62
    3
 10
294.1405012800887
 20
179.85947892472552
 11
294.1405012800887
 21
177.45947348104943
  0
LINE
  8
_1-0_
  6
CONTINUOUS
 62
    3
 10
225.14052107527451
 20
174.25947034681167
 11
283.14048973289698
 21
174.25947034681167
  0
LINE
  8
_1-1_
  6
CONTINUOUS
 62
    3
 10
232.94051711623734
 20
179.85947892472552
 11
234.14052602407097
 21
179.85947892472552
  0
LINE
  8
_1-1_
  6
CONTINUOUS
 62
    3
 10
284.2783170133024
 20
179.85947892472552
 11
294.1405012800887
 21
179.85947892472552
  0
LINE
  8
_1-1_
  6
CONTINUOUS
 62
    3
 10
286.1404996304899
 20
177.45947348104943
 11
283.14048973289698
 21
174.25947034681167
  0
LINE
  8
_1-1_
  6
CONTINUOUS
 62
    3
 10
292.54050589896536
 20
177.45947348104943
 11
292.54050589896536
 21
177.05947463576859
  0
LINE
  8
_1-1_
  6
CONTINUOUS
 62
    3
 10
291.74050820840375
 20
177.45947348104943
 11
291.74050820840375
 21
177.05947463576859
  0
LINE
  8
_1-1_
  6
CONTINUOUS
 62
    3
 10
290.14051282728042
 20
177.45947348104943
 11
290.14051282728042
 21
177.05947463576859
  0
LINE
  8
_1-1_
  6
CONTINUOUS
 62
    3
 10
289.34051513671875
 20
177.45947348104943
 11
289.34051513671875
 21
177.05947463576859
  0
LINE
  8
_1-1_
  6
CONTINUOUS
 62
    3
 10
286.1404996304899
 20
177.45947348104943
 11
289.34051513671875
 21
177.45947348104943
  0
LINE
  8
_1-1_
  6
CONTINUOUS
 62
    3
 10
290.14051282728042
 20
177.45947348104943
 11
291.74050820840375
 21
177.45947348104943
  0
LINE
  8
_1-1_
  6
CONTINUOUS
 62
    3
 10
292.54050589896536
 20
177.45947348104943
 11
294.1405012800887
 21
177.45947348104943
  0
LINE
  8
_1-1_
  6
CONTINUOUS
 62
    3
 10
289.34051513671875
 20
177.05947463576859
 11
290.14051282728042
 21
177.05947463576859
  0
LINE
  8
_1-1_
  6
CONTINUOUS
 62
    3
 10
291.74050820840375
 20
177.05947463576859
 11
292.54050589896536
 21
177.05947463576859
  0
LINE
  8
_1-1_
  6
CONTINUOUS
 62
    3
 10
237.74052800358953
 20
177.25946787241344
 11
281.54049435177365
 21
177.25946787241344
  0
LINE
  8
_1-1_
  6
CONTINUOUS
 62
    3
 10
226.34050523912586
 20
176.8594690271326
 11
226.62459089949326
 21
176.25947694520693
  0
LINE
  8
_1-1_
  6
CONTINUOUS
 62
    3
 10
225.14052107527451
 20
176.8594690271326
 11
226.34050523912586
 21
176.8594690271326
  0
LINE
  8
_1-1_
  6
CONTINUOUS
 62
    3
 10
226.62459089949326
 20
176.25947694520693
 11
232.94051711623734
 21
176.25947694520693
  0
LINE
  8
_1-0_
  6
CONTINUOUS
 62
    3
 10
225.14052107527451
 20
174.25947034681167
 11
283.14048973289698
 21
174.25947034681167
  0
LINE
  8
_1-1_
  6
CONTINUOUS
 62
    7
 10
221.94050556904563
 20
174.25947034681167
 11
225.14052107527451
 21
174.25947034681167
  0
LINE
  8
_1-0_
  6
CONTINUOUS
 62
    3
 10
163.94052453943203
 20
174.25947034681167
 11
221.94050556904563
 21
174.25947034681167
  0
LINE
  8
_1-1_
  6
CONTINUOUS
 62
    7
 10
160.74050903320312
 20
174.25947034681167
 11
163.94052453943203
 21
174.25947034681167
  0
LINE
  8
_1-0_
  6
CONTINUOUS
 62
    3
 10
47.140552417652032
 20
174.25947034681167
 11
99.540512497360652
 21
174.25947034681167
  0
LINE
  8
_1-0_
  6
CONTINUOUS
 62
    3
 10
102.74052800358953
 20
174.25947034681167
 11
160.74050903320312
 21
174.25947034681167
  0
LINE
  8
_1-1_
  6
CONTINUOUS
 62
    7
 10
102.74052800358953
 20
174.25947034681167
 11
99.540512497360652
 21
174.25947034681167
  0
LINE
  8
_1-2_
  6
CONTINUOUS
 62
    7
 10
165.96108101509714
 20
177.17077306798987
 11
197.58827003272805
 21
90.27581498429582
  0
LINE
  8
_1-2_
  6
CONTINUOUS
 62
    7
 10
197.58827003272805
 20
90.27581498429582
 11
203.51351351351352
 21
90.27581498429582
  0
LINE
  8
_0-1_
  6
CONTINUOUS
 62
    7
 10
184.84930090002112
 20
125.27581292229731
 11
203.51351351351352
 21
125.27581292229731
  0
LINE
  8
_0-1_
  6
CONTINUOUS
 62
    7
 10
187.39708977776607
 20
118.27581457189612
 11
203.51351351351352
 21
118.27581457189612
  0
LINE
  8
_0-1_
  6
CONTINUOUS
 62
    7
 10
189.94490339949326
 20
111.27581622149494
 11
203.51351351351352
 21
111.27581622149494
  0
LINE
  8
_0-1_
  6
CONTINUOUS
 62
    7
 10
192.49269227723818
 20
104.27581787109375
 11
203.51351351351352
 21
104.27581787109375
  0
LINE
  8
_0-1_
  6
CONTINUOUS
 62
    7
 10
195.04048115498313
 20
97.275813334697006
 11
203.51351351351352
 21
97.275813334697006
  0
LINE
  8
_1-1_
  6
CONTINUOUS
 62
    3
 10
287.03744424356
 20
179.85947892472552
 11
285.83743533572635
 21
179.85947892472552
  0
LINE
  8
_1-1_
  6
CONTINUOUS
 62
    3
 10
294.14052602407094
 20
179.85947892472552
 11
294.14052602407094
 21
177.45947348104943
  0
LINE
  8
_1-1_
  6
CONTINUOUS
 62
    3
 10
46.084726694467918
 20
174.25947034681167
 11
99.540512497360652
 21
174.25947034681167
  0
LINE
  8
_1-1_
  6
CONTINUOUS
 62
    3
 10
46.084726694467918
 20
176.25947694520693
 11
49.340539880701016
 21
176.25947694520693
  0
LINE
  8
_1-0_
  6
CONTINUOUS
 62
    7
 10
46.084726694467918
 20
169.45945945945948
 11
295.34053493190459
 21
169.45945945945948
  0
LINE
  8
_1-0_
  6
DASHED1
 62
    3
 10
46.084726694467918
 20
170.05946391337628
 11
294.91929337785052
 21
170.05946391337628
  0
LINE
  8
_1-0_
  6
CONTINUOUS
 62
    2
 10
276.46988327438771
 20
170.3423123746305
 11
294.46989317198057
 21
170.3423123746305
  0
LINE
  8
_1-0_
  6
CONTINUOUS
 62
    2
 10
276.46988327438771
 20
173.8715341928843
 11
276.46988327438771
 21
170.3423123746305
  0
LINE
  8
_1-0_
  6
CONTINUOUS
 62
    2
 10
276.46988327438771
 20
173.8715341928843
 11
278.64859091269005
 21
173.8715341928843
  0
LINE
  8
_1-0_
  6
CONTINUOUS
 62
    7
 10
47.140552417652032
 20
171.2594728212099
 11
276.08706912478885
 21
171.2594728212099
  0
LINE
  8
_1-0_
  6
CONTINUOUS
 62
    7
 10
47.140552417652032
 20
170.65946836729307
 11
276.08706912478885
 21
170.65946836729307
  0
LINE
  8
_1-0_
  6
CONTINUOUS
 62
    7
 10
276.08706912478885
 20
170.65946836729307
 11
276.08706912478885
 21
174.25947034681167
  0
LINE
  8
_1-0_
  6
CONTINUOUS
 62
    7
 10
271.28708298141896
 20
170.65946836729307
 11
271.28708298141896
 21
171.2594728212099
  0
LINE
  8
_1-0_
  6
CONTINUOUS
 62
    7
 10
271.28708298141896
 20
171.2594728212099
 11
276.08706912478885
 21
171.2594728212099
  0
LINE
  8
_1-0_
  6
CONTINUOUS
 62
    7
 10
276.08706912478885
 20
171.2594728212099
 11
276.08706912478885
 21
170.65946836729307
  0
LINE
  8
_1-0_
  6
CONTINUOUS
 62
    7
 10
276.08706912478885
 20
170.65946836729307
 11
271.28708298141896
 21
170.65946836729307
  0
LINE
  8
_1-0_
  6
CONTINUOUS
 62
    7
 10
271.28708298141896
 20
171.2594728212099
 11
276.08706912478885
 21
170.65946836729307
  0
LINE
  8
_1-0_
  6
DASHED1
 62
    3
 10
294.91929337785052
 20
170.05946391337628
 11
294.91929337785052
 21
230.05945154138516
  0
LINE
  8
_1-0_
  6
CONTINUOUS
 62
    2
 10
294.46989317198057
 20
170.3423123746305
 11
294.46989317198057
 21
200.3423123746305
  0
LINE
  8
_1-0_
  6
CONTINUOUS
 62
    2
 10
294.46989317198057
 20
200.3423123746305
 11
294.24135775179479
 21
199.2022705078125
  0
LINE
  8
_1-0_
  6
CONTINUOUS
 62
    2
 10
272.92909364442568
 20
182.85946407833615
 11
272.92909364442568
 21
179.56250164959883
  0
LINE
  8
_1-0_
  6
CONTINUOUS
 62
    2
 10
272.92909364442568
 20
182.85946407833615
 11
293.92908869562922
 21
182.85946407833615
  0
LINE
  8
_1-0_
  6
CONTINUOUS
 62
    7
 10
290.91930492504224
 20
187.8594682023332
 11
290.91930492504224
 21
248.27681257918076
  0
LINE
  8
_1-0_
  6
CONTINUOUS
 62
    7
 10
288.51931185335729
 20
187.8594682023332
 11
290.91930492504224
 21
187.8594682023332
  0
LINE
  8
_1-0_
  6
CONTINUOUS
 62
    7
 10
288.51931185335729
 20
187.8594682023332
 11
288.51931185335729
 21
248.27681257918076
  0
LINE
  8
_1-0_
  6
CONTINUOUS
 62
    7
 10
275.52562816722974
 20
182.85946407833615
 11
275.52562816722974
 21
177.25946787241344
  0
LINE
  8
_1-0_
  6
CONTINUOUS
 62
    7
 10
280.52561991923568
 20
182.85946407833615
 11
280.52561991923568
 21
177.25946787241344
  0
LINE
  8
_1-0_
  6
CONTINUOUS
 62
    7
 10
279.9313684411951
 20
177.25946787241344
 11
280.52561991923568
 21
177.85371935045399
  0
LINE
  8
_1-0_
  6
CONTINUOUS
 62
    7
 10
279.08282305743245
 20
177.25946787241344
 11
280.52561991923568
 21
178.70225236222552
  0
LINE
  8
_1-0_
  6
CONTINUOUS
 62
    7
 10
278.23430241765203
 20
177.25946787241344
 11
280.52561991923568
 21
179.55077300200591
  0
LINE
  8
_1-0_
  6
CONTINUOUS
 62
    7
 10
277.38578177787161
 20
177.25946787241344
 11
280.52561991923568
 21
180.39929364178633
  0
LINE
  8
_1-0_
  6
CONTINUOUS
 62
    7
 10
276.53726113809125
 20
177.25946787241344
 11
280.52561991923568
 21
181.24781428156675
  0
LINE
  8
_1-0_
  6
CONTINUOUS
 62
    7
 10
275.68874049831084
 20
177.25946787241344
 11
280.52561991923568
 21
182.09633492134714
  0
LINE
  8
_1-0_
  6
CONTINUOUS
 62
    7
 10
275.52562816722974
 20
177.94487618111276
 11
280.44020369246203
 21
182.85946407833615
  0
LINE
  8
_1-0_
  6
CONTINUOUS
 62
    7
 10
275.52562816722974
 20
178.79339682089318
 11
279.59170779666385
 21
182.85946407833615
  0
LINE
  8
_1-0_
  6
CONTINUOUS
 62
    7
 10
275.52562816722974
 20
179.64192983266472
 11
278.7431624129012
 21
182.85946407833615
  0
LINE
  8
_1-0_
  6
CONTINUOUS
 62
    7
 10
275.52562816722974
 20
180.4904504724451
 11
277.89464177312078
 21
182.85946407833615
  0
LINE
  8
_1-0_
  6
CONTINUOUS
 62
    7
 10
275.52562816722974
 20
181.33897111222552
 11
277.04612113334036
 21
182.85946407833615
  0
LINE
  8
_1-0_
  6
CONTINUOUS
 62
    7
 10
275.52562816722974
 20
182.18751649598818
 11
276.19757574957771
 21
182.85946407833615
  0
LINE
  8
_1-0_
  6
CONTINUOUS
 62
    7
 10
275.52562816722974
 20
177.58829065271328
 11
275.85445094752959
 21
177.25946787241344
  0
LINE
  8
_1-0_
  6
CONTINUOUS
 62
    7
 10
275.52562816722974
 20
178.43681129249367
 11
276.70297158731
 21
177.25946787241344
  0
LINE
  8
_1-0_
  6
CONTINUOUS
 62
    7
 10
275.52562816722974
 20
179.28533193227409
 11
277.55149222709036
 21
177.25946787241344
  0
LINE
  8
_1-0_
  6
CONTINUOUS
 62
    7
 10
275.52562816722974
 20
180.13384020006336
 11
278.39998812288854
 21
177.25946787241344
  0
LINE
  8
_1-0_
  6
CONTINUOUS
 62
    7
 10
275.52562816722974
 20
180.98236083984375
 11
279.24850876266896
 21
177.25946787241344
  0
LINE
  8
_1-0_
  6
CONTINUOUS
 62
    7
 10
275.52562816722974
 20
181.83088147962417
 11
280.09702940244932
 21
177.25946787241344
  0
LINE
  8
_1-0_
  6
CONTINUOUS
 62
    7
 10
275.52562816722974
 20
182.67937737542232
 11
280.52561991923568
 21
177.67939799540753
  0
LINE
  8
_1-0_
  6
CONTINUOUS
 62
    7
 10
276.1940621040963
 20
182.85946407833615
 11
280.52561991923568
 21
178.5279062631968
  0
LINE
  8
_1-0_
  6
CONTINUOUS
 62
    7
 10
277.04258274387672
 20
182.85946407833615
 11
280.52561991923568
 21
179.37642690297722
  0
LINE
  8
_1-0_
  6
CONTINUOUS
 62
    7
 10
277.89110338365708
 20
182.85946407833615
 11
280.52561991923568
 21
180.2249475427576
  0
LINE
  8
_1-0_
  6
CONTINUOUS
 62
    7
 10
278.7396240234375
 20
182.85946407833615
 11
280.52561991923568
 21
181.07346818253802
  0
LINE
  8
_1-0_
  6
CONTINUOUS
 62
    7
 10
279.58814466321792
 20
182.85946407833615
 11
280.52561991923568
 21
181.92198882231841
  0
LINE
  8
_1-0_
  6
CONTINUOUS
 62
    7
 10
280.43666530299834
 20
182.85946407833615
 11
280.52561991923568
 21
182.77050946209883
  0
LINE
  8
_1-3_
  6
CONTINUOUS
 62
    7
 10
369.26013843433282
 20
230.05945154138516
 11
369.26013843433282
 21
170.05946391337628
  0
LINE
  8
_1-3_
  6
CONTINUOUS
 62
    7
 10
306.51466988228464
 20
230.05945154138516
 11
369.26013843433282
 21
230.05945154138516
  0
LINE
  8
_1-3_
  6
CONTINUOUS
 62
    7
 10
306.51466988228464
 20
170.05946391337628
 11
369.26013843433282
 21
170.05946391337628
  0
LINE
  8
_1-3_
  6
CONTINUOUS
 62
    7
 10
351.08108108108109
 20
170.05946391337628
 11
351.08108108108109
 21
200.3423123746305
  0
LINE
  8
_1-3_
  6
CONTINUOUS
 62
    7
 10
306.51466988228464
 20
170.05946391337628
 11
351.08108108108109
 21
170.05946391337628
  0
LINE
  8
_1-3_
  6
CONTINUOUS
 62
    7
 10
306.51466988228464
 20
200.3423123746305
 11
351.08108108108109
 21
200.3423123746305
  0
LINE
  8
_1-3_
  6
CONTINUOUS
 62
    7
 10
306.51466988228464
 20
182.85946407833615
 11
337.69329998944261
 21
182.85946407833615
  0
LINE
  8
_1-3_
  6
CONTINUOUS
 62
    7
 10
255.3405266839105
 20
133.7837837837838
 11
295.34053493190459
 21
133.7837837837838
  0
LINE
  8
_1-3_
  6
CONTINUOUS
 62
    7
 10
255.3405266839105
 20
145.94594594594597
 11
255.3405266839105
 21
133.7837837837838
  0
LINE
  8
_1-3_
  6
CONTINUOUS
 62
    7
 10
295.34053493190459
 20
145.94594594594597
 11
295.34053493190459
 21
133.7837837837838
  0
LINE
  8
_1-3_
  6
CONTINUOUS
 62
    7
 10
317.83783783783787
 20
230.05945154138516
 11
315.88551289326438
 21
226.67793892525339
  0
LINE
  8
_1-3_
  6
CONTINUOUS
 62
    7
 10
317.83783783783787
 20
230.05945154138516
 11
319.79016278241136
 21
226.67793892525339
  0
LINE
  8
_1-3_
  6
CONTINUOUS
 62
    7
 10
255.3405266839105
 20
120
 11
258.27825597814615
 21
121.69610100823481
  0
LINE
  8
_1-3_
  6
CONTINUOUS
 62
    7
 10
255.3405266839105
 20
120
 11
258.27825597814615
 21
118.30389899176521
  0
LINE
  8
_1-3_
  6
CONTINUOUS
 62
    7
 10
255.3405266839105
 20
133.7837837837838
 11
255.3405266839105
 21
120
  0
LINE
  8
_1-3_
  6
CONTINUOUS
 62
    7
 10
307.83782958984375
 20
120
 11
255.3405266839105
 21
120
  0
LINE
  8
_1-3_
  6
CONTINUOUS
 62
    7
 10
317.83783783783787
 20
129.99999587600297
 11
317.83783783783787
 21
230.05945154138516
  0
LINE
  8
_1-3_
  6
CONTINUOUS
 62
    7
 10
317.83783783783787
 20
134.59459459459461
 11
325.13513513513516
 21
138.64864864864865
  0
LINE
  8
_1-3_
  6
CONTINUOUS
 62
    7
 10
317.83783783783787
 20
134.59459459459461
 11
333.24324324324328
 21
134.59459459459461
  0
LINE
  8
_1-3_
  6
CONTINUOUS
 62
    7
 10
289.22154606999578
 20
220.38245123785896
 11
279.2923303552576
 21
247.66274117134714
  0
LINE
  8
_1-3_
  6
CONTINUOUS
 62
    7
 10
285.83743533572635
 20
182.85946407833615
 11
268.31025819520693
 21
231.01498990445526
  0
LINE
  8
_1-3_
  6
CONTINUOUS
 62
    7
 10
277.92581919077281
 20
180.16324842298354
 11
264.35953501108531
 21
217.43633373363599
  0
LINE
  8
_1-3_
  6
CONTINUOUS
 62
    7
 10
279.26780906883448
 20
170.3423123746305
 11
264.91389918971709
 21
209.77935791015625
  0
LINE
  8
_1-3_
  6
CONTINUOUS
 62
    7
 10
279.2923303552576
 20
247.66274117134714
 11
275.29234190244932
 21
247.66274117134714
  0
LINE
  8
_1-3_
  6
CONTINUOUS
 62
    7
 10
268.31025819520693
 20
231.01498990445526
 11
264.31026974239865
 21
231.01498990445526
  0
LINE
  8
_1-3_
  6
CONTINUOUS
 62
    7
 10
264.35953501108531
 20
217.43633373363599
 11
260.35954655827703
 21
217.43633373363599
  0
LINE
  8
_1-3_
  6
CONTINUOUS
 62
    7
 10
264.91389918971709
 20
209.77935791015625
 11
260.9139107369088
 21
209.77935791015625
  0
LINE
  8
_1-3_
  6
CONTINUOUS
 62
    7
 10
46.084726694467918
 20
165.85945747994089
 11
295.34053493190459
 21
165.85945747994089
  0
LINE
  8
_1-3_
  6
CONTINUOUS
 62
    7
 10
46.084726694467918
 20
145.85945335594386
 11
295.34053493190459
 21
145.85945335594386
  0
LINE
  8
_1-0_
  6
CONTINUOUS
 62
    7
 10
295.34053493190459
 20
94.86486486486487
 11
295.34053493190459
 21
152.00275318042654
  0
LINE
  8
_1-0_
  6
CONTINUOUS
 62
    7
 10
295.34053493190459
 20
152.00275318042654
 11
295.34053493190459
 21
248.27681257918076
  0
LINE
  8
_1-3_
  6
CONTINUOUS
 62
    3
 10
294.94049897065037
 20
161.85945665514149
 11
295.34051018792229
 21
161.85945665514149
  0
LINE
  8
_1-3_
  6
CONTINUOUS
 62
    3
 10
295.34051018792229
 20
149.85945418074326
 11
294.94049897065037
 21
149.85945418074326
  0
LINE
  8
_1-3_
  6
CONTINUOUS
 62
    3
 10
293.94049567145271
 20
165.45945863466005
 11
286.74054120038011
 21
165.45945863466005
  0
LINE
  8
_1-3_
  6
CONTINUOUS
 62
    3
 10
294.94049897065037
 20
164.45945533546242
 11
294.94049897065037
 21
161.85945665514149
  0
LINE
  8
_1-3_
  6
CONTINUOUS
 62
    3
 10
295.34051018792229
 20
164.85945418074326
 11
295.34051018792229
 21
161.85945665514149
  0
LINE
  8
_1-3_
  6
CONTINUOUS
 62
    3
 10
294.34050688872469
 20
165.85945747994089
 11
286.34052998310813
 21
165.85945747994089
  0
LINE
  8
_1-3_
  6
CONTINUOUS
 62
    3
 10
294.94049897065037
 20
147.25945550042232
 11
294.94049897065037
 21
149.85945418074326
  0
LINE
  8
_1-3_
  6
CONTINUOUS
 62
    3
 10
295.34051018792229
 20
146.85945665514149
 11
295.34051018792229
 21
149.85945418074326
  0
LINE
  8
_1-3_
  6
CONTINUOUS
 62
    3
 10
286.74054120038011
 20
146.25945220122466
 11
293.94049567145271
 21
146.25945220122466
  0
LINE
  8
_1-3_
  6
CONTINUOUS
 62
    3
 10
285.74053790118245
 20
147.25945550042232
 11
285.74053790118245
 21
164.45945533546242
  0
LINE
  8
_1-3_
  6
CONTINUOUS
 62
    3
 10
285.34052668391047
 20
146.85945665514149
 11
285.34052668391047
 21
164.85945418074326
  0
LINE
  8
_1-3_
  6
CONTINUOUS
 62
    3
 10
286.34052998310813
 20
145.85946572793497
 11
294.34050688872469
 21
145.85946572793497
  0
LINE
  8
ADD_LINE
  6
DOT
 62
    3
 10
286.34052998310813
 20
165.85945747994089
 11
284.94227228937922
 21
165.85945747994089
  0
LINE
  8
ADD_LINE
  6
DOT
 62
    3
 10
285.34052668391047
 20
164.85945418074326
 11
285.34052668391047
 21
166.37070526947846
  0
LINE
  8
ADD_LINE
  6
DOT
 62
    3
 10
286.34052998310813
 20
145.85946572793497
 11
284.44123139252537
 21
145.85946572793497
  0
LINE
  8
ADD_LINE
  6
DOT
 62
    3
 10
285.34052668391047
 20
146.85945665514149
 11
285.34052668391047
 21
145.42776984137458
  0
LINE
  8
_1-3_
  6
CONTINUOUS
 62
    3
 10
114.94051134264147
 20
161.85945665514149
 11
115.34052255991344
 21
161.85945665514149
  0
LINE
  8
_1-3_
  6
CONTINUOUS
 62
    3
 10
115.34052255991344
 20
149.85945418074326
 11
114.94051134264147
 21
149.85945418074326
  0
LINE
  8
_1-3_
  6
CONTINUOUS
 62
    3
 10
113.94050804344384
 20
165.45945863466005
 11
106.74055357237121
 21
165.45945863466005
  0
LINE
  8
_1-3_
  6
CONTINUOUS
 62
    3
 10
114.94051134264147
 20
164.45945533546242
 11
114.94051134264147
 21
161.85945665514149
  0
LINE
  8
_1-3_
  6
CONTINUOUS
 62
    3
 10
115.34052255991344
 20
164.85945418074326
 11
115.34052255991344
 21
161.85945665514149
  0
LINE
  8
_1-3_
  6
CONTINUOUS
 62
    3
 10
114.34051926071579
 20
165.85945747994089
 11
106.34054235509925
 21
165.85945747994089
  0
LINE
  8
_1-3_
  6
CONTINUOUS
 62
    3
 10
114.94051134264147
 20
147.25945550042232
 11
114.94051134264147
 21
149.85945418074326
  0
LINE
  8
_1-3_
  6
CONTINUOUS
 62
    3
 10
115.34052255991344
 20
146.85945665514149
 11
115.34052255991344
 21
149.85945418074326
  0
LINE
  8
_1-3_
  6
CONTINUOUS
 62
    3
 10
106.74055357237121
 20
146.25945220122466
 11
113.94050804344384
 21
146.25945220122466
  0
LINE
  8
_1-3_
  6
CONTINUOUS
 62
    3
 10
105.74055027317357
 20
147.25945550042232
 11
105.74055027317357
 21
164.45945533546242
  0
LINE
  8
_1-3_
  6
CONTINUOUS
 62
    3
 10
105.34053905590162
 20
146.85945665514149
 11
105.34053905590162
 21
164.85945418074326
  0
LINE
  8
_1-3_
  6
CONTINUOUS
 62
    3
 10
106.34054235509925
 20
145.85946572793497
 11
114.34051926071579
 21
145.85946572793497
  0
LINE
  8
ADD_LINE
  6
DOT
 62
    3
 10
106.34054235509925
 20
165.85945747994089
 11
104.94228466137037
 21
165.85945747994089
  0
LINE
  8
ADD_LINE
  6
DOT
 62
    3
 10
105.34053905590162
 20
164.85945418074326
 11
105.34053905590162
 21
166.37070526947846
  0
LINE
  8
ADD_LINE
  6
DOT
 62
    3
 10
106.34054235509925
 20
145.85946572793497
 11
104.44124376451647
 21
145.85946572793497
  0
LINE
  8
ADD_LINE
  6
DOT
 62
    3
 10
105.34053905590162
 20
146.85945665514149
 11
105.34053905590162
 21
145.42776984137458
  0
LINE
  8
ADD_LINE
  6
DOT
 62
    7
 10
46.084726694467918
 20
169.45945945945948
 11
46.084726694467918
 21
165.85945747994089
  0
LINE
  8
_1-3_
  6
CONTINUOUS
 62
    7
 10
46.084726694467918
 20
166.04725193332982
 11
46.27252114785685
 21
165.85945747994089
  0
LINE
  8
_1-3_
  6
CONTINUOUS
 62
    7
 10
46.084726694467918
 20
168.87567468591641
 11
49.100937714447866
 21
165.85945747994089
  0
LINE
  8
_1-3_
  6
CONTINUOUS
 62
    7
 10
48.329377045502554
 20
169.45945945945948
 11
51.929360467034428
 21
165.85945747994089
  0
LINE
  8
_1-3_
  6
CONTINUOUS
 62
    7
 10
51.157787426097968
 20
169.45945945945948
 11
54.757777033625416
 21
165.85945747994089
  0
LINE
  8
_1-3_
  6
CONTINUOUS
 62
    7
 10
53.986197806693411
 20
169.45945945945948
 11
57.586193600216433
 21
165.85945747994089
  0
LINE
  8
_1-3_
  6
CONTINUOUS
 62
    7
 10
56.81463293127112
 20
169.45945945945948
 11
60.414622538798568
 21
165.85945747994089
  0
LINE
  8
_1-3_
  6
CONTINUOUS
 62
    7
 10
59.643043311866563
 20
169.45945945945948
 11
63.243039105389585
 21
165.85945747994089
  0
LINE
  8
_1-3_
  6
CONTINUOUS
 62
    7
 10
62.47142894847974
 20
169.45945945945948
 11
66.071449485984999
 21
165.85945747994089
  0
LINE
  8
_1-3_
  6
CONTINUOUS
 62
    7
 10
65.299888817039687
 20
169.45945945945948
 11
68.899872238571589
 21
165.85945747994089
  0
LINE
  8
_1-3_
  6
CONTINUOUS
 62
    7
 10
68.128274453652864
 20
169.45945945945948
 11
71.728288805162606
 21
165.85945747994089
  0
LINE
  8
_1-3_
  6
CONTINUOUS
 62
    7
 10
70.956709578230573
 20
169.45945945945948
 11
74.556705371753594
 21
165.85945747994089
  0
LINE
  8
_1-3_
  6
CONTINUOUS
 62
    7
 10
73.785119958826016
 20
169.45945945945948
 11
77.385134310335729
 21
165.85945747994089
  0
LINE
  8
_1-3_
  6
CONTINUOUS
 62
    7
 10
76.613530339421459
 20
169.45945945945948
 11
80.213544690931172
 21
165.85945747994089
  0
LINE
  8
_1-3_
  6
CONTINUOUS
 62
    7
 10
79.441940720016902
 20
169.45945945945948
 11
83.041961257522175
 21
165.85945747994089
  0
LINE
  8
_1-3_
  6
CONTINUOUS
 62
    7
 10
82.270400588576862
 20
169.45945945945948
 11
85.87039019610431
 21
165.85945747994089
  0
LINE
  8
_1-3_
  6
CONTINUOUS
 62
    7
 10
85.09878622519004
 20
169.45945945945948
 11
88.698800576699753
 21
165.85945747994089
  0
LINE
  8
_1-3_
  6
CONTINUOUS
 62
    7
 10
87.927221349767748
 20
169.45945945945948
 11
91.527217143290756
 21
165.85945747994089
  0
LINE
  8
_1-3_
  6
CONTINUOUS
 62
    7
 10
90.75564410235431
 20
169.45945945945948
 11
94.355646081872891
 21
165.85945747994089
  0
LINE
  8
_1-3_
  6
CONTINUOUS
 62
    7
 10
93.584066854940886
 20
169.45945945945948
 11
97.184062648463893
 21
165.85945747994089
  0
LINE
  8
_1-3_
  6
CONTINUOUS
 62
    7
 10
96.412477235536329
 20
169.45945945945948
 11
100.01247302905934
 21
165.85945747994089
  0
LINE
  8
_1-3_
  6
CONTINUOUS
 62
    7
 10
99.240899988122891
 20
169.45945945945948
 11
102.84090196764147
 21
165.85945747994089
  0
LINE
  8
_1-3_
  6
CONTINUOUS
 62
    7
 10
102.06931036871833
 20
169.45945945945948
 11
105.66931234823691
 21
165.85945747994089
  0
LINE
  8
_1-3_
  6
CONTINUOUS
 62
    7
 10
104.89773312130491
 20
169.45945945945948
 11
108.49773510082349
 21
165.85945747994089
  0
LINE
  8
_1-3_
  6
CONTINUOUS
 62
    7
 10
107.72614350190034
 20
169.45945945945948
 11
111.32614548141892
 21
165.85945747994089
  0
LINE
  8
_1-3_
  6
CONTINUOUS
 62
    7
 10
110.55456625448691
 20
169.45945945945948
 11
114.15458060599663
 21
165.85945747994089
  0
LINE
  8
_1-3_
  6
CONTINUOUS
 62
    7
 10
113.38297663508236
 20
169.45945945945948
 11
116.98299098659207
 21
165.85945747994089
  0
LINE
  8
_1-3_
  6
CONTINUOUS
 62
    7
 10
116.21141175966005
 20
169.45945945945948
 11
119.81141373917863
 21
165.85945747994089
  0
LINE
  8
_1-3_
  6
CONTINUOUS
 62
    7
 10
119.03983451224663
 20
169.45945945945948
 11
122.63983649176521
 21
165.85945747994089
  0
LINE
  8
_1-3_
  6
CONTINUOUS
 62
    7
 10
121.86824489284207
 20
169.45945945945948
 11
125.46824687236065
 21
165.85945747994089
  0
LINE
  8
_1-3_
  6
CONTINUOUS
 62
    7
 10
124.6966552734375
 20
169.45945945945948
 11
128.29666962494721
 21
165.85945747994089
  0
LINE
  8
_1-3_
  6
CONTINUOUS
 62
    7
 10
127.52509039801521
 20
169.45945945945948
 11
131.12510474952492
 21
165.85945747994089
  0
LINE
  8
_1-3_
  6
CONTINUOUS
 62
    7
 10
130.35352552259292
 20
169.45945945945948
 11
133.95352750211148
 21
165.85945747994089
  0
LINE
  8
_1-3_
  6
CONTINUOUS
 62
    7
 10
133.18198539115289
 20
169.45945945945948
 11
136.78198737067146
 21
165.85945747994089
  0
LINE
  8
_1-3_
  6
CONTINUOUS
 62
    7
 10
136.01042051573057
 20
169.45945945945948
 11
139.61042249524917
 21
165.85945747994089
  0
LINE
  8
_1-3_
  6
CONTINUOUS
 62
    7
 10
138.83884326831716
 20
169.45945945945948
 11
142.43885761982688
 21
165.85945747994089
  0
LINE
  8
_1-3_
  6
CONTINUOUS
 62
    7
 10
141.66727839289484
 20
169.45945945945948
 11
145.26729274440456
 21
165.85945747994089
  0
LINE
  8
_1-3_
  6
CONTINUOUS
 62
    7
 10
144.4957258894637
 20
169.45945945945948
 11
148.09572786898227
 21
165.85945747994089
  0
LINE
  8
_1-3_
  6
CONTINUOUS
 62
    7
 10
147.32416101404138
 20
169.45945945945948
 11
150.92416299355997
 21
165.85945747994089
  0
LINE
  8
_1-3_
  6
CONTINUOUS
 62
    7
 10
150.15258376662797
 20
169.45945945945948
 11
153.75258574614654
 21
165.85945747994089
  0
LINE
  8
_1-3_
  6
CONTINUOUS
 62
    7
 10
152.9810312631968
 20
169.45945945945948
 11
156.58102087072425
 21
165.85945747994089
  0
LINE
  8
_1-3_
  6
CONTINUOUS
 62
    7
 10
155.80947875976562
 20
169.45945945945948
 11
159.40946836729307
 21
165.85945747994089
  0
LINE
  8
_1-3_
  6
CONTINUOUS
 62
    7
 10
158.63790151235222
 20
169.45945945945948
 11
162.23789111987966
 21
165.85945747994089
  0
LINE
  8
_1-3_
  6
CONTINUOUS
 62
    7
 10
161.4663366369299
 20
169.45945945945948
 11
165.06633861644849
 21
165.85945747994089
  0
LINE
  8
_1-3_
  6
CONTINUOUS
 62
    7
 10
164.29478413349875
 20
169.45945945945948
 11
167.8947737410262
 21
165.85945747994089
  0
LINE
  8
_1-3_
  6
CONTINUOUS
 62
    7
 10
167.12320688608531
 20
169.45945945945948
 11
170.72322123759503
 21
165.85945747994089
  0
LINE
  8
_1-3_
  6
CONTINUOUS
 62
    7
 10
169.95165438265414
 20
169.45945945945948
 11
173.55165636217274
 21
165.85945747994089
  0
LINE
  8
_1-3_
  6
CONTINUOUS
 62
    7
 10
172.78007713524073
 20
169.45945945945948
 11
176.38009148675044
 21
165.85945747994089
  0
LINE
  8
_1-3_
  6
CONTINUOUS
 62
    7
 10
175.60852463180956
 20
169.45945945945948
 11
179.20852661132812
 21
165.85945747994089
  0
LINE
  8
_1-3_
  6
CONTINUOUS
 62
    7
 10
178.43695975638727
 20
169.45945945945948
 11
182.03694936391472
 21
165.85945747994089
  0
LINE
  8
_1-3_
  6
CONTINUOUS
 62
    7
 10
181.26539488096495
 20
169.45945945945948
 11
184.8653844884924
 21
165.85945747994089
  0
LINE
  8
_1-3_
  6
CONTINUOUS
 62
    7
 10
184.09383000554266
 20
169.45945945945948
 11
187.6938196130701
 21
165.85945747994089
  0
LINE
  8
_1-3_
  6
CONTINUOUS
 62
    7
 10
186.92227750211148
 20
169.45945945945948
 11
190.52226710963896
 21
165.85945747994089
  0
LINE
  8
_1-3_
  6
CONTINUOUS
 62
    7
 10
189.75070025469807
 20
169.45945945945948
 11
193.35070223421664
 21
165.85945747994089
  0
LINE
  8
_1-3_
  6
CONTINUOUS
 62
    7
 10
192.5791477512669
 20
169.45945945945948
 11
196.17913735879435
 21
165.85945747994089
  0
LINE
  8
_1-3_
  6
CONTINUOUS
 62
    7
 10
195.40758287584461
 20
169.45945945945948
 11
199.00757248337206
 21
165.85945747994089
  0
LINE
  8
_1-3_
  6
CONTINUOUS
 62
    7
 10
198.23601800042232
 20
169.45945945945948
 11
201.83601997994089
 21
165.85945747994089
  0
LINE
  8
_1-3_
  6
CONTINUOUS
 62
    7
 10
201.064453125
 20
169.45945945945948
 11
204.66445510451859
 21
165.85945747994089
  0
LINE
  8
_1-3_
  6
CONTINUOUS
 62
    7
 10
203.89288824957771
 20
169.45945945945948
 11
207.4928902290963
 21
165.85945747994089
  0
LINE
  8
_1-3_
  6
CONTINUOUS
 62
    7
 10
206.72133574614654
 20
169.45945945945948
 11
210.32132535367398
 21
165.85945747994089
  0
LINE
  8
_1-3_
  6
CONTINUOUS
 62
    7
 10
209.54975849873313
 20
169.45945945945948
 11
213.14976047825169
 21
165.85945747994089
  0
LINE
  8
_1-3_
  6
CONTINUOUS
 62
    7
 10
212.37819362331084
 20
169.45945945945948
 11
215.9781956028294
 21
165.85945747994089
  0
LINE
  8
_1-3_
  6
CONTINUOUS
 62
    7
 10
215.20662874788852
 20
169.45945945945948
 11
218.80663072740711
 21
165.85945747994089
  0
LINE
  8
_1-3_
  6
CONTINUOUS
 62
    7
 10
218.03506387246622
 20
169.45945945945948
 11
221.63506585198482
 21
165.85945747994089
  0
LINE
  8
_1-3_
  6
CONTINUOUS
 62
    7
 10
220.86349899704393
 20
169.45945945945948
 11
224.4635009765625
 21
165.85945747994089
  0
LINE
  8
_1-3_
  6
CONTINUOUS
 62
    7
 10
223.69193412162164
 20
169.45945945945948
 11
227.29193610114021
 21
165.85945747994089
  0
LINE
  8
_1-3_
  6
CONTINUOUS
 62
    7
 10
226.52036924619932
 20
169.45945945945948
 11
230.12037122571792
 21
165.85945747994089
  0
LINE
  8
_1-3_
  6
CONTINUOUS
 62
    7
 10
229.34880437077703
 20
169.45945945945948
 11
232.94880635029563
 21
165.85945747994089
  0
LINE
  8
_1-3_
  6
CONTINUOUS
 62
    7
 10
232.17723949535474
 20
169.45945945945948
 11
235.77724147487334
 21
165.85945747994089
  0
LINE
  8
_1-3_
  6
CONTINUOUS
 62
    7
 10
235.00567461993245
 20
169.45945945945948
 11
238.60567659945102
 21
165.85945747994089
  0
LINE
  8
_1-3_
  6
CONTINUOUS
 62
    7
 10
237.83410974451016
 20
169.45945945945948
 11
241.43411172402872
 21
165.85945747994089
  0
LINE
  8
_1-3_
  6
CONTINUOUS
 62
    7
 10
240.66254486908784
 20
169.45945945945948
 11
244.26254684860643
 21
165.85945747994089
  0
LINE
  8
_1-3_
  6
CONTINUOUS
 62
    7
 10
243.49100473764781
 20
169.45945945945948
 11
247.09098197318414
 21
165.85945747994089
  0
LINE
  8
_1-3_
  6
CONTINUOUS
 62
    7
 10
246.31943986222552
 20
169.45945945945948
 11
249.91946658572635
 21
165.85945747994089
  0
LINE
  8
_1-3_
  6
CONTINUOUS
 62
    7
 10
249.14787498680323
 20
169.45945945945948
 11
252.7478769663218
 21
165.85945747994089
  0
LINE
  8
_1-3_
  6
CONTINUOUS
 62
    7
 10
251.97631011138094
 20
169.45945945945948
 11
255.57631209089951
 21
165.85945747994089
  0
LINE
  8
_1-3_
  6
CONTINUOUS
 62
    7
 10
254.80474523595862
 20
169.45945945945948
 11
258.40477195945948
 21
165.85945747994089
  0
LINE
  8
_1-3_
  6
CONTINUOUS
 62
    7
 10
257.63318036053636
 20
169.45945945945948
 11
261.2331823400549
 21
165.85945747994089
  0
LINE
  8
_1-3_
  6
CONTINUOUS
 62
    7
 10
260.46161548511401
 20
169.45945945945948
 11
264.0616174646326
 21
165.85945747994089
  0
LINE
  8
_1-3_
  6
CONTINUOUS
 62
    7
 10
263.29007535367401
 20
169.45945945945948
 11
266.89007733319261
 21
165.85945747994089
  0
LINE
  8
_1-3_
  6
CONTINUOUS
 62
    7
 10
266.11848573426943
 20
169.45945945945948
 11
269.71848771378802
 21
165.85945747994089
  0
LINE
  8
_1-3_
  6
CONTINUOUS
 62
    7
 10
268.94694560282943
 20
169.45945945945948
 11
272.54692283836573
 21
165.85945747994089
  0
LINE
  8
_1-3_
  6
CONTINUOUS
 62
    7
 10
271.77535598342484
 20
169.45945945945948
 11
275.37535796294344
 21
165.85945747994089
  0
LINE
  8
_1-3_
  6
CONTINUOUS
 62
    7
 10
274.60381585198479
 20
169.45945945945948
 11
278.20381783150339
 21
165.85945747994089
  0
LINE
  8
_1-3_
  6
CONTINUOUS
 62
    7
 10
277.43222623258026
 20
169.45945945945948
 11
281.03222821209886
 21
165.85945747994089
  0
LINE
  8
_1-3_
  6
CONTINUOUS
 62
    7
 10
280.26066135715797
 20
169.45945945945948
 11
283.86066333667651
 21
165.85945747994089
  0
LINE
  8
_1-3_
  6
CONTINUOUS
 62
    7
 10
283.08912122571792
 20
169.45945945945948
 11
286.68912320523651
 21
165.85945747994089
  0
LINE
  8
_1-3_
  6
CONTINUOUS
 62
    7
 10
285.91753160631333
 20
169.45945945945948
 11
289.51753358583193
 21
165.85945747994089
  0
LINE
  8
_1-3_
  6
CONTINUOUS
 62
    7
 10
288.74599147487334
 20
169.45945945945948
 11
292.34599345439193
 21
165.85945747994089
  0
LINE
  8
_1-3_
  6
CONTINUOUS
 62
    7
 10
291.57440185546875
 20
169.45945945945948
 11
295.17442857896964
 21
165.85945747994089
  0
LINE
  8
_1-3_
  6
CONTINUOUS
 62
    7
 10
294.40286172402875
 20
169.45945945945948
 11
295.34053493190459
 21
168.5217738795925
  0
LINE
  8
_1-3_
  6
CONTINUOUS
 62
    7
 10
293.13866692620354
 20
165.85945747994089
 11
295.34053493190459
 21
168.0613254856419
  0
LINE
  8
_1-3_
  6
CONTINUOUS
 62
    7
 10
290.31023180162583
 20
165.85945747994089
 11
293.91023378114443
 21
169.45945945945948
  0
LINE
  8
_1-3_
  6
CONTINUOUS
 62
    7
 10
287.48179667704818
 20
165.85945747994089
 11
291.08182340054901
 21
169.45945945945948
  0
LINE
  8
_1-3_
  6
CONTINUOUS
 62
    7
 10
284.65336155247047
 20
165.85945747994089
 11
288.2533882759713
 21
169.45945945945948
  0
LINE
  8
_1-3_
  6
CONTINUOUS
 62
    7
 10
281.824951171875
 20
165.85945747994089
 11
285.42495315139359
 21
169.45945945945948
  0
LINE
  8
_1-3_
  6
CONTINUOUS
 62
    7
 10
278.99651604729729
 20
165.85945747994089
 11
282.59651802681589
 21
169.45945945945948
  0
LINE
  8
_1-3_
  6
CONTINUOUS
 62
    7
 10
276.16808092271958
 20
165.85945747994089
 11
279.76808290223818
 21
169.45945945945948
  0
LINE
  8
_1-3_
  6
CONTINUOUS
 62
    7
 10
273.33967054212417
 20
165.85945747994089
 11
276.93967252164276
 21
169.45945945945948
  0
LINE
  8
_1-3_
  6
CONTINUOUS
 62
    7
 10
270.51126016152875
 20
165.85945747994089
 11
274.11123739706505
 21
169.45945945945948
  0
LINE
  8
_1-3_
  6
CONTINUOUS
 62
    7
 10
267.68282503695104
 20
165.85945747994089
 11
271.28282701646958
 21
169.45945945945948
  0
LINE
  8
_1-3_
  6
CONTINUOUS
 62
    7
 10
264.85436516839104
 20
165.85945747994089
 11
268.45439189189193
 21
169.45945945945948
  0
LINE
  8
_1-3_
  6
CONTINUOUS
 62
    7
 10
262.02595478779563
 20
165.85945747994089
 11
265.62595676731422
 21
169.45945945945948
  0
LINE
  8
_1-3_
  6
CONTINUOUS
 62
    7
 10
259.19751966321792
 20
165.85945747994089
 11
262.79752164273651
 21
169.45945945945948
  0
LINE
  8
_1-3_
  6
CONTINUOUS
 62
    7
 10
256.36908453864021
 20
165.85945747994089
 11
259.9690865181588
 21
169.45945945945948
  0
LINE
  8
_1-3_
  6
CONTINUOUS
 62
    7
 10
253.54069890202703
 20
165.85945747994089
 11
257.14070088154563
 21
169.45945945945948
  0
LINE
  8
_1-3_
  6
CONTINUOUS
 62
    7
 10
250.71226377744935
 20
165.85945747994089
 11
254.31226575696792
 21
169.45945945945948
  0
LINE
  8
_1-3_
  6
CONTINUOUS
 62
    7
 10
247.88382865287164
 20
165.85945747994089
 11
251.48383063239021
 21
169.45945945945948
  0
LINE
  8
_1-3_
  6
CONTINUOUS
 62
    7
 10
245.05539352829393
 20
165.85945747994089
 11
248.6553955078125
 21
169.45945945945948
  0
LINE
  8
_1-3_
  6
CONTINUOUS
 62
    7
 10
242.22695840371622
 20
165.85945747994089
 11
245.82696038323482
 21
169.45945945945948
  0
LINE
  8
_1-3_
  6
CONTINUOUS
 62
    7
 10
239.39854802312078
 20
165.85945747994089
 11
242.99852525865711
 21
169.45945945945948
  0
LINE
  8
_1-3_
  6
CONTINUOUS
 62
    7
 10
236.5701128985431
 20
165.85945747994089
 11
240.17013962204393
 21
169.45945945945948
  0
LINE
  8
_1-3_
  6
CONTINUOUS
 62
    7
 10
233.74165302998313
 20
165.85945747994089
 11
237.34167975348396
 21
169.45945945945948
  0
LINE
  8
_1-3_
  6
CONTINUOUS
 62
    7
 10
230.91326739336995
 20
165.85945747994089
 11
234.51326937288852
 21
169.45945945945948
  0
LINE
  8
_1-3_
  6
CONTINUOUS
 62
    7
 10
228.08483226879224
 20
165.85945747994089
 11
231.68480950432857
 21
169.45945945945948
  0
LINE
  8
_1-3_
  6
CONTINUOUS
 62
    7
 10
225.25639714421453
 20
165.85945747994089
 11
228.85639912373313
 21
169.45945945945948
  0
LINE
  8
_1-3_
  6
CONTINUOUS
 62
    7
 10
222.42796201963682
 20
165.85945747994089
 11
226.02796399915542
 21
169.45945945945948
  0
LINE
  8
_1-3_
  6
CONTINUOUS
 62
    7
 10
219.59952689505914
 20
165.85945747994089
 11
223.19952887457771
 21
169.45945945945948
  0
LINE
  8
_1-3_
  6
CONTINUOUS
 62
    7
 10
216.7711165144637
 20
165.85945747994089
 11
220.37111849398227
 21
169.45945945945948
  0
LINE
  8
_1-3_
  6
CONTINUOUS
 62
    7
 10
213.94268138988599
 20
165.85945747994089
 11
217.54268336940459
 21
169.45945945945948
  0
LINE
  8
_1-3_
  6
CONTINUOUS
 62
    7
 10
211.11427100929055
 20
165.85945747994089
 11
214.71424824482688
 21
169.45945945945948
  0
LINE
  8
_1-3_
  6
CONTINUOUS
 62
    7
 10
208.28583588471284
 20
165.85945747994089
 11
211.88583786423143
 21
169.45945945945948
  0
LINE
  8
_1-3_
  6
CONTINUOUS
 62
    7
 10
205.45740076013516
 20
165.85945747994089
 11
209.05740273965372
 21
169.45945945945948
  0
LINE
  8
_1-3_
  6
CONTINUOUS
 62
    7
 10
202.62896563555745
 20
165.85945747994089
 11
206.22896761507602
 21
169.45945945945948
  0
LINE
  8
_1-3_
  6
CONTINUOUS
 62
    7
 10
199.80054288297086
 20
165.85945747994089
 11
203.40053249049834
 21
169.45945945945948
  0
LINE
  8
_1-3_
  6
CONTINUOUS
 62
    7
 10
196.97210775839318
 20
165.85945747994089
 11
200.57212210990289
 21
169.45945945945948
  0
LINE
  8
_1-3_
  6
CONTINUOUS
 62
    7
 10
194.14368500580659
 20
165.85945747994089
 11
197.74368698532518
 21
169.45945945945948
  0
LINE
  8
_1-3_
  6
CONTINUOUS
 62
    7
 10
191.31526225322003
 20
165.85945747994089
 11
194.91525186074747
 21
169.45945945945948
  0
LINE
  8
_1-3_
  6
CONTINUOUS
 62
    7
 10
188.48683950063347
 20
165.85945747994089
 11
192.08684148015203
 21
169.45945945945948
  0
LINE
  8
_1-3_
  6
CONTINUOUS
 62
    7
 10
185.65841674804687
 20
165.85945747994089
 11
189.2583939835832
 21
169.45945945945948
  0
LINE
  8
_1-3_
  6
CONTINUOUS
 62
    7
 10
182.82996925147805
 20
165.85945747994089
 11
186.42998360298776
 21
169.45945945945948
  0
LINE
  8
_1-3_
  6
CONTINUOUS
 62
    7
 10
180.00154649889149
 20
165.85945747994089
 11
183.6015608504012
 21
169.45945945945948
  0
LINE
  8
_1-3_
  6
CONTINUOUS
 62
    7
 10
177.1731237463049
 20
165.85945747994089
 11
180.77312572582349
 21
169.45945945945948
  0
LINE
  8
_1-3_
  6
CONTINUOUS
 62
    7
 10
174.34470099371833
 20
165.85945747994089
 11
177.94470297323693
 21
169.45945945945948
  0
LINE
  8
_1-3_
  6
CONTINUOUS
 62
    7
 10
171.51627824113177
 20
165.85945747994089
 11
175.11628022065034
 21
169.45945945945948
  0
LINE
  8
_1-3_
  6
CONTINUOUS
 62
    7
 10
168.68784311655406
 20
165.85945747994089
 11
172.28784509607266
 21
169.45945945945948
  0
LINE
  8
_1-3_
  6
CONTINUOUS
 62
    7
 10
165.85940799197635
 20
165.85945747994089
 11
169.45940997149495
 21
169.45945945945948
  0
LINE
  8
_1-3_
  6
CONTINUOUS
 62
    7
 10
163.03099761138091
 20
165.85945747994089
 11
166.63101196289062
 21
169.45945945945948
  0
LINE
  8
_1-3_
  6
CONTINUOUS
 62
    7
 10
160.20257485879435
 20
165.85945747994089
 11
163.8025644663218
 21
169.45945945945948
  0
LINE
  8
_1-3_
  6
CONTINUOUS
 62
    7
 10
157.37415210620779
 20
165.85945747994089
 11
160.97414171373524
 21
169.45945945945948
  0
LINE
  8
_1-3_
  6
CONTINUOUS
 62
    7
 10
154.54571698163008
 20
165.85945747994089
 11
158.14570658915753
 21
169.45945945945948
  0
LINE
  8
_1-3_
  6
CONTINUOUS
 62
    7
 10
151.71728185705237
 20
165.85945747994089
 11
155.31728383657097
 21
169.45945945945948
  0
LINE
  8
_1-3_
  6
CONTINUOUS
 62
    7
 10
148.88884673247466
 20
165.85945747994089
 11
152.48886108398437
 21
169.45945945945948
  0
LINE
  8
_1-3_
  6
CONTINUOUS
 62
    7
 10
146.06043635187922
 20
165.85945747994089
 11
149.66043833139781
 21
169.45945945945948
  0
LINE
  8
_1-3_
  6
CONTINUOUS
 62
    7
 10
143.23200122730154
 20
165.85945747994089
 11
146.83201557881125
 21
169.45945945945948
  0
LINE
  8
_1-3_
  6
CONTINUOUS
 62
    7
 10
140.40357847471495
 20
165.85945747994089
 11
144.00359282622466
 21
169.45945945945948
  0
LINE
  8
_1-3_
  6
CONTINUOUS
 62
    7
 10
137.57515572212839
 20
165.85945747994089
 11
141.1751700736381
 21
169.45945945945948
  0
LINE
  8
_1-3_
  6
CONTINUOUS
 62
    7
 10
134.74672059755068
 20
165.85945747994089
 11
138.34672257706927
 21
169.45945945945948
  0
LINE
  8
_1-3_
  6
CONTINUOUS
 62
    7
 10
131.91828547297297
 20
165.85945747994089
 11
135.51828745249156
 21
169.45945945945948
  0
LINE
  8
_1-3_
  6
CONTINUOUS
 62
    7
 10
129.08987509237755
 20
165.85945747994089
 11
132.68987707189612
 21
169.45945945945948
  0
LINE
  8
_1-3_
  6
CONTINUOUS
 62
    7
 10
126.26143996779984
 20
165.85945747994089
 11
129.86144194731841
 21
169.45945945945948
  0
LINE
  8
_1-3_
  6
CONTINUOUS
 62
    7
 10
123.43300484322214
 20
165.85945747994089
 11
127.03300682274072
 21
169.45945945945948
  0
LINE
  8
_1-3_
  6
CONTINUOUS
 62
    7
 10
120.60459446262669
 20
165.85945747994089
 11
124.20460881413641
 21
169.45945945945948
  0
LINE
  8
_1-3_
  6
CONTINUOUS
 62
    7
 10
117.776159338049
 20
165.85945747994089
 11
121.37616131756758
 21
169.45945945945948
  0
LINE
  8
_1-3_
  6
CONTINUOUS
 62
    7
 10
114.94772421347129
 20
165.85945747994089
 11
118.54771382099874
 21
169.45945945945948
  0
LINE
  8
_1-3_
  6
CONTINUOUS
 62
    7
 10
112.11931383287585
 20
165.85945747994089
 11
115.71930344040329
 21
169.45945945945948
  0
LINE
  8
_1-3_
  6
CONTINUOUS
 62
    7
 10
109.29087870829815
 20
165.85945747994089
 11
112.8908683158256
 21
169.45945945945948
  0
LINE
  8
_1-3_
  6
CONTINUOUS
 62
    7
 10
106.46244358372044
 20
165.85945747994089
 11
110.06244556323902
 21
169.45945945945948
  0
LINE
  8
_1-3_
  6
CONTINUOUS
 62
    7
 10
103.63402083113387
 20
165.85945747994089
 11
107.23402281065246
 21
169.45945945945948
  0
LINE
  8
_1-3_
  6
CONTINUOUS
 62
    7
 10
100.80559189255173
 20
165.85945747994089
 11
104.40560005806589
 21
169.45945945945948
  0
LINE
  8
_1-3_
  6
CONTINUOUS
 62
    7
 10
97.977162953969597
 20
165.85945747994089
 11
101.57716493348818
 21
169.45945945945948
  0
LINE
  8
_1-3_
  6
CONTINUOUS
 62
    7
 10
95.148727829391902
 20
165.85945747994089
 11
98.748729808910483
 21
169.45945945945948
  0
LINE
  8
_1-3_
  6
CONTINUOUS
 62
    7
 10
92.320305076805326
 20
165.85945747994089
 11
95.920294684332774
 21
169.45945945945948
  0
LINE
  8
_1-3_
  6
CONTINUOUS
 62
    7
 10
89.49188232421875
 20
165.85945747994089
 11
93.091896675728464
 21
169.45945945945948
  0
LINE
  8
_1-3_
  6
CONTINUOUS
 62
    7
 10
86.663459571632188
 20
165.85945747994089
 11
90.263449179159636
 21
169.45945945945948
  0
LINE
  8
_1-3_
  6
CONTINUOUS
 62
    7
 10
83.835036819045612
 20
165.85945747994089
 11
87.435038798564193
 21
169.45945945945948
  0
LINE
  8
_1-3_
  6
CONTINUOUS
 62
    7
 10
81.006601694467918
 20
165.85945747994089
 11
84.606603673986484
 21
169.45945945945948
  0
LINE
  8
_1-3_
  6
CONTINUOUS
 62
    7
 10
78.178166569890209
 20
165.85945747994089
 11
81.778168549408804
 21
169.45945945945948
  0
LINE
  8
_1-3_
  6
CONTINUOUS
 62
    7
 10
75.349743817303647
 20
165.85945747994089
 11
78.949733424831095
 21
169.45945945945948
  0
LINE
  8
_1-3_
  6
CONTINUOUS
 62
    7
 10
72.521321064717085
 20
165.85945747994089
 11
76.121323044235652
 21
169.45945945945948
  0
LINE
  8
_1-3_
  6
CONTINUOUS
 62
    7
 10
69.692885940139377
 20
165.85945747994089
 11
73.292887919657943
 21
169.45945945945948
  0
LINE
  8
_1-3_
  6
CONTINUOUS
 62
    7
 10
66.86446937354836
 20
165.85945747994089
 11
70.4644775390625
 21
169.45945945945948
  0
LINE
  8
_1-3_
  6
CONTINUOUS
 62
    7
 10
64.036034248970651
 20
165.85945747994089
 11
67.636042414484791
 21
169.45945945945948
  0
LINE
  8
_1-3_
  6
CONTINUOUS
 62
    7
 10
61.207605310388516
 20
165.85945747994089
 11
64.807607289907082
 21
169.45945945945948
  0
LINE
  8
_1-3_
  6
CONTINUOUS
 62
    7
 10
58.379176371806381
 20
165.85945747994089
 11
61.979172165329402
 21
169.45945945945948
  0
LINE
  8
_1-3_
  6
CONTINUOUS
 62
    7
 10
55.550753619219819
 20
165.85945747994089
 11
59.150761784733959
 21
169.45945945945948
  0
LINE
  8
_1-3_
  6
CONTINUOUS
 62
    7
 10
52.722324680637655
 20
165.85945747994089
 11
56.32232666015625
 21
169.45945945945948
  0
LINE
  8
_1-3_
  6
CONTINUOUS
 62
    7
 10
49.893892649057761
 20
165.85945747994089
 11
53.493891535578541
 21
169.45945945945948
  0
LINE
  8
_1-3_
  6
CONTINUOUS
 62
    7
 10
47.065472989468958
 20
165.85945747994089
 11
50.665456411000832
 21
169.45945945945948
  0
LINE
  8
_1-3_
  6
CONTINUOUS
 62
    7
 10
46.084726694467918
 20
167.70714012352198
 11
47.837046030405418
 21
169.45945945945948
  0
LINE
  8
_0-0_
  6
CONTINUOUS
 62
    5
 10
412.43244892842063
 20
8.5135135135135158
 11
12.432428308435391
 21
8.5135135135135158
  0
LINE
  8
_1-0_
  6
CONTINUOUS
 62
    2
 10
293.92908869562922
 20
182.85946407833615
 11
293.92908869562922
 21
206.85945665514149
  0
LINE
  8
_1-0_
  6
CONTINUOUS
 62
    7
 10
290.91930492504224
 20
208.0938720703125
 11
294.79485589104729
 21
208.0938720703125
  0
LINE
  8
_1-0_
  6
CONTINUOUS
 62
    7
 10
294.79485589104729
 20
216.09387371991133
 11
294.79485589104729
 21
208.0938720703125
  0
LINE
  8
_1-0_
  6
CONTINUOUS
 62
    7
 10
290.91930492504224
 20
216.09387371991133
 11
294.79485589104729
 21
216.09387371991133
  0
LINE
  8
_1-0_
  6
CONTINUOUS
 62
    7
 10
294.79485589104729
 20
216.09387371991133
 11
290.91930492504224
 21
208.0938720703125
  0
LINE
  8
_1-3_
  6
CONTINUOUS
 62
    7
 10
337.69329998944261
 20
182.85946407833615
 11
306.51466988228464
 21
182.85946407833615
  0
LINE
  8
_1-3_
  6
CONTINUOUS
 62
    7
 10
337.69329998944261
 20
206.85945665514149
 11
306.51466988228464
 21
206.85945665514149
  0
LINE
  8
_1-3_
  6
CONTINUOUS
 62
    7
 10
337.69329998944261
 20
182.85946407833615
 11
337.69329998944261
 21
206.85945665514149
  0
LINE
  8
_1-3_
  6
CONTINUOUS
 62
    7
 10
337.69329998944261
 20
206.85945665514149
 11
337.69329998944261
 21
230.05945154138516
  0
LINE
  8
_1-3_
  6
CONTINUOUS
 62
    7
 10
337.69329998944261
 20
230.05945154138516
 11
335.74097504486912
 21
226.67793892525339
  0
LINE
  8
_1-3_
  6
CONTINUOUS
 62
    7
 10
337.69329998944261
 20
230.05945154138516
 11
339.64562493401604
 21
226.67793892525339
  0
LINE
  8
_1-3_
  6
CONTINUOUS
 62
    7
 10
337.69329998944261
 20
206.85945665514149
 11
335.74097504486912
 21
210.24098164326438
  0
LINE
  8
_1-3_
  6
CONTINUOUS
 62
    7
 10
337.69329998944261
 20
206.85945665514149
 11
339.64562493401604
 21
210.24098164326438
  0
LINE
  8
_1-3_
  6
CONTINUOUS
 62
    7
 10
347.2812219568201
 20
154.70938605231208
 11
351.31181871568839
 21
154.70938605231208
  0
LINE
  8
_1-3_
  6
CONTINUOUS
 62
    7
 10
337.69329998944261
 20
190.49202996331294
 11
347.2812219568201
 21
154.70938605231208
  0
LINE
  8
_1-3_
  6
CONTINUOUS
 62
    7
 10
337.37778947160052
 20
215.22350414379224
 11
329.61057920713682
 21
244.21112885346284
  0
LINE
  8
_1-3_
  6
CONTINUOUS
 62
    7
 10
329.61057920713682
 20
244.21112885346284
 11
327.27338636243667
 21
244.21112885346284
  0
ARC
  8
_1-1_
  6
CONTINUOUS
 62
    3
 10
54.386679159628386
 20
181.39254183382602
 40
4.1404008865356445
 50
201.73239135742187
 51
266.59201049804687
  0
ARC
  8
_1-1_
  6
CONTINUOUS
 62
    3
 10
97.935889991554063
 20
180.00581483583193
 40
2.7463450302948824
 50
270.09652709960937
 51
356.94560241699224
  0
ARC
  8
_1-1_
  6
CONTINUOUS
 62
    3
 10
115.58666332347974
 20
181.39254183382602
 40
4.1404008865356445
 50
201.73239135742187
 51
266.59201049804687
  0
ARC
  8
_1-1_
  6
CONTINUOUS
 62
    3
 10
159.13587415540542
 20
180.00581483583193
 40
2.7463450302948824
 50
270.09652709960937
 51
356.94560241699224
  0
ARC
  8
_1-1_
  6
CONTINUOUS
 62
    3
 10
176.78664748733109
 20
181.39254183382602
 40
4.1404008865356445
 50
201.73239135742187
 51
266.59201049804687
  0
ARC
  8
_1-1_
  6
CONTINUOUS
 62
    3
 10
220.33585831925677
 20
180.00581483583193
 40
2.7463450302948824
 50
270.09652709960937
 51
356.94560241699224
  0
ARC
  8
_1-1_
  6
CONTINUOUS
 62
    3
 10
237.98665639516472
 20
181.39254183382602
 40
4.1404008865356445
 50
201.73239135742187
 51
266.59201049804687
  0
ARC
  8
_1-1_
  6
CONTINUOUS
 62
    3
 10
281.53586722709036
 20
180.00581483583193
 40
2.7463450302948824
 50
270.09652709960937
 51
356.94560241699224
  0
ARC
  8
_1-3_
  6
CONTINUOUS
 62
    7
 10
307.83782958984375
 20
129.99999587600297
 40
9.9999997422501856
 50
270
 51
0
  0
ARC
  8
_1-3_
  6
CONTINUOUS
 62
    3
 10
286.34052998310813
 20
164.85945418074326
 40
0.9999999162313101
 50
90
 51
180
  0
ARC
  8
_1-3_
  6
CONTINUOUS
 62
    3
 10
286.74054120038011
 20
164.45945533546242
 40
0.9999999162313101
 50
90
 51
180
  0
ARC
  8
_1-3_
  6
CONTINUOUS
 62
    3
 10
293.94049567145271
 20
164.45945533546242
 40
0.9999999162313101
 50
0
 51
90
  0
ARC
  8
_1-3_
  6
CONTINUOUS
 62
    3
 10
294.34050688872469
 20
164.85945418074326
 40
0.9999999162313101
 50
0
 51
90
  0
ARC
  8
_1-3_
  6
CONTINUOUS
 62
    3
 10
293.94049567145271
 20
147.25945550042232
 40
0.9999999162313101
 50
270
 51
0
  0
ARC
  8
_1-3_
  6
CONTINUOUS
 62
    3
 10
294.34050688872469
 20
146.85945665514149
 40
0.9999999162313101
 50
270
 51
0
  0
ARC
  8
_1-3_
  6
CONTINUOUS
 62
    3
 10
286.74054120038011
 20
147.25945550042232
 40
0.9999999162313101
 50
180
 51
270
  0
ARC
  8
_1-3_
  6
CONTINUOUS
 62
    3
 10
286.34052998310813
 20
146.85945665514149
 40
0.9999999162313101
 50
180
 51
270
  0
ARC
  8
_1-3_
  6
CONTINUOUS
 62
    3
 10
106.34054235509925
 20
164.85945418074326
 40
0.9999999162313101
 50
90
 51
180
  0
ARC
  8
_1-3_
  6
CONTINUOUS
 62
    3
 10
106.74055357237121
 20
164.45945533546242
 40
0.9999999162313101
 50
90
 51
180
  0
ARC
  8
_1-3_
  6
CONTINUOUS
 62
    3
 10
113.94050804344384
 20
164.45945533546242
 40
0.9999999162313101
 50
0
 51
90
  0
ARC
  8
_1-3_
  6
CONTINUOUS
 62
    3
 10
114.34051926071579
 20
164.85945418074326
 40
0.9999999162313101
 50
0
 51
90
  0
ARC
  8
_1-3_
  6
CONTINUOUS
 62
    3
 10
113.94050804344384
 20
147.25945550042232
 40
0.9999999162313101
 50
270
 51
0
  0
ARC
  8
_1-3_
  6
CONTINUOUS
 62
    3
 10
114.34051926071579
 20
146.85945665514149
 40
0.9999999162313101
 50
270
 51
0
  0
ARC
  8
_1-3_
  6
CONTINUOUS
 62
    3
 10
106.74055357237121
 20
147.25945550042232
 40
0.9999999162313101
 50
180
 51
270
  0
ARC
  8
_1-3_
  6
CONTINUOUS
 62
    3
 10
106.34054235509925
 20
146.85945665514149
 40
0.9999999162313101
 50
180
 51
270
  0
TEXT
  8
_0-0_
 62
    7
 10
147.56756962956609
 20
22.702702702702709
 40
2.5
 41
1
 50
0
  1
図名
  0
TEXT
  8
_0-0_
 62
    7
 10
147.56756962956609
 20
12.972972972972968
 40
2.5
 41
1
 50
0
  1
縮尺
  0
TEXT
  8
_0-0_
 62
    7
 10
382.77784605284
 20
21.243871740392734
 40
2.5
 41
1
 50
0
  1
ＮＯ
  0
TEXT
  8
_0-0_
 62
    7
 10
20.270270012520456
 20
22.702702702702709
 40
2.5
 41
1
 50
0
  1
Ｆ形
  0
TEXT
  8
_0-0_
 62
    7
 10
389.99062615471917
 20
16.178650211643514
 40
2.5
 41
1
 50
0
  1
Ｆ
  0
TEXT
  8
_0-0_
 62
    7
 10
171.37221877639359
 20
12.362518826046511
 40
2.5
 41
1
 50
0
  1
1/5
  0
TEXT
  8
_0-1_
 62
    7
 10
207.90878295898437
 20
123.33247004328548
 40
2.5
 41
1
 50
0
  1
桟瓦
  0
TEXT
  8
_0-1_
 62
    7
 10
207.90878708298143
 20
108.89752362225508
 40
2.5
 41
1
 50
0
  1
流し桟
  0
TEXT
  8
_0-0_
 62
    7
 10
45.397583729511979
 20
13.77361400707349
 40
2.5
 41
1
 50
0
  1
壁際　2
  0
TEXT
  8
_1-3_
 62
    7
 10
350.58107943148229
 20
183.32588814400339
 40
2.5
 41
1
 50
90
  1
150
  0
TEXT
  8
_1-3_
 62
    7
 10
273.46554317989865
 20
134.2837854333826
 40
2.5
 41
1
 50
0
  1
200
  0
TEXT
  8
_1-3_
 62
    7
 10
350.57551615947
 20
129.47068497941302
 40
2.5
 41
1
 50
0
  1
２重貼り
  0
TEXT
  8
_1-3_
 62
    7
 10
262.641036574905
 20
246.38491243929477
 40
2.5
 41
1
 50
0
  1
外壁
  0
TEXT
  8
_1-3_
 62
    7
 10
243.14166919605151
 20
229.83311833562078
 40
2.5
 41
1
 50
0
  1
壁際水切鉄板
  0
TEXT
  8
_1-3_
 62
    7
 10
237.01978116422089
 20
216.00217252164276
 40
2.5
 41
1
 50
0
  1
発泡弾性シール材
  0
TEXT
  8
_1-3_
 62
    7
 10
31.231869362496042
 20
18.589955922719582
 40
2.5
 41
1
 50
0
  1
Ｓ
  0
TEXT
  8
_1-3_
 62
    7
 10
207.90879120697849
 20
88.323595201646967
 40
2.5
 41
1
 50
0
  1
垂木　Ｃ－100ｘ50ｘ20ｘ2.3
  0
TEXT
  8
_1-3_
 62
    7
 10
207.90879120697849
 20
101.92893775733742
 40
2.5
 41
1
 50
0
  1
下葺き材
  0
TEXT
  8
_1-3_
 62
    7
 10
207.90878708298143
 20
95.126266479492187
 40
2.5
 41
1
 50
0
  1
野地板
  0
TEXT
  8
_1-3_
 62
    7
 10
220.31514348210516
 20
102.43997522302577
 40
2.5
 41
1
 50
0
  1
ゴムアス系ルーフィング
  0
TEXT
  8
_1-3_
 62
    7
 10
220.2901108200486
 20
95.337573902027032
 40
2.5
 41
1
 50
0
  1
硬質木片セメント板　ｔ＝18
  0
TEXT
  8
_1-3_
 62
    7
 10
372.61835871516053
 20
198.7178204510663
 40
2.5
 41
1
 50
0
  1
下葺き材立上がり寸法
  0
TEXT
  8
_1-3_
 62
    7
 10
337.27782378325594
 20
133.7502433158256
 40
2.5
 41
1
 50
0
  1
下葺き材　　　ゴムアス系ルーフィング
  0
TEXT
  8
_1-3_
 62
    7
 10
400.50610104122677
 20
13.322028598269895
 40
2.5
 41
1
 50
0
  1
34
  0
TEXT
  8
_1-3_
 62
    7
 10
337.19329833984375
 20
192.98446655273437
 40
2.5
 41
1
 50
90
  1
120
  0
TEXT
  8
_1-3_
 62
    7
 10
352.66936843459672
 20
153.74068389067779
 40
2.5
 41
1
 50
0
  1
水切り鉄板立上がり寸法
  0
TEXT
  8
_1-3_
 62
    7
 10
306.53069985879438
 20
242.94512774493245
 40
2.5
 41
1
 50
0
  1
水切鉄板上端より
  0
TEXT
  8
_1-3_
 62
    7
 10
307.01761194177578
 20
240.21841513144005
 40
2.5
 41
1
 50
0
  1
50ｍｍ以上
  0
TEXT
  8
_1-3_
 62
    7
 10
307.00447783599031
 20
257.95814307960308
 40
3
 41
1
 50
0
  1
下葺き材立上げ長さは、300ｍｍ以上かつ
  0
TEXT
  8
_1-3_
 62
    7
 10
307.39110090925885
 20
252.31104670344175
 40
3
 41
1
 50
0
  1
雨押え板上端より50mm以上とする
  0
TEXT
  8
_1-3_
 62
    7
 10
368.76013678473396
 20
195.05945154138516
 40
2.5
 41
1
 50
90
  1
300 以上
  0
TEXT
  8
_1-3_
 62
    7
 10
207.90878708298143
 20
116.03203026024072
 40
2.5
 41
1
 50
0
  1
瓦桟　
  0
TEXT
  8
_1-3_
 62
    7
 10
218.0617172653611
 20
115.68224932696369
 40
2.5
 41
1
 50
0
  1
15×30　（樹脂桟木）
  0
TEXT
  8
_1-3_
 62
    7
 10
218.47592740445526
 20
112.4981689453125
 40
2.5
 41
1
 50
0
  1
※　地域により瓦桟木の大きさは、異なります
  0
POINT
  8
_1-3_
 62
    7
 10
369.26013843433282
 20
230.05945154138516
  0
POINT
  8
_1-3_
 62
    7
 10
369.26013843433282
 20
170.05946391337628
  0
POINT
  8
_1-3_
 62
    7
 10
351.08108108108109
 20
170.05946391337628
  0
POINT
  8
_1-3_
 62
    7
 10
351.08108108108109
 20
200.3423123746305
  0
POINT
  8
_1-3_
 62
    7
 10
255.3405266839105
 20
133.7837837837838
  0
POINT
  8
_1-3_
 62
    7
 10
295.34053493190459
 20
133.7837837837838
  0
POINT
  8
_1-3_
 62
    7
 10
337.69329998944261
 20
182.85946407833615
  0
POINT
  8
_1-3_
 62
    7
 10
337.69329998944261
 20
206.85945665514149
  0
TEXT
  8
_1-3_
 62
    7
 10
252.97836938435941
 20
208.2504159733777
 40
2.5
 41
1
 50
0
  1
捨谷
  0
ENDSEC
  0
EOF
