  0
SECTION
  2
HEADER
  9
$ACADVER
  1
AC1009
  9
$INSBASE
 10
0
 20
0
 30
0
  9
$EXTMIN
 10
0
 20
0
  9
$EXTMAX
 10
420
 20
297
  9
$LIMMIN
 10
0
 20
0
  9
$LIMMAX
 10
420
 20
297
  9
$LTSCALE
 40
1
  0
ENDSEC
  0
SECTION
  2
TABLES
  0
TABLE
  2
LTYPE
 70
     9
  0
LTYPE
  2
CONTINUOUS
 70
    64
  3
実線
 72
    65
 73
     0
 40
0.0
  0
LTYPE
  2
DASHED1
 70
    64
  3
--  --  --  --  --  --  --  --  
 72
    65
 73
     2
 40
2.5
 49
1.25
 49
-1.25
  0
LTYPE
  2
DASHED2
 70
    64
  3
----    ----    ----    ----    
 72
    65
 73
     2
 40
5.0
 49
2.5
 49
-2.5
  0
LTYPE
  2
DASHED3
 70
    64
  3
------  ------  ------  ------  
 72
    65
 73
     2
 40
5.0
 49
3.75
 49
-1.25
  0
LTYPE
  2
CENTER1
 70
    64
  3
----- - ----- - ----- - ----- - 
 72
    65
 73
     4
 40
10.0
 49
6.25
 49
-1.25
 49
1.25
 49
-1.25
  0
LTYPE
  2
CENTER2
 70
    64
  3
----------  --  ----------  --  
 72
    65
 73
     4
 40
20.0
 49
12.5
 49
-2.5
 49
2.5
 49
-2.5
  0
LTYPE
  2
PHANTOM1
 70
    64
  3
--- - - --- - - --- - - --- - - 
 72
    65
 73
     6
 40
10.0
 49
3.25
 49
-1.25
 49
1.25
 49
-1.25
 49
1.25
 49
-1.25
  0
LTYPE
  2
PHANTOM2
 70
    64
  3
--------  -  -  --------  -  -  
 72
    65
 73
     6
 40
20.0
 49
10.0
 49
-2.5
 49
1.25
 49
-2.5
 49
1.25
 49
-2.5
  0
LTYPE
  2
DOT
 70
    64
  3
-   -   -   -   -   -   -   -   
 72
    65
 73
     2
 40
2.5
 49
0.625
 49
-1.875
  0
LTYPE
  2
DUMMY
 70
    64
  3
ダミー
 72
    65
 73
     0
 40
0.0
  0
LTYPE
  2
RAND1
 70
    64
  3
ランダム線1
 72
    65
 73
     4
 40
10.0
 49
1.0
 49
-2.0
 49
3.0
 49
-4.0
  0
LTYPE
  2
RAND2
 70
    64
  3
ランダム線2
 72
    65
 73
     4
 40
14.0
 49
2.0
 49
-3.0
 49
4.0
 49
-5.0
  0
LTYPE
  2
RAND3
 70
    64
  3
ランダム線3
 72
    65
 73
     4
 40
18.0
 49
3.0
 49
-4.0
 49
5.0
 49
-6.0
  0
LTYPE
  2
RAND4
 70
    64
  3
ランダム線4
 72
    65
 73
     4
 40
22.0
 49
4.0
 49
-5.0
 49
6.0
 49
-7.0
  0
LTYPE
  2
RAND5
 70
    64
  3
ランダム線5
 72
    65
 73
     4
 40
26.0
 49
5.0
 49
-6.0
 49
7.0
 49
-8.0
  0
LTYPE
  2
LONG1
 70
    64
  3
----------  --  ----------  --  
 72
    65
 73
     4
 40
40.0
 49
32.5
 49
-2.5
 49
2.5
 49
-2.5
  0
LTYPE
  2
LONG2
 70
    64
  3
--------  -  -  --------  -  -  
 72
    65
 73
     6
 40
40.0
 49
30.0
 49
-2.5
 49
1.25
 49
-2.5
 49
1.25
 49
-2.5
  0
LTYPE
  2
LONG3
 70
    64
  3
+++++++++++++++..+++++++++++++++
 72
    65
 73
     2
 40
40.0
 49
37.5
 49
-2.5
  0
LTYPE
  2
LONG4
 70
    64
  3
+++++++++++++++..+++++++++++++++
 72
    65
 73
     2
 40
80.0
 49
75.0
 49
-5.0
  0
LTYPE
  2
LONG5
 70
    64
  3
----------  --  ----------  --  
 72
    65
 73
     4
 40
60.0
 49
37.5
 49
-7.5
 49
7.5
 49
-7.5
  0
LTYPE
  2
dashed
 70
   64
  3
-------   -------------   ------
 72
   65
 73
    2
 40
7.5
 49
6
 49
-1.5
  0
LTYPE
  2
dashed_spaced
 70
   64
  3
----        --------        ----
 72
   65
 73
    2
 40
12
 49
6
 49
-6
  0
LTYPE
  2
long_dashed_dotted
 70
   64
  3
------------- --- --------------
 72
   65
 73
    4
 40
15.25
 49
12
 49
-1.5
 49
0.25
 49
-1.5
  0
LTYPE
  2
long_dashed_double-dotted
 70
   64
  3
----------- --- --- ------------
 72
   65
 73
    6
 40
17
 49
12
 49
-1.5
 49
0.25
 49
-1.5
 49
0.25
 49
-1.5
  0
LTYPE
  2
long_dashed_triplicate-dotted
 70
   64
  3
--------- --- --- --- ----------
 72
   65
 73
    8
 40
18.75
 49
12
 49
-1.5
 49
0.25
 49
-1.5
 49
0.25
 49
-1.5
 49
0.25
 49
-1.5
  0
LTYPE
  2
dotted
 70
   64
  3
   -       -       -       -    
 72
   65
 73
    2
 40
1.75
 49
0.25
 49
-1.5
  0
LTYPE
  2
chain
 70
   64
  3
-------------- -- --------------
 72
   65
 73
    4
 40
18.5
 49
12
 49
-1.5
 49
3.5
 49
-1.5
  0
LTYPE
  2
chain_double_dash
 70
   64
  3
------------ -- -- -------------
 72
   65
 73
    6
 40
23.5
 49
12
 49
-1.5
 49
3.5
 49
-1.5
 49
3.5
 49
-1.5
  0
LTYPE
  2
dashed_dotted
 70
   64
  3
-----------     -     ----------
 72
   65
 73
    4
 40
9.25
 49
6
 49
-1.5
 49
0.25
 49
-1.5
  0
LTYPE
  2
double-dashed_dotted
 70
   64
  3
------   -----------   -   -----
 72
   65
 73
    6
 40
16.75
 49
6
 49
-1.5
 49
6
 49
-1.5
 49
0.25
 49
-1.5
  0
LTYPE
  2
dashed_double-dotted
 70
   64
  3
---------    -    -    ---------
 72
   65
 73
    6
 40
11
 49
6
 49
-1.5
 49
0.25
 49
-1.5
 49
0.25
 49
-1.5
  0
LTYPE
  2
double-dashed_double-dotted
 70
   64
  3
-----   ---------   -   -   ----
 72
   65
 73
    8
 40
18.5
 49
6
 49
-1.5
 49
6
 49
-1.5
 49
0.25
 49
-1.5
 49
0.25
 49
-1.5
  0
LTYPE
  2
dashed_triplicate-dotted
 70
   64
  3
-------    -    -    -    ------
 72
   65
 73
    8
 40
12.75
 49
6
 49
-1.5
 49
0.25
 49
-1.5
 49
0.25
 49
-1.5
 49
0.25
 49
-1.5
  0
LTYPE
  2
double-dashed_triplicate-dotted
 70
   64
  3
-----  ---------  -  -  -  -----
 72
   65
 73
   10
 40
20.25
 49
6
 49
-1.5
 49
6
 49
-1.5
 49
0.25
 49
-1.5
 49
0.25
 49
-1.5
 49
0.25
 49
-1.5
  0
LTYPE
  2
undefined
 70
   64
  3
--------------------------------
 72
   65
 73
    0
 40
0
  0
ENDTAB
  0
TABLE
  2
STYLE
  5
3
100
AcDbSymbolTable
 70
     1
  0
STYLE
  5
10
100
AcDbSymbolTableRecord
100
AcDbTextStyleTableRecord
  2
STANDARD
 70
     0
 40
0.0
 41
1.0
 50
0.0
 71
     0
 42
0.2
  3
txt
  4
bigfont.shx
  0
STYLE
  5
26
100
AcDbSymbolTableRecord
100
AcDbTextStyleTableRecord
  2
TATEGAKI
 70
    68
 40
0.0
 41
1.0
 50
0.0
 71
     0
 42
1.0
  3
txt
  4
bigfont.shx
  0
ENDTAB
  0
TABLE
  2
LAYER
 70
    8
  0
LAYER
  2
_0-0_
 70
   64
 62
    7
  6
CONTINUOUS
  0
LAYER
  2
_0-1_
 70
   64
 62
    7
  6
CONTINUOUS
  0
LAYER
  2
_1-0_
 70
   64
 62
    7
  6
CONTINUOUS
  0
LAYER
  2
_1-1_
 70
   64
 62
    7
  6
CONTINUOUS
  0
LAYER
  2
_1-2_
 70
   64
 62
    7
  6
CONTINUOUS
  0
LAYER
  2
_1-3_
 70
   64
 62
    7
  6
CONTINUOUS
  0
LAYER
  2
_1-4_
 70
   64
 62
    7
  6
CONTINUOUS
  0
LAYER
  2
ADD_LINE
 70
   64
 62
    7
  6
CONTINUOUS
  0
ENDTAB
  0
ENDSEC
  0
SECTION
  2
BLOCKS
  0
ENDSEC
  0
SECTION
  2
ENTITIES
  0
LINE
  8
_1-0_
  6
CONTINUOUS
 62
    7
 10
122.13233741554055
 20
120.11152112806167
 11
367.47137121252115
 21
230.51409747149495
  0
LINE
  8
_1-0_
  6
CONTINUOUS
 62
    7
 10
129.19060784417229
 20
104.42647160710516
 11
374.5296911291174
 21
214.82906032252959
  0
LINE
  8
_1-0_
  6
CONTINUOUS
 62
    7
 10
130.44908678209461
 20
126.48586788692991
 11
366.48648648648651
 21
232.70270270270271
  0
LINE
  8
_1-0_
  6
CONTINUOUS
 62
    7
 10
183.41344472524284
 20
130.14265730574326
 11
181.77199080183701
 21
133.79034093908362
  0
LINE
  8
_1-0_
  6
CONTINUOUS
 62
    7
 10
181.77199080183701
 20
133.79034093908362
 11
189.06735806851773
 21
137.07326115788641
  0
LINE
  8
_1-0_
  6
CONTINUOUS
 62
    7
 10
189.06735806851773
 20
137.07326115788641
 11
190.70882436391472
 21
133.42557752454604
  0
LINE
  8
_1-0_
  6
CONTINUOUS
 62
    7
 10
190.70882436391472
 20
133.42557752454604
 11
183.41344472524284
 21
130.14265730574326
  0
LINE
  8
_1-0_
  6
CONTINUOUS
 62
    7
 10
238.12876108530406
 20
154.76454038877745
 11
236.48729478990711
 21
158.41222402211784
  0
LINE
  8
_1-0_
  6
CONTINUOUS
 62
    7
 10
236.48729478990711
 20
158.41222402211784
 11
243.78266205658784
 21
161.69514424092063
  0
LINE
  8
_1-0_
  6
CONTINUOUS
 62
    7
 10
243.78266205658784
 20
161.69514424092063
 11
245.42412835198482
 21
158.04746060758023
  0
LINE
  8
_1-0_
  6
CONTINUOUS
 62
    7
 10
245.42412835198482
 20
158.04746060758023
 11
238.12876108530406
 21
154.76454038877745
  0
LINE
  8
_1-0_
  6
CONTINUOUS
 62
    7
 10
292.84404032939193
 20
179.38642347181167
 11
291.20257403399495
 21
183.03410710515203
  0
LINE
  8
_1-0_
  6
CONTINUOUS
 62
    7
 10
291.20257403399495
 20
183.03410710515203
 11
298.49794130067568
 21
186.31702732395482
  0
LINE
  8
_1-0_
  6
CONTINUOUS
 62
    7
 10
298.49794130067568
 20
186.31702732395482
 11
300.13940759607266
 21
182.66934369061445
  0
LINE
  8
_1-0_
  6
CONTINUOUS
 62
    7
 10
300.13940759607266
 20
182.66934369061445
 11
292.84404032939193
 21
179.38642347181167
  0
LINE
  8
_1-0_
  6
CONTINUOUS
 62
    7
 10
189.06735806851773
 20
137.07324878589529
 11
183.41345709723396
 21
130.14266967773437
  0
LINE
  8
_1-0_
  6
CONTINUOUS
 62
    7
 10
243.78266205658784
 20
161.69514424092063
 11
238.1287363413218
 21
154.76456513275971
  0
LINE
  8
_1-0_
  6
CONTINUOUS
 62
    7
 10
298.49794130067568
 20
186.31702732395482
 11
292.84401558540964
 21
179.38646058778505
  0
LINE
  8
_1-0_
  6
CONTINUOUS
 62
    7
 10
129.95664441907729
 20
127.58017050253379
 11
365.99405649546031
 21
233.79700531830659
  0
LINE
  8
_1-0_
  6
DASHED1
 62
    3
 10
130.20287178658151
 20
127.03301919473185
 11
366.24025911898229
 21
233.24986638249578
  0
LINE
  8
_1-0_
  6
CONTINUOUS
 62
    7
 10
129.71042942356419
 20
128.12732181033573
 11
365.74782912795609
 21
234.34416899809966
  0
LINE
  8
_1-1_
  6
CONTINUOUS
 62
    7
 10
156.33850510055956
 20
140.10995400918497
 11
155.10740537901182
 21
142.84572292018581
  0
LINE
  8
_1-1_
  6
CONTINUOUS
 62
    7
 10
155.10740537901182
 20
142.84572292018581
 11
159.48464058540964
 21
144.81548000026393
  0
LINE
  8
_1-1_
  6
CONTINUOUS
 62
    7
 10
159.48464058540964
 20
144.81548000026393
 11
160.71574030695734
 21
142.0797110892631
  0
LINE
  8
_1-1_
  6
CONTINUOUS
 62
    7
 10
160.71574030695734
 20
142.0797110892631
 11
156.33850510055956
 21
140.10995400918497
  0
LINE
  8
_1-1_
  6
CONTINUOUS
 62
    7
 10
156.33850510055956
 20
140.10995400918497
 11
159.48464058540964
 21
144.81548000026393
  0
LINE
  8
_1-1_
  6
CONTINUOUS
 62
    7
 10
207.40611308329815
 20
163.09038316881336
 11
206.17501336175044
 21
165.82615207981419
  0
LINE
  8
_1-1_
  6
CONTINUOUS
 62
    7
 10
206.17501336175044
 20
165.82615207981419
 11
210.55226094013938
 21
167.79590915989232
  0
LINE
  8
_1-1_
  6
CONTINUOUS
 62
    7
 10
210.55226094013938
 20
167.79590915989232
 11
211.78334828969597
 21
165.06014024889149
  0
LINE
  8
_1-1_
  6
CONTINUOUS
 62
    7
 10
211.78334828969597
 20
165.06014024889149
 11
207.40611308329815
 21
163.09038316881336
  0
LINE
  8
_1-1_
  6
CONTINUOUS
 62
    7
 10
207.40611308329815
 20
163.09038316881336
 11
210.55226094013938
 21
167.79590915989232
  0
LINE
  8
_1-1_
  6
CONTINUOUS
 62
    7
 10
258.47370869404563
 20
186.0707999564506
 11
257.24262134448901
 21
188.80656886745146
  0
LINE
  8
_1-1_
  6
CONTINUOUS
 62
    7
 10
257.24262134448901
 20
188.80656886745146
 11
261.61985655088682
 21
190.77632594752959
  0
LINE
  8
_1-1_
  6
CONTINUOUS
 62
    7
 10
261.61985655088682
 20
190.77632594752959
 11
262.85094390044344
 21
188.04055703652872
  0
LINE
  8
_1-1_
  6
CONTINUOUS
 62
    7
 10
262.85094390044344
 20
188.04055703652872
 11
258.47370869404563
 21
186.0707999564506
  0
LINE
  8
_1-1_
  6
CONTINUOUS
 62
    7
 10
258.47370869404563
 20
186.0707999564506
 11
261.61985655088682
 21
190.77632594752959
  0
LINE
  8
_1-1_
  6
CONTINUOUS
 62
    7
 10
309.54130430479307
 20
209.0512414880701
 11
308.31021695523651
 21
211.78701039907097
  0
LINE
  8
_1-1_
  6
CONTINUOUS
 62
    7
 10
308.31021695523651
 20
211.78701039907097
 11
312.68745216163433
 21
213.75675510715794
  0
LINE
  8
_1-1_
  6
CONTINUOUS
 62
    7
 10
312.68745216163433
 20
213.75675510715794
 11
313.91853951119089
 21
211.02098619615711
  0
LINE
  8
_1-1_
  6
CONTINUOUS
 62
    7
 10
313.91853951119089
 20
211.02098619615711
 11
309.54130430479307
 21
209.0512414880701
  0
LINE
  8
_1-1_
  6
CONTINUOUS
 62
    7
 10
309.54130430479307
 20
209.0512414880701
 11
312.68745216163433
 21
213.75675510715794
  0
LINE
  8
_1-1_
  6
CONTINUOUS
 62
    7
 10
360.60889991554058
 20
232.03167064769849
 11
359.37781256598396
 21
234.76743955869935
  0
LINE
  8
_1-1_
  6
CONTINUOUS
 62
    7
 10
359.37781256598396
 20
234.76743955869935
 11
363.75504777238177
 21
236.73718426678633
  0
LINE
  8
_1-1_
  6
CONTINUOUS
 62
    7
 10
363.75504777238177
 20
236.73718426678633
 11
364.98613512193839
 21
234.0014153557855
  0
LINE
  8
_1-1_
  6
CONTINUOUS
 62
    7
 10
364.98613512193839
 20
234.0014153557855
 11
360.60889991554058
 21
232.03167064769849
  0
LINE
  8
_1-1_
  6
CONTINUOUS
 62
    7
 10
360.60889991554058
 20
232.03167064769849
 11
363.75504777238177
 21
236.73718426678633
  0
LINE
  8
_1-2_
  6
CONTINUOUS
 62
    3
 10
335.66486255542657
 20
63.77838134765625
 11
337.06485232791385
 21
63.77838134765625
  0
LINE
  8
_1-2_
  6
CONTINUOUS
 62
    3
 10
334.06486717430323
 20
63.178364521748307
 11
335.34128549936656
 21
63.178364521748307
  0
LINE
  8
_1-2_
  6
CONTINUOUS
 62
    3
 10
335.66486255542657
 20
63.77838134765625
 11
335.34128549936656
 21
63.178364521748307
  0
LINE
  8
_1-2_
  6
CONTINUOUS
 62
    3
 10
334.06486717430323
 20
63.178364521748307
 11
333.06486387510557
 21
61.37838827597129
  0
LINE
  8
_1-2_
  6
CONTINUOUS
 62
    3
 10
336.66484111064193
 20
61.77837474926099
 11
337.06485232791385
 21
61.77837474926099
  0
LINE
  8
_1-2_
  6
CONTINUOUS
 62
    7
 10
337.06485232791385
 20
63.77838134765625
 11
337.06485232791385
 21
61.77837474926099
  0
LINE
  8
_1-2_
  6
CONTINUOUS
 62
    3
 10
336.66484111064193
 20
61.77837474926099
 11
336.66484111064193
 21
58.378378378378386
  0
LINE
  8
_1-2_
  6
CONTINUOUS
 62
    7
 10
334.8648648648649
 20
58.378378378378386
 11
335.46485694679058
 21
55.978385306693411
  0
LINE
  8
_1-2_
  6
CONTINUOUS
 62
    7
 10
335.46485694679058
 20
55.978385306693411
 11
337.06485232791385
 21
55.978385306693411
  0
LINE
  8
_1-2_
  6
CONTINUOUS
 62
    3
 10
267.06484407991979
 20
55.378368480785468
 11
267.6726057722762
 21
60.378384976773646
  0
LINE
  8
_1-2_
  6
CONTINUOUS
 62
    3
 10
271.06483253272808
 20
61.37838827597129
 11
333.06486387510557
 21
61.37838827597129
  0
LINE
  8
_1-2_
  6
CONTINUOUS
 62
    3
 10
267.06484407991979
 20
55.378368480785468
 11
268.66483946104307
 21
55.53314208984375
  0
LINE
  8
_1-2_
  6
CONTINUOUS
 62
    3
 10
270.5145263671875
 20
58.378378378378386
 11
336.66484111064193
 21
58.378378378378386
  0
LINE
  8
_1-2_
  6
CONTINUOUS
 62
    3
 10
269.59108094911318
 20
57.762104756123307
 11
268.66483946104307
 21
55.53314208984375
  0
LINE
  8
_1-2_
  6
CONTINUOUS
 62
    3
 10
337.06485232791385
 20
63.77838134765625
 11
337.06485232791385
 21
61.77837474926099
  0
LINE
  8
_1-2_
  6
CONTINUOUS
 62
    7
 10
337.06485232791385
 20
61.77837474926099
 11
337.06485232791385
 21
55.978385306693411
  0
LINE
  8
_0-0_
  6
CONTINUOUS
 62
    5
 10
12.432428308435391
 20
278.51351351351354
 11
412.43244892842063
 21
278.51351351351354
  0
LINE
  8
_0-0_
  6
CONTINUOUS
 62
    5
 10
412.43244892842063
 20
8.5135135135135158
 11
12.432428308435391
 21
8.5135135135135158
  0
LINE
  8
_0-0_
  6
CONTINUOUS
 62
    5
 10
412.43244892842063
 20
28.513511451515001
 11
12.432415936444272
 21
28.513511451515001
  0
LINE
  8
_0-0_
  6
CONTINUOUS
 62
    5
 10
377.43248192039698
 20
8.5135135135135158
 11
377.43248192039698
 21
28.513511451515001
  0
LINE
  8
_0-0_
  6
CONTINUOUS
 62
    5
 10
142.70271507469386
 20
28.513511451515001
 11
142.70271507469386
 21
8.5135135135135158
  0
LINE
  8
_0-0_
  6
CONTINUOUS
 62
    5
 10
220.54054054054055
 20
28.513511451515001
 11
220.54054054054055
 21
8.5135135135135158
  0
LINE
  8
_0-0_
  6
CONTINUOUS
 62
    5
 10
142.70271507469386
 20
18.513512482514244
 11
220.54054054054055
 21
18.513512482514244
  0
LINE
  8
_0-0_
  6
CONTINUOUS
 62
    5
 10
402.16218690614443
 20
24.324325870823216
 11
389.59456985061234
 21
11.756758303255651
  0
LINE
  8
_1-4_
  6
CONTINUOUS
 62
    7
 10
76.176341288798568
 20
164.57665520745357
 11
127.31982669314823
 21
187.59123106260557
  0
LINE
  8
_1-4_
  6
CONTINUOUS
 62
    7
 10
88.859395207585521
 20
136.39209644214529
 11
76.176341288798568
 21
164.57665520745357
  0
LINE
  8
_1-4_
  6
CONTINUOUS
 62
    7
 10
140.00288679793076
 20
159.40668466928844
 11
127.31982669314823
 21
187.59124343459672
  0
LINE
  8
_1-4_
  6
CONTINUOUS
 62
    7
 10
127.31982669314823
 20
187.59123106260557
 11
178.42309075432857
 21
210.587719066723
  0
LINE
  8
_1-4_
  6
CONTINUOUS
 62
    7
 10
191.10613848711995
 20
182.40316030141472
 11
178.42309075432857
 21
210.587719066723
  0
LINE
  8
_1-4_
  6
CONTINUOUS
 62
    7
 10
178.42309075432857
 20
210.587719066723
 11
229.49749096019849
 21
233.57121648015203
  0
LINE
  8
_1-4_
  6
CONTINUOUS
 62
    7
 10
242.18056343697214
 20
205.3866700868349
 11
229.49751570418076
 21
233.57121648015203
  0
LINE
  8
_1-4_
  6
CONTINUOUS
 62
    7
 10
229.49749096019849
 20
233.57121648015203
 11
280.56511131492823
 21
256.55164563978042
  0
LINE
  8
_1-4_
  6
CONTINUOUS
 62
    7
 10
293.24815904771964
 20
228.36708687447214
 11
280.56508657094594
 21
256.55164563978042
  0
LINE
  8
_1-4_
  6
CONTINUOUS
 62
    7
 10
82.988167840081303
 20
149.43926424593539
 11
97.452472996067357
 21
155.94820589632602
  0
LINE
  8
_1-4_
  6
CONTINUOUS
 62
    7
 10
88.859395207585521
 20
136.39209644214529
 11
82.988167840081303
 21
149.43926424593539
  0
LINE
  8
_1-4_
  6
CONTINUOUS
 62
    7
 10
103.32370036357159
 20
142.90103809253591
 11
97.452472996067357
 21
155.94820589632602
  0
LINE
  8
_1-4_
  6
CONTINUOUS
 62
    7
 10
97.452472996067357
 20
155.94820589632602
 11
134.13165943042654
 21
172.45384010108742
  0
LINE
  8
_1-4_
  6
CONTINUOUS
 62
    7
 10
140.00288679793076
 20
159.40668466928844
 11
134.13165943042654
 21
172.45385247307857
  0
LINE
  8
_1-4_
  6
CONTINUOUS
 62
    7
 10
208.52864858266472
 20
164.95930852116766
 11
237.15518435916385
 21
86.308569006017734
  0
LINE
  8
_0-1_
  6
CONTINUOUS
 62
    7
 10
237.15518435916385
 20
86.308569006017734
 11
243.24324324324326
 21
86.308569006017734
  0
LINE
  8
_0-1_
  6
CONTINUOUS
 62
    7
 10
226.96402884818414
 20
114.30856240762247
 11
243.24324324324326
 21
114.30856240762247
  0
LINE
  8
_0-1_
  6
CONTINUOUS
 62
    7
 10
229.51181772592906
 20
107.30856405722129
 11
243.24324324324326
 21
107.30856405722129
  0
LINE
  8
_0-1_
  6
CONTINUOUS
 62
    7
 10
232.05960660367401
 20
100.3085657068201
 11
243.24324324324326
 21
100.3085657068201
  0
LINE
  8
_0-1_
  6
CONTINUOUS
 62
    7
 10
234.60739548141893
 20
93.308567356418919
 11
243.24324324324326
 21
93.308567356418919
  0
LINE
  8
_0-1_
  6
CONTINUOUS
 62
    7
 10
233.51351351351352
 20
183.24324324324326
 11
226.02732065561656
 21
203.81141868797511
  0
LINE
  8
_0-1_
  6
CONTINUOUS
 62
    7
 10
226.02732065561656
 20
203.81141868797511
 11
220.54054054054055
 21
203.81141868797511
  0
LINE
  8
_1-4_
  6
CONTINUOUS
 62
    7
 10
267.06484407991979
 20
46.694406045449739
 11
337.06485232791385
 21
46.694406045449739
  0
LINE
  8
_1-4_
  6
CONTINUOUS
 62
    7
 10
267.06484407991979
 20
51.272828385636615
 11
267.06484407991979
 21
46.694406045449739
  0
LINE
  8
_1-4_
  6
CONTINUOUS
 62
    7
 10
337.06485232791385
 20
51.272828385636615
 11
337.06485232791385
 21
46.694406045449739
  0
LINE
  8
_1-4_
  6
CONTINUOUS
 62
    7
 10
346.78126979518584
 20
63.77838134765625
 11
346.78126979518584
 21
55.978385306693411
  0
LINE
  8
_1-4_
  6
CONTINUOUS
 62
    7
 10
340.37148965371625
 20
63.77838134765625
 11
346.78126979518584
 21
63.77838134765625
  0
LINE
  8
_1-4_
  6
CONTINUOUS
 62
    7
 10
340.37148965371625
 20
55.978385306693411
 11
346.78126979518584
 21
55.978385306693411
  0
LINE
  8
ADD_LINE
  6
DOT
 62
    4
 10
159.48464058540964
 20
144.81549237225508
 11
117.80983589790964
 21
132.6413293786951
  0
LINE
  8
_1-2_
  6
CONTINUOUS
 62
    3
 10
158.73836208034206
 20
150.22317834802575
 11
160.08219538508234
 21
150.61574162663641
  0
LINE
  8
_1-2_
  6
CONTINUOUS
 62
    3
 10
157.37079929661107
 20
149.19860427444047
 11
158.59600995038008
 21
149.55651360589107
  0
LINE
  8
_1-2_
  6
CONTINUOUS
 62
    3
 10
158.73836208034206
 20
150.22317834802575
 11
158.59600995038008
 21
149.55651360589107
  0
LINE
  8
_1-2_
  6
CONTINUOUS
 62
    3
 10
157.37079929661107
 20
149.19860427444047
 11
156.91564611486487
 21
147.19040741791596
  0
LINE
  8
_1-2_
  6
CONTINUOUS
 62
    3
 10
160.25904062631969
 20
148.58380291913008
 11
160.64300537109375
 21
148.69596739073057
  0
LINE
  8
_1-2_
  6
CONTINUOUS
 62
    7
 10
160.08219538508234
 20
150.61574162663641
 11
160.64300537109375
 21
148.69596739073057
  0
LINE
  8
_1-2_
  6
CONTINUOUS
 62
    3
 10
160.25904062631969
 20
148.58380291913008
 11
161.2124015189506
 21
145.32020775047511
  0
LINE
  8
_1-2_
  6
CONTINUOUS
 62
    7
 10
159.48464058540964
 20
144.81549237225508
 11
160.73353123020482
 21
142.6800248429582
  0
LINE
  8
_1-2_
  6
CONTINUOUS
 62
    7
 10
160.73353123020482
 20
142.6800248429582
 11
162.26934072133659
 21
143.12867035736909
  0
LINE
  8
_1-2_
  6
CONTINUOUS
 62
    3
 10
95.245810843802786
 20
122.92450363571579
 11
94.427174748601146
 21
127.89433247334249
  0
LINE
  8
_1-2_
  6
CONTINUOUS
 62
    3
 10
97.402910799593542
 20
129.80539682749156
 11
156.91564611486487
 21
147.19040741791596
  0
LINE
  8
_1-2_
  6
CONTINUOUS
 62
    3
 10
95.245810843802786
 20
122.92450363571579
 11
96.738225576039909
 21
123.5216996476457
  0
LINE
  8
_1-2_
  6
CONTINUOUS
 62
    3
 10
97.715891245249168
 20
126.77145055822425
 11
161.2124015189506
 21
145.32020775047511
  0
LINE
  8
_1-2_
  6
CONTINUOUS
 62
    3
 10
97.002293354756134
 20
125.92097514384503
 11
96.738225576039909
 21
123.5216996476457
  0
LINE
  8
_1-2_
  6
CONTINUOUS
 62
    3
 10
160.08219538508234
 20
150.61574162663641
 11
160.64300537109375
 21
148.69596739073057
  0
LINE
  8
_1-2_
  6
CONTINUOUS
 62
    7
 10
160.64300537109375
 20
148.69596739073057
 11
162.26934072133659
 21
143.12867035736909
  0
LINE
  8
ADD_LINE
  6
DOT
 62
    4
 10
157.61122420027451
 20
150.51899265598607
 11
162.79547201620568
 21
152.03342334644216
  0
LINE
  8
ADD_LINE
  6
DOT
 62
    4
 10
159.91394867768159
 20
151.19167018581081
 11
210.55226094013938
 21
167.7958967879012
  0
LINE
  8
_1-2_
  6
CONTINUOUS
 62
    3
 10
209.6299290012669
 20
173.17636438318203
 11
210.96021497571792
 21
173.61256367451438
  0
LINE
  8
_1-2_
  6
CONTINUOUS
 62
    3
 10
208.29652528505068
 20
172.10770890519427
 11
209.50940106366133
 21
172.50540656012458
  0
LINE
  8
_1-2_
  6
CONTINUOUS
 62
    3
 10
209.6299290012669
 20
173.17636438318203
 11
209.50940106366133
 21
172.50540656012458
  0
LINE
  8
_1-2_
  6
CONTINUOUS
 62
    3
 10
208.29652528505068
 20
172.10770890519427
 11
207.90712923616977
 21
170.08572965054898
  0
LINE
  8
_1-2_
  6
CONTINUOUS
 62
    3
 10
211.20327511349242
 20
171.58749142208615
 11
211.58336742504224
 21
171.71212686074747
  0
LINE
  8
_1-2_
  6
CONTINUOUS
 62
    7
 10
210.96021497571792
 20
173.61256367451438
 11
211.58336742504224
 21
171.71212686074747
  0
LINE
  8
_1-2_
  6
CONTINUOUS
 62
    3
 10
211.20327511349242
 20
171.58749142208615
 11
212.26263922614021
 21
168.35674388988599
  0
LINE
  8
_1-2_
  6
CONTINUOUS
 62
    7
 10
210.55226094013938
 20
167.79590915989232
 11
211.87017492345862
 21
165.70233319256758
  0
LINE
  8
_1-2_
  6
CONTINUOUS
 62
    7
 10
211.87017492345862
 20
165.70233319256758
 11
213.39051942567568
 21
166.20085020323057
  0
LINE
  8
_1-2_
  6
CONTINUOUS
 62
    3
 10
148.99339005753802
 20
150.76800372149495
 11
207.90712923616977
 21
170.08572965054898
  0
LINE
  8
_1-2_
  6
CONTINUOUS
 62
    3
 10
149.40520415434966
 20
147.74587270375847
 11
212.26263922614021
 21
168.35674388988599
  0
LINE
  8
_1-2_
  6
CONTINUOUS
 62
    3
 10
210.96021497571792
 20
173.61256367451438
 11
211.58336742504224
 21
171.71212686074747
  0
LINE
  8
_1-2_
  6
CONTINUOUS
 62
    7
 10
211.58336742504224
 20
171.71212686074747
 11
213.39051942567568
 21
166.20085020323057
  0
LINE
  8
ADD_LINE
  6
DOT
 62
    4
 10
209.44298821526607
 20
173.74650285050677
 11
210.77327418971709
 21
174.18270214183912
  0
LINE
  8
ADD_LINE
  6
DOT
 62
    4
 10
210.77327418971709
 20
174.18270214183912
 11
261.61985655088682
 21
190.77632594752959
  0
LINE
  8
_1-2_
  6
CONTINUOUS
 62
    3
 10
260.70507152660474
 20
196.15806785789698
 11
262.03597610061234
 21
196.59241135055956
  0
LINE
  8
_1-2_
  6
CONTINUOUS
 62
    3
 10
259.37015842747047
 20
195.0912805505701
 11
260.58360331767318
 21
195.48728324271539
  0
LINE
  8
_1-2_
  6
CONTINUOUS
 62
    3
 10
260.70507152660474
 20
196.15806785789698
 11
260.58360331767318
 21
195.48728324271539
  0
LINE
  8
_1-2_
  6
CONTINUOUS
 62
    3
 10
259.37015842747047
 20
195.0912805505701
 11
258.97794156461151
 21
193.06985803552578
  0
LINE
  8
_1-2_
  6
CONTINUOUS
 62
    3
 10
262.27619068042651
 20
194.56699268237966
 11
262.65645619985219
 21
194.69108375343117
  0
LINE
  8
_1-2_
  6
CONTINUOUS
 62
    7
 10
262.03597610061234
 20
196.59241135055956
 11
262.65645619985219
 21
194.69108375343117
  0
LINE
  8
_1-2_
  6
CONTINUOUS
 62
    3
 10
262.27619068042651
 20
194.56699268237966
 11
263.3310266443201
 21
191.33476051124367
  0
LINE
  8
_1-2_
  6
CONTINUOUS
 62
    7
 10
261.61985655088682
 20
190.77632594752959
 11
262.93482600031672
 21
188.68089418153505
  0
LINE
  8
_1-2_
  6
CONTINUOUS
 62
    7
 10
262.93482600031672
 20
188.68089418153505
 11
264.45586333403719
 21
189.17728320972341
  0
LINE
  8
_1-2_
  6
CONTINUOUS
 62
    3
 10
198.09602892076649
 20
166.88980927338471
 11
197.12257591453761
 21
171.83165266707138
  0
LINE
  8
_1-2_
  6
CONTINUOUS
 62
    3
 10
200.037181957348
 20
173.8347151472762
 11
258.97794156461151
 21
193.06985803552578
  0
LINE
  8
_1-2_
  6
CONTINUOUS
 62
    3
 10
198.09602892076649
 20
166.88980927338471
 11
199.56905055690459
 21
167.53332602011193
  0
LINE
  8
_1-2_
  6
CONTINUOUS
 62
    3
 10
200.44476483319258
 20
170.81201501794766
 11
263.3310266443201
 21
191.33476051124367
  0
LINE
  8
_1-2_
  6
CONTINUOUS
 62
    3
 10
199.75806983741555
 20
169.93967829523859
 11
199.56905055690459
 21
167.53332602011193
  0
LINE
  8
_1-2_
  6
CONTINUOUS
 62
    3
 10
262.03597610061234
 20
196.59241135055956
 11
262.65645619985219
 21
194.69108375343117
  0
LINE
  8
_1-2_
  6
CONTINUOUS
 62
    7
 10
262.65645619985219
 20
194.69108375343117
 11
264.45586333403719
 21
189.17728320972341
  0
LINE
  8
_1-2_
  6
CONTINUOUS
 62
    3
 10
311.77266713735219
 20
219.13849701752534
 11
313.10357171135979
 21
219.5728281381968
  0
LINE
  8
_1-2_
  6
CONTINUOUS
 62
    3
 10
310.43775403821792
 20
218.07170971019849
 11
311.65119892842063
 21
218.46771240234375
  0
LINE
  8
_1-2_
  6
CONTINUOUS
 62
    3
 10
311.77266713735219
 20
219.13849701752534
 11
311.65119892842063
 21
218.46771240234375
  0
LINE
  8
_1-2_
  6
CONTINUOUS
 62
    3
 10
310.43775403821792
 20
218.07170971019849
 11
310.04553717535896
 21
216.05027482316302
  0
LINE
  8
_1-2_
  6
CONTINUOUS
 62
    3
 10
313.34378629117401
 20
217.5474094700169
 11
313.72405181059969
 21
217.67152528505068
  0
LINE
  8
_1-2_
  6
CONTINUOUS
 62
    7
 10
313.10357171135979
 20
219.5728281381968
 11
313.72405181059969
 21
217.67152528505068
  0
LINE
  8
_1-2_
  6
CONTINUOUS
 62
    3
 10
313.34378629117401
 20
217.5474094700169
 11
314.39862225506761
 21
214.31517729888091
  0
LINE
  8
_1-2_
  6
CONTINUOUS
 62
    7
 10
312.68745216163433
 20
213.75675510715794
 11
314.00242161106422
 21
211.66133571315459
  0
LINE
  8
_1-2_
  6
CONTINUOUS
 62
    7
 10
314.00242161106422
 20
211.66133571315459
 11
315.52345894478464
 21
212.15772474134292
  0
LINE
  8
_1-2_
  6
CONTINUOUS
 62
    3
 10
249.16363690350508
 20
189.8702384330131
 11
248.19015915329393
 21
194.81208182669977
  0
LINE
  8
_1-2_
  6
CONTINUOUS
 62
    3
 10
251.10477756809544
 20
196.81514430690459
 11
310.04553717535896
 21
216.05027482316302
  0
LINE
  8
_1-2_
  6
CONTINUOUS
 62
    3
 10
249.16363690350508
 20
189.8702384330131
 11
250.63664616765203
 21
190.51375517974029
  0
LINE
  8
_1-2_
  6
CONTINUOUS
 62
    3
 10
251.51236044394005
 20
193.79244417757602
 11
314.39862225506761
 21
214.31517729888091
  0
LINE
  8
_1-2_
  6
CONTINUOUS
 62
    3
 10
250.82566544816302
 20
192.92010745486698
 11
250.63664616765203
 21
190.51375517974029
  0
LINE
  8
_1-2_
  6
CONTINUOUS
 62
    3
 10
313.10357171135979
 20
219.5728281381968
 11
313.72405181059969
 21
217.67152528505068
  0
LINE
  8
_1-2_
  6
CONTINUOUS
 62
    7
 10
313.72405181059969
 20
217.67152528505068
 11
315.52345894478464
 21
212.15772474134292
  0
LINE
  8
_1-2_
  6
CONTINUOUS
 62
    3
 10
362.84026274809969
 20
242.11892617715372
 11
364.17116732210729
 21
242.55325729782518
  0
LINE
  8
_1-2_
  6
CONTINUOUS
 62
    3
 10
361.50534964896536
 20
241.05213886982688
 11
362.71879453916807
 21
241.44814156197214
  0
LINE
  8
_1-2_
  6
CONTINUOUS
 62
    3
 10
362.84026274809969
 20
242.11892617715372
 11
362.71879453916807
 21
241.44814156197214
  0
LINE
  8
_1-2_
  6
CONTINUOUS
 62
    3
 10
361.50534964896536
 20
241.05213886982688
 11
361.11313278610646
 21
239.03070398279141
  0
LINE
  8
_1-2_
  6
CONTINUOUS
 62
    3
 10
364.41138190192146
 20
240.52783862964529
 11
364.79164742134714
 21
240.65195444467906
  0
LINE
  8
_1-2_
  6
CONTINUOUS
 62
    7
 10
364.17116732210729
 20
242.55325729782518
 11
364.79164742134714
 21
240.65195444467906
  0
LINE
  8
_1-2_
  6
CONTINUOUS
 62
    3
 10
364.41138190192146
 20
240.52783862964529
 11
365.46621786581505
 21
237.2956064585093
  0
LINE
  8
_1-2_
  6
CONTINUOUS
 62
    7
 10
363.75504777238177
 20
236.73718426678633
 11
365.07001722181167
 21
234.64176487278294
  0
LINE
  8
_1-2_
  6
CONTINUOUS
 62
    7
 10
365.07001722181167
 20
234.64176487278294
 11
366.59105455553214
 21
235.1381539009713
  0
LINE
  8
_1-2_
  6
CONTINUOUS
 62
    3
 10
300.23120777027026
 20
212.8506799646326
 11
299.25777950802365
 21
217.79252335831927
  0
LINE
  8
_1-2_
  6
CONTINUOUS
 62
    3
 10
302.17237317884292
 20
219.79557346653294
 11
361.11313278610646
 21
239.03070398279141
  0
LINE
  8
_1-2_
  6
CONTINUOUS
 62
    3
 10
300.23120777027026
 20
212.8506799646326
 11
301.70424177839953
 21
213.49417196737755
  0
LINE
  8
_1-2_
  6
CONTINUOUS
 62
    3
 10
302.5799560546875
 20
216.7728733372044
 11
365.46621786581505
 21
237.2956064585093
  0
LINE
  8
_1-2_
  6
CONTINUOUS
 62
    3
 10
301.89326105891047
 20
215.90052424250425
 11
301.70424177839953
 21
213.49417196737755
  0
LINE
  8
_1-2_
  6
CONTINUOUS
 62
    3
 10
364.17116732210729
 20
242.55325729782518
 11
364.79164742134714
 21
240.65195444467906
  0
LINE
  8
_1-2_
  6
CONTINUOUS
 62
    7
 10
364.79164742134714
 20
240.65195444467906
 11
366.59105455553214
 21
235.1381539009713
  0
LINE
  8
ADD_LINE
  6
DOT
 62
    4
 10
300.23120777027026
 20
212.8506799646326
 11
313.80088187552786
 21
217.27908572635135
  0
LINE
  8
ADD_LINE
  6
DOT
 62
    3
 10
146.94060454497466
 20
144.31596085831927
 11
147.02042863175677
 21
144.31596085831927
  0
LINE
  8
_1-2_
  6
CONTINUOUS
 62
    3
 10
148.71974635768581
 20
146.87257096574115
 11
148.57710967192779
 21
145.02352740313557
  0
LINE
  8
_1-3_
  6
CONTINUOUS
 62
    3
 10
146.96362882047086
 20
144.31596085831927
 11
148.57710967192779
 21
145.02352740313557
  0
LINE
  8
_1-2_
  6
CONTINUOUS
 62
    3
 10
146.96362882047086
 20
144.31596085831927
 11
146.08159245671453
 21
148.76084611222552
  0
LINE
  8
_1-0_
  6
CONTINUOUS
 62
    7
 10
109.19706189954604
 20
129.84913181614232
 11
115.01786103119721
 21
131.53514965160474
  0
LINE
  8
_1-0_
  6
CONTINUOUS
 62
    7
 10
129.27269600533151
 20
99.85775509396116
 11
123.80117055532095
 21
97.395561836861276
  0
LINE
  8
_1-0_
  6
CONTINUOUS
 62
    7
 10
125.30007439690668
 20
103.99162086280617
 11
125.79250438793287
 21
102.89731206120672
  0
LINE
  8
_1-0_
  6
CONTINUOUS
 62
    7
 10
129.19060784417229
 20
104.42647160710516
 11
125.79250438793287
 21
102.89731206120672
  0
LINE
  8
_1-0_
  6
CONTINUOUS
 62
    7
 10
115.01786103119721
 20
131.53514965160474
 11
127.05673630173142
 21
104.78211686417863
  0
LINE
  8
_1-0_
  6
CONTINUOUS
 62
    7
 10
127.5491662927576
 20
103.68782043457031
 11
129.27269600533151
 21
99.85775509396116
  0
LINE
  8
_1-0_
  6
CONTINUOUS
 62
    7
 10
125.41527000633447
 20
108.42980049751901
 11
372.39574535472974
 21
219.57104657147383
  0
LINE
  8
_1-0_
  6
CONTINUOUS
 62
    7
 10
127.0567239297403
 20
104.78211686417863
 11
374.03723639410896
 21
215.92336293813347
  0
LINE
  8
_1-0_
  6
CONTINUOUS
 62
    7
 10
127.05673630173142
 20
104.78211686417863
 11
125.4152823783256
 21
108.42980049751901
  0
LINE
  8
_1-0_
  6
CONTINUOUS
 62
    7
 10
125.4152823783256
 20
108.42980049751901
 11
132.71064964500636
 21
111.7127207163218
  0
LINE
  8
_1-0_
  6
CONTINUOUS
 62
    7
 10
132.71064964500636
 20
111.7127207163218
 11
134.35211594040331
 21
108.06503708298142
  0
LINE
  8
_1-0_
  6
CONTINUOUS
 62
    7
 10
134.35211594040331
 20
108.06503708298142
 11
127.05673630173142
 21
104.78211686417863
  0
LINE
  8
_1-0_
  6
CONTINUOUS
 62
    7
 10
132.71064964500636
 20
111.7127207163218
 11
127.0567239297403
 21
104.78211686417863
  0
LINE
  8
_1-0_
  6
CONTINUOUS
 62
    7
 10
127.0567239297403
 20
104.78211686417863
 11
125.30007439690668
 21
103.99162086280617
  0
LINE
  8
_1-0_
  6
CONTINUOUS
 62
    7
 10
119.36915217219173
 20
123.47374581001901
 11
129.71042942356419
 21
128.12732181033573
  0
LINE
  8
_1-0_
  6
CONTINUOUS
 62
    7
 10
119.36915217219173
 20
123.47374581001901
 11
119.61536716770482
 21
122.92659450221707
  0
LINE
  8
_1-0_
  6
CONTINUOUS
 62
    7
 10
129.95664441907729
 20
127.58017050253379
 11
119.61536716770482
 21
122.92659450221707
  0
LINE
  8
_1-0_
  6
CONTINUOUS
 62
    7
 10
130.44908678209461
 20
126.48586788692991
 11
119.50601113809122
 21
121.56149374472129
  0
LINE
  8
_1-0_
  6
CONTINUOUS
 62
    7
 10
122.13233741554055
 20
120.11152112806167
 11
120.49089586412585
 21
119.37287614152238
  0
LINE
  8
_1-2_
  6
DASHED1
 62
    3
 10
130.20287178658151
 20
127.03301919473185
 11
119.60387358794343
 21
122.26346814954604
  0
LINE
  8
_1-0_
  6
DASHED1
 62
    3
 10
109.16191307274072
 20
129.99191696579393
 11
115.33269108952703
 21
131.75498756202492
  0
LINE
  8
_1-0_
  6
DASHED1
 62
    3
 10
115.33269108952703
 20
131.75498756202492
 11
119.60387358794343
 21
122.26346814954604
  0
LINE
  8
_1-0_
  6
CONTINUOUS
 62
    7
 10
109.19706189954604
 20
129.84913181614232
 11
123.80117055532095
 21
97.395561836861276
  0
LINE
  8
_1-0_
  6
CONTINUOUS
 62
    7
 10
125.89802510029561
 20
98.339148856498099
 11
128.69668084221917
 21
101.13780459842167
  0
LINE
  8
_1-0_
  6
CONTINUOUS
 62
    7
 10
123.45684567013303
 20
98.160720000395912
 11
127.99444662558066
 21
102.69831476984798
  0
LINE
  8
_1-0_
  6
CONTINUOUS
 62
    7
 10
122.75462382548565
 20
99.721230171822214
 11
126.04377952781884
 21
103.01038587415542
  0
LINE
  8
_1-0_
  6
CONTINUOUS
 62
    7
 10
122.05238960884714
 20
101.28174034324853
 11
126.58999056429477
 21
105.8193351127006
  0
LINE
  8
_1-0_
  6
CONTINUOUS
 62
    7
 10
121.35015539220862
 20
102.84225051467483
 11
125.88775634765625
 21
107.37985147012247
  0
LINE
  8
_1-0_
  6
CONTINUOUS
 62
    7
 10
120.64793354756124
 20
104.40276687209671
 11
125.18552213101775
 21
108.94036782754435
  0
LINE
  8
_1-0_
  6
CONTINUOUS
 62
    7
 10
119.94569933092272
 20
105.96327085752746
 11
124.48330028637037
 21
110.50087181297509
  0
LINE
  8
_1-0_
  6
CONTINUOUS
 62
    7
 10
119.24346511428421
 20
107.52378721494934
 11
123.78106606973185
 21
112.06138817039697
  0
LINE
  8
_1-0_
  6
CONTINUOUS
 62
    7
 10
118.54124326963684
 20
109.08430357237121
 11
123.07884422508447
 21
113.62190452781884
  0
LINE
  8
_1-0_
  6
CONTINUOUS
 62
    7
 10
117.83900905299832
 20
110.64480755780195
 11
122.37661000844595
 21
115.18240851324958
  0
LINE
  8
_1-0_
  6
CONTINUOUS
 62
    7
 10
117.13677483635981
 20
112.20532391522383
 11
121.67438816379857
 21
116.74292487067146
  0
LINE
  8
_1-0_
  6
CONTINUOUS
 62
    7
 10
116.43455299171242
 20
113.76582790065457
 11
120.97215394716005
 21
118.30344122809333
  0
LINE
  8
_1-0_
  6
CONTINUOUS
 62
    7
 10
115.73231877507391
 20
115.32634425807645
 11
120.26991973052155
 21
119.86394521352408
  0
LINE
  8
_1-0_
  6
CONTINUOUS
 62
    7
 10
115.03008455843539
 20
116.88684824350719
 11
119.56769788587417
 21
121.42446157094595
  0
LINE
  8
_1-0_
  6
CONTINUOUS
 62
    7
 10
114.32785034179687
 20
118.44736460092906
 11
118.86546366923565
 21
122.98497792836783
  0
LINE
  8
_1-0_
  6
CONTINUOUS
 62
    7
 10
113.62562849714951
 20
120.00788095835094
 11
118.16324182458827
 21
124.5454942857897
  0
LINE
  8
_1-0_
  6
CONTINUOUS
 62
    7
 10
112.92339428051099
 20
121.56838494378168
 11
117.46100760794975
 21
126.10599827122044
  0
LINE
  8
_1-0_
  6
CONTINUOUS
 62
    7
 10
112.22116006387247
 20
123.12890130120356
 11
116.75877339131124
 21
127.66651462864232
  0
LINE
  8
_1-0_
  6
CONTINUOUS
 62
    7
 10
111.51893821922509
 20
124.6894052866343
 11
116.05655154666385
 21
129.22703098606419
  0
LINE
  8
_1-0_
  6
CONTINUOUS
 62
    7
 10
110.81670400258658
 20
126.24992164405617
 11
115.35431733002534
 21
130.78753497149495
  0
LINE
  8
_1-0_
  6
CONTINUOUS
 62
    7
 10
110.11446978594806
 20
127.81043800147805
 11
113.3585666965794
 21
131.05453491210937
  0
LINE
  8
_1-0_
  6
CONTINUOUS
 62
    7
 10
109.41224794130068
 20
129.3709419869088
 11
110.17316251187712
 21
130.13185655748524
  0
LINE
  8
_1-0_
  6
CONTINUOUS
 62
    7
 10
107.49581414300043
 20
83.343194497598191
 11
113.87094033730997
 21
83.343194497598191
  0
LINE
  8
_1-0_
  6
CONTINUOUS
 62
    7
 10
120.18222705737965
 20
110.6951615617082
 11
113.87094033730997
 21
83.343194497598191
  0
ARC
  8
_1-2_
  6
CONTINUOUS
 62
    3
 10
270.99307498416385
 20
55.368173960092918
 40
6.01062568458351
 50
89.315963745117188
 51
123.53410339355467
  0
ARC
  8
_1-2_
  6
CONTINUOUS
 62
    3
 10
270.5145263671875
 20
57.378375079180756
 40
0.9999999162313101
 50
90
 51
157.43476867675781
  0
ARC
  8
_1-2_
  6
CONTINUOUS
 62
    3
 10
99.019311440957566
 20
124.01619576119089
 40
6.01062568458351
 50
105.60023498535158
 51
139.81837463378906
  0
ARC
  8
_1-2_
  6
CONTINUOUS
 62
    3
 10
97.996296238254857
 20
125.81155725427577
 40
0.9999999162313101
 50
106.28427124023437
 51
173.71903991699222
  0
ARC
  8
_1-2_
  6
CONTINUOUS
 62
    3
 10
150.79784496410474
 20
145.03462507918076
 40
6.01062568458351
 50
107.47019958496094
 51
141.68833923339844
  0
ARC
  8
_1-2_
  6
CONTINUOUS
 62
    3
 10
149.71678037901182
 20
146.795654296875
 40
0.9999999162313101
 50
108.15423583984375
 51
175.58900451660156
  0
ARC
  8
_1-2_
  6
CONTINUOUS
 62
    3
 10
201.83359506967906
 20
168.09881261877112
 40
6.01062568458351
 50
107.389892578125
 51
141.6080322265625
  0
ARC
  8
_1-2_
  6
CONTINUOUS
 62
    3
 10
200.7550048828125
 20
169.86136359137458
 40
0.9999999162313101
 50
108.07392883300781
 51
175.50869750976562
  0
ARC
  8
_1-2_
  6
CONTINUOUS
 62
    3
 10
252.90119068042654
 20
191.07924177839951
 40
6.01062568458351
 50
107.389892578125
 51
141.6080322265625
  0
ARC
  8
_1-2_
  6
CONTINUOUS
 62
    3
 10
251.82260049355997
 20
192.84179275100297
 40
0.9999999162313101
 50
108.07392883300781
 51
175.50869750976562
  0
ARC
  8
_1-2_
  6
CONTINUOUS
 62
    3
 10
303.96878629117401
 20
214.05967093802789
 40
6.01062568458351
 50
107.389892578125
 51
141.6080322265625
  0
ARC
  8
_1-2_
  6
CONTINUOUS
 62
    3
 10
302.89019610430745
 20
215.82220953864021
 40
0.9999999162313101
 50
108.07392883300781
 51
175.50869750976562
  0
TEXT
  8
_0-0_
 62
    7
 10
147.56756962956609
 20
22.702702702702709
 40
2.5
 41
1
 50
0
  1
図名
  0
TEXT
  8
_0-0_
 62
    7
 10
147.56756962956609
 20
12.972972972972968
 40
2.5
 41
1
 50
0
  1
縮尺
  0
TEXT
  8
_0-0_
 62
    7
 10
382.77784605284
 20
21.243871740392734
 40
2.5
 41
1
 50
0
  1
ＮＯ
  0
TEXT
  8
_0-0_
 62
    7
 10
31.231870393495313
 20
18.589955922719582
 40
2.5
 41
1
 50
0
  1
木造
  0
TEXT
  8
_0-0_
 62
    7
 10
20.270270012520456
 20
22.702702702702709
 40
2.5
 41
1
 50
0
  1
Ｆ形
  0
TEXT
  8
_0-0_
 62
    7
 10
389.99062615471917
 20
16.178650211643514
 40
2.5
 41
1
 50
0
  1
Ｆ
  0
TEXT
  8
_0-0_
 62
    7
 10
171.37221877639359
 20
12.362518826046511
 40
2.5
 41
1
 50
0
  1
1/5
  0
TEXT
  8
_1-4_
 62
    7
 10
99.833047534606649
 20
175.77047368384564
 40
2.5
 41
1
 50
24.227719460851677
  1
280
  0
TEXT
  8
_1-4_
 62
    7
 10
150.95642845336721
 20
198.77599324148923
 40
2.5
 41
1
 50
24.227719460851628
  1
280
  0
TEXT
  8
_1-4_
 62
    7
 10
202.04526908781719
 20
221.76598699198524
 40
2.5
 41
1
 50
24.227891841336668
  1
280
  0
TEXT
  8
_1-4_
 62
    7
 10
253.11626185186239
 20
244.74794796357384
 40
2.5
 41
1
 50
24.227969413213451
  1
280
  0
TEXT
  8
_1-4_
 62
    7
 10
88.875237937567135
 20
152.63674367188372
 40
2.5
 41
1
 50
24.227700068058738
  1
80
  0
TEXT
  8
_1-4_
 62
    7
 10
113.87702666388242
 20
163.88755973351837
 40
2.5
 41
1
 50
24.227719460851652
  1
200
  0
TEXT
  8
_1-4_
 62
    7
 10
300.18983583192568
 20
47.194404602050781
 40
2.5
 41
1
 50
0
  1
350
  0
TEXT
  8
_1-4_
 62
    7
 10
346.28126814558703
 20
58.628386420172617
 40
2.5
 41
1
 50
90
  1
39
  0
TEXT
  8
_0-1_
 62
    7
 10
210.27705424540756
 20
202.11651776288008
 40
2.5
 41
1
 50
0
  1
桟瓦
  0
TEXT
  8
_0-1_
 62
    7
 10
249.72972560573271
 20
112.42017591321792
 40
2.5
 41
1
 50
0
  1
瓦桟
  0
TEXT
  8
_0-1_
 62
    7
 10
249.72972972972974
 20
104.91626636402027
 40
2.5
 41
1
 50
0
  1
流し桟
  0
TEXT
  8
_0-1_
 62
    7
 10
249.7297338537268
 20
97.633048392630911
 40
2.5
 41
1
 50
0
  1
下葺き材
  0
TEXT
  8
_0-1_
 62
    7
 10
249.72972972972974
 20
91.011954642630911
 40
2.5
 41
1
 50
0
  1
野地板
  0
TEXT
  8
_0-1_
 62
    7
 10
249.72972560573271
 20
84.390848520639778
 40
2.5
 41
1
 50
0
  1
垂木
  0
TEXT
  8
_1-4_
 62
    7
 10
45.397583729511979
 20
13.77361400707349
 40
2.5
 41
1
 50
0
  1
軒先　2
  0
TEXT
  8
_1-4_
 62
    7
 10
400.50453392235011
 20
13.869091755635026
 40
2.5
 41
1
 50
0
  1
2
  0
TEXT
  8
_1-4_
 62
    7
 10
264.11144772091427
 20
91.011954642630911
 40
2.5
 41
1
 50
0
  1
耐水合板　ｔ＝12
  0
TEXT
  8
_1-4_
 62
    7
 10
264.11144772091427
 20
97.633048392630911
 40
2.5
 41
1
 50
0
  1
ゴムアス系ルーフィング
  0
TEXT
  8
_1-4_
 62
    7
 10
264.11145184491136
 20
84.390848520639778
 40
2.5
 41
1
 50
0
  1
60ｘ60
  0
TEXT
  8
_1-4_
 62
    7
 10
264.51361578864021
 20
112.40618319124789
 40
2.5
 41
1
 50
0
  1
15×30　以上
  0
TEXT
  8
_1-4_
 62
    7
 10
283.12806825380068
 20
112.28804304793076
 40
2.5
 41
1
 50
0
  1
（防腐処理）
  0
TEXT
  8
_1-4_
 62
    7
 10
297.92942356418922
 20
112.28804304793076
 40
2.5
 41
1
 50
0
  1
※　地域により瓦桟木の大きさは、異なります
  0
TEXT
  8
_0-1_
 62
    7
 10
100.28285670924832
 20
82.110647253088047
 40
2.5
 41
1
 50
0
  1
鼻隠　
  0
POINT
  8
_1-4_
 62
    7
 10
76.176341288798568
 20
164.57665520745357
  0
POINT
  8
_1-4_
 62
    7
 10
127.31982669314823
 20
187.59123106260557
  0
POINT
  8
_1-4_
 62
    7
 10
178.42309075432857
 20
210.587719066723
  0
POINT
  8
_1-4_
 62
    7
 10
229.49749096019849
 20
233.57121648015203
  0
POINT
  8
_1-4_
 62
    7
 10
280.56511131492823
 20
256.55164563978042
  0
POINT
  8
_1-4_
 62
    7
 10
82.988167840081303
 20
149.43926424593539
  0
POINT
  8
_1-4_
 62
    7
 10
97.452472996067357
 20
155.94820589632602
  0
POINT
  8
_1-4_
 62
    7
 10
134.13165943042654
 20
172.45384010108742
  0
POINT
  8
_1-4_
 62
    7
 10
267.06484407991979
 20
46.694406045449739
  0
POINT
  8
_1-4_
 62
    7
 10
337.06485232791385
 20
46.694406045449739
  0
POINT
  8
_1-4_
 62
    7
 10
346.78126979518584
 20
63.77838134765625
  0
POINT
  8
_1-4_
 62
    7
 10
346.78126979518584
 20
55.978385306693411
  0
ENDSEC
  0
EOF
