  0
SECTION
  2
HEADER
  9
$ACADVER
  1
AC1009
  9
$INSBASE
 10
0
 20
0
 30
0
  9
$EXTMIN
 10
0
 20
0
  9
$EXTMAX
 10
420
 20
297
  9
$LIMMIN
 10
0
 20
0
  9
$LIMMAX
 10
420
 20
297
  9
$LTSCALE
 40
1
  0
ENDSEC
  0
SECTION
  2
TABLES
  0
TABLE
  2
LTYPE
 70
     9
  0
LTYPE
  2
CONTINUOUS
 70
    64
  3
実線
 72
    65
 73
     0
 40
0.0
  0
LTYPE
  2
DASHED1
 70
    64
  3
--  --  --  --  --  --  --  --  
 72
    65
 73
     2
 40
2.5
 49
1.25
 49
-1.25
  0
LTYPE
  2
DASHED2
 70
    64
  3
----    ----    ----    ----    
 72
    65
 73
     2
 40
5.0
 49
2.5
 49
-2.5
  0
LTYPE
  2
DASHED3
 70
    64
  3
------  ------  ------  ------  
 72
    65
 73
     2
 40
5.0
 49
3.75
 49
-1.25
  0
LTYPE
  2
CENTER1
 70
    64
  3
----- - ----- - ----- - ----- - 
 72
    65
 73
     4
 40
10.0
 49
6.25
 49
-1.25
 49
1.25
 49
-1.25
  0
LTYPE
  2
CENTER2
 70
    64
  3
----------  --  ----------  --  
 72
    65
 73
     4
 40
20.0
 49
12.5
 49
-2.5
 49
2.5
 49
-2.5
  0
LTYPE
  2
PHANTOM1
 70
    64
  3
--- - - --- - - --- - - --- - - 
 72
    65
 73
     6
 40
10.0
 49
3.25
 49
-1.25
 49
1.25
 49
-1.25
 49
1.25
 49
-1.25
  0
LTYPE
  2
PHANTOM2
 70
    64
  3
--------  -  -  --------  -  -  
 72
    65
 73
     6
 40
20.0
 49
10.0
 49
-2.5
 49
1.25
 49
-2.5
 49
1.25
 49
-2.5
  0
LTYPE
  2
DOT
 70
    64
  3
-   -   -   -   -   -   -   -   
 72
    65
 73
     2
 40
2.5
 49
0.625
 49
-1.875
  0
LTYPE
  2
DUMMY
 70
    64
  3
ダミー
 72
    65
 73
     0
 40
0.0
  0
LTYPE
  2
RAND1
 70
    64
  3
ランダム線1
 72
    65
 73
     4
 40
10.0
 49
1.0
 49
-2.0
 49
3.0
 49
-4.0
  0
LTYPE
  2
RAND2
 70
    64
  3
ランダム線2
 72
    65
 73
     4
 40
14.0
 49
2.0
 49
-3.0
 49
4.0
 49
-5.0
  0
LTYPE
  2
RAND3
 70
    64
  3
ランダム線3
 72
    65
 73
     4
 40
18.0
 49
3.0
 49
-4.0
 49
5.0
 49
-6.0
  0
LTYPE
  2
RAND4
 70
    64
  3
ランダム線4
 72
    65
 73
     4
 40
22.0
 49
4.0
 49
-5.0
 49
6.0
 49
-7.0
  0
LTYPE
  2
RAND5
 70
    64
  3
ランダム線5
 72
    65
 73
     4
 40
26.0
 49
5.0
 49
-6.0
 49
7.0
 49
-8.0
  0
LTYPE
  2
LONG1
 70
    64
  3
----------  --  ----------  --  
 72
    65
 73
     4
 40
40.0
 49
32.5
 49
-2.5
 49
2.5
 49
-2.5
  0
LTYPE
  2
LONG2
 70
    64
  3
--------  -  -  --------  -  -  
 72
    65
 73
     6
 40
40.0
 49
30.0
 49
-2.5
 49
1.25
 49
-2.5
 49
1.25
 49
-2.5
  0
LTYPE
  2
LONG3
 70
    64
  3
+++++++++++++++..+++++++++++++++
 72
    65
 73
     2
 40
40.0
 49
37.5
 49
-2.5
  0
LTYPE
  2
LONG4
 70
    64
  3
+++++++++++++++..+++++++++++++++
 72
    65
 73
     2
 40
80.0
 49
75.0
 49
-5.0
  0
LTYPE
  2
LONG5
 70
    64
  3
----------  --  ----------  --  
 72
    65
 73
     4
 40
60.0
 49
37.5
 49
-7.5
 49
7.5
 49
-7.5
  0
LTYPE
  2
dashed
 70
   64
  3
-------   -------------   ------
 72
   65
 73
    2
 40
7.5
 49
6
 49
-1.5
  0
LTYPE
  2
dashed_spaced
 70
   64
  3
----        --------        ----
 72
   65
 73
    2
 40
12
 49
6
 49
-6
  0
LTYPE
  2
long_dashed_dotted
 70
   64
  3
------------- --- --------------
 72
   65
 73
    4
 40
15.25
 49
12
 49
-1.5
 49
0.25
 49
-1.5
  0
LTYPE
  2
long_dashed_double-dotted
 70
   64
  3
----------- --- --- ------------
 72
   65
 73
    6
 40
17
 49
12
 49
-1.5
 49
0.25
 49
-1.5
 49
0.25
 49
-1.5
  0
LTYPE
  2
long_dashed_triplicate-dotted
 70
   64
  3
--------- --- --- --- ----------
 72
   65
 73
    8
 40
18.75
 49
12
 49
-1.5
 49
0.25
 49
-1.5
 49
0.25
 49
-1.5
 49
0.25
 49
-1.5
  0
LTYPE
  2
dotted
 70
   64
  3
   -       -       -       -    
 72
   65
 73
    2
 40
1.75
 49
0.25
 49
-1.5
  0
LTYPE
  2
chain
 70
   64
  3
-------------- -- --------------
 72
   65
 73
    4
 40
18.5
 49
12
 49
-1.5
 49
3.5
 49
-1.5
  0
LTYPE
  2
chain_double_dash
 70
   64
  3
------------ -- -- -------------
 72
   65
 73
    6
 40
23.5
 49
12
 49
-1.5
 49
3.5
 49
-1.5
 49
3.5
 49
-1.5
  0
LTYPE
  2
dashed_dotted
 70
   64
  3
-----------     -     ----------
 72
   65
 73
    4
 40
9.25
 49
6
 49
-1.5
 49
0.25
 49
-1.5
  0
LTYPE
  2
double-dashed_dotted
 70
   64
  3
------   -----------   -   -----
 72
   65
 73
    6
 40
16.75
 49
6
 49
-1.5
 49
6
 49
-1.5
 49
0.25
 49
-1.5
  0
LTYPE
  2
dashed_double-dotted
 70
   64
  3
---------    -    -    ---------
 72
   65
 73
    6
 40
11
 49
6
 49
-1.5
 49
0.25
 49
-1.5
 49
0.25
 49
-1.5
  0
LTYPE
  2
double-dashed_double-dotted
 70
   64
  3
-----   ---------   -   -   ----
 72
   65
 73
    8
 40
18.5
 49
6
 49
-1.5
 49
6
 49
-1.5
 49
0.25
 49
-1.5
 49
0.25
 49
-1.5
  0
LTYPE
  2
dashed_triplicate-dotted
 70
   64
  3
-------    -    -    -    ------
 72
   65
 73
    8
 40
12.75
 49
6
 49
-1.5
 49
0.25
 49
-1.5
 49
0.25
 49
-1.5
 49
0.25
 49
-1.5
  0
LTYPE
  2
double-dashed_triplicate-dotted
 70
   64
  3
-----  ---------  -  -  -  -----
 72
   65
 73
   10
 40
20.25
 49
6
 49
-1.5
 49
6
 49
-1.5
 49
0.25
 49
-1.5
 49
0.25
 49
-1.5
 49
0.25
 49
-1.5
  0
LTYPE
  2
undefined
 70
   64
  3
--------------------------------
 72
   65
 73
    0
 40
0
  0
ENDTAB
  0
TABLE
  2
STYLE
  5
3
100
AcDbSymbolTable
 70
     1
  0
STYLE
  5
10
100
AcDbSymbolTableRecord
100
AcDbTextStyleTableRecord
  2
STANDARD
 70
     0
 40
0.0
 41
1.0
 50
0.0
 71
     0
 42
0.2
  3
txt
  4
bigfont.shx
  0
STYLE
  5
26
100
AcDbSymbolTableRecord
100
AcDbTextStyleTableRecord
  2
TATEGAKI
 70
    68
 40
0.0
 41
1.0
 50
0.0
 71
     0
 42
1.0
  3
txt
  4
bigfont.shx
  0
ENDTAB
  0
TABLE
  2
LAYER
 70
   10
  0
LAYER
  2
_0-0_
 70
   64
 62
    7
  6
CONTINUOUS
  0
LAYER
  2
_1-0_
 70
   64
 62
    7
  6
CONTINUOUS
  0
LAYER
  2
_1-1_
 70
   64
 62
    7
  6
CONTINUOUS
  0
LAYER
  2
_1-2_
 70
   64
 62
    7
  6
CONTINUOUS
  0
LAYER
  2
_1-3_
 70
   64
 62
    7
  6
CONTINUOUS
  0
LAYER
  2
_1-5_
 70
   64
 62
    7
  6
CONTINUOUS
  0
LAYER
  2
_1-6_
 70
   64
 62
    7
  6
CONTINUOUS
  0
LAYER
  2
_1-b_
 70
   64
 62
    7
  6
CONTINUOUS
  0
LAYER
  2
_1-c_
 70
   64
 62
    7
  6
CONTINUOUS
  0
LAYER
  2
ADD_LINE
 70
   64
 62
    7
  6
CONTINUOUS
  0
ENDTAB
  0
ENDSEC
  0
SECTION
  2
BLOCKS
  0
ENDSEC
  0
SECTION
  2
ENTITIES
  0
LINE
  8
_0-0_
  6
CONTINUOUS
 62
    5
 10
6.7567526327597136
 20
280.13513513513516
 11
406.75677325274495
 21
280.13513513513516
  0
LINE
  8
_0-0_
  6
CONTINUOUS
 62
    5
 10
406.75677325274495
 20
10.13513513513513
 11
6.7567526327597136
 21
10.13513513513513
  0
LINE
  8
_0-0_
  6
CONTINUOUS
 62
    5
 10
406.75677325274495
 20
30.135133073136615
 11
6.7567402607685949
 21
30.135133073136615
  0
LINE
  8
_0-0_
  6
CONTINUOUS
 62
    5
 10
371.75678150073907
 20
10.13513513513513
 11
371.75678150073907
 21
30.135133073136615
  0
LINE
  8
_0-0_
  6
CONTINUOUS
 62
    5
 10
137.02703939901818
 20
30.135133073136615
 11
137.02703939901818
 21
10.13513513513513
  0
LINE
  8
_0-0_
  6
CONTINUOUS
 62
    5
 10
214.86486486486487
 20
30.135133073136615
 11
214.86486486486487
 21
10.13513513513513
  0
LINE
  8
_0-0_
  6
CONTINUOUS
 62
    5
 10
137.02703939901818
 20
20.135134104135886
 11
214.86486486486487
 21
20.135134104135886
  0
LINE
  8
_0-0_
  6
CONTINUOUS
 62
    5
 10
396.48648648648651
 20
25.945945945945951
 11
383.91891891891896
 21
13.378379924877265
  0
LINE
  8
_1-0_
  6
CONTINUOUS
 62
    7
 10
97.829540355785483
 20
87.685435527079818
 11
235.13513513513516
 21
149.47297792176943
  0
LINE
  8
_1-2_
  6
CONTINUOUS
 62
    3
 10
207.84987166121201
 20
161.17863835515203
 11
209.71512253220018
 21
156.1110089276288
  0
LINE
  8
_1-2_
  6
CONTINUOUS
 62
    3
 10
227.08807043127112
 20
168.25967324746622
 11
225.84458634660052
 21
171.63809286581505
  0
LINE
  8
_1-3_
  6
CONTINUOUS
 62
    7
 10
213.92694421716641
 20
166.24924943253802
 11
212.58530075485643
 21
168.93252398516682
  0
LINE
  8
_1-3_
  6
CONTINUOUS
 62
    7
 10
212.58530075485643
 20
168.93252398516682
 11
228.68499755859375
 21
176.9823723870355
  0
LINE
  8
_1-3_
  6
CONTINUOUS
 62
    7
 10
230.02664102090372
 20
174.29909783440669
 11
213.92694421716641
 21
166.24924943253802
  0
LINE
  8
_1-3_
  6
CONTINUOUS
 62
    7
 10
212.58530075485643
 20
168.93252398516682
 11
230.02664102090372
 21
174.29909783440669
  0
LINE
  8
_1-3_
  6
CONTINUOUS
 62
    3
 10
211.50861585462417
 20
169.2275093697213
 11
212.11145349451016
 21
165.15822539458404
  0
LINE
  8
_1-3_
  6
CONTINUOUS
 62
    3
 10
212.11145349451016
 20
165.15822539458404
 11
212.71431587837839
 21
166.3639377903294
  0
LINE
  8
_1-1_
  6
DASHED1
 62
    3
 10
97.501237199113177
 20
88.41498091414168
 11
234.52294426995357
 21
150.07477631440034
  0
LINE
  8
_1-3_
  6
DASHED1
 62
    3
 10
234.52294426995357
 20
150.07477631440034
 11
234.52294426995357
 21
209.47297792176943
  0
LINE
  8
_1-2_
  6
CONTINUOUS
 62
    7
 10
225.30680063608531
 20
174.20946275865711
 11
206.22943775073904
 21
226.624096019848
  0
LINE
  8
_1-2_
  6
CONTINUOUS
 62
    7
 10
211.91124993401607
 20
166.50963035789698
 11
196.60123258023648
 21
208.573558910473
  0
LINE
  8
_1-2_
  6
CONTINUOUS
 62
    7
 10
209.60085482210727
 20
159.58668476826438
 11
198.75240016627959
 21
189.39258059939823
  0
LINE
  8
_1-2_
  6
CONTINUOUS
 62
    7
 10
205.8097674395587
 20
150.46409813133448
 11
218.53699555268159
 21
155.87993724926099
  0
LINE
  8
_1-2_
  6
CONTINUOUS
 62
    7
 10
206.22943775073904
 20
226.624096019848
 11
199.85761487806167
 21
226.624096019848
  0
LINE
  8
_1-2_
  6
CONTINUOUS
 62
    7
 10
196.60123258023648
 20
208.573558910473
 11
192.55669258736276
 21
208.573558910473
  0
LINE
  8
_1-2_
  6
CONTINUOUS
 62
    7
 10
198.75240016627959
 20
189.39258059939823
 11
195.47706397804055
 21
189.39258059939823
  0
LINE
  8
_1-2_
  6
CONTINUOUS
 62
    7
 10
289.80082743876693
 20
209.47297792176943
 11
289.80082743876693
 21
149.47290368982263
  0
LINE
  8
_1-2_
  6
CONTINUOUS
 62
    7
 10
254.95160077069258
 20
209.47297792176943
 11
289.80082743876693
 21
209.47297792176943
  0
LINE
  8
_1-2_
  6
CONTINUOUS
 62
    7
 10
254.95160077069258
 20
149.47290368982263
 11
289.80082743876693
 21
149.47290368982263
  0
LINE
  8
_1-2_
  6
CONTINUOUS
 62
    7
 10
198.10107669314823
 20
171.64357365788641
 11
191.09651307801943
 21
171.64357365788641
  0
LINE
  8
_1-2_
  6
CONTINUOUS
 62
    7
 10
205.8097674395587
 20
150.46409813133448
 11
198.10107669314823
 21
171.64357365788641
  0
LINE
  8
_1-0_
  6
CONTINUOUS
 62
    7
 10
230.13514338312925
 20
237.94872387035474
 11
230.13514338312925
 21
209.47297792176943
  0
LINE
  8
_1-0_
  6
CONTINUOUS
 62
    7
 10
235.13513513513516
 20
209.47297792176943
 11
230.13514338312925
 21
209.47297792176943
  0
LINE
  8
_1-0_
  6
DASHED1
 62
    7
 10
235.13513513513516
 20
209.47297792176943
 11
235.13513513513516
 21
237.94872387035474
  0
LINE
  8
_1-3_
  6
CONTINUOUS
 62
    3
 10
211.50861585462417
 20
169.2275093697213
 11
230.13514338312925
 21
178.54077313397383
  0
LINE
  8
_1-0_
  6
CONTINUOUS
 62
    3
 10
230.13514338312925
 20
206.47298039616766
 11
230.13514338312925
 21
178.54077313397383
  0
LINE
  8
_1-0_
  6
CONTINUOUS
 62
    3
 10
234.25630311708193
 20
206.47298039616766
 11
230.13514338312925
 21
206.47298039616766
  0
LINE
  8
_1-3_
  6
CONTINUOUS
 62
    3
 10
234.25630311708193
 20
206.47298039616766
 11
234.25630311708193
 21
209.47297792176943
  0
LINE
  8
_1-0_
  6
CONTINUOUS
 62
    7
 10
230.97052496832771
 20
185.38055419921875
 11
230.97052496832771
 21
203.38056409681167
  0
LINE
  8
_1-0_
  6
CONTINUOUS
 62
    7
 10
230.97052496832771
 20
203.38056409681167
 11
233.97053486592063
 21
203.38056409681167
  0
LINE
  8
_1-0_
  6
CONTINUOUS
 62
    7
 10
233.97053486592063
 20
203.38056409681167
 11
233.97053486592063
 21
185.38055419921875
  0
LINE
  8
_1-0_
  6
CONTINUOUS
 62
    7
 10
233.97053486592063
 20
185.38055419921875
 11
230.97052496832771
 21
185.38055419921875
  0
LINE
  8
_1-0_
  6
CONTINUOUS
 62
    7
 10
230.97052496832771
 20
202.34804720491977
 11
233.97053486592063
 21
185.38055419921875
  0
LINE
  8
_1-0_
  6
CONTINUOUS
 62
    7
 10
233.62587593697214
 20
206.47298039616766
 11
234.25630311708193
 21
207.10339520428633
  0
LINE
  8
_1-0_
  6
CONTINUOUS
 62
    7
 10
232.77735529719175
 20
206.47298039616766
 11
234.25630311708193
 21
207.95194058804898
  0
LINE
  8
_1-0_
  6
CONTINUOUS
 62
    7
 10
231.92883465741133
 20
206.47298039616766
 11
234.25630311708193
 21
208.8004612278294
  0
LINE
  8
_1-0_
  6
CONTINUOUS
 62
    7
 10
231.08028927364867
 20
206.47298039616766
 11
234.08029917124156
 21
209.47297792176943
  0
LINE
  8
_1-0_
  6
CONTINUOUS
 62
    7
 10
231.25018145586995
 20
207.4914055901605
 11
233.23175378747891
 21
209.47297792176943
  0
LINE
  8
_1-0_
  6
CONTINUOUS
 62
    7
 10
231.35002342430323
 20
208.43976819837417
 11
232.38323314769849
 21
209.47297792176943
  0
LINE
  8
_1-0_
  6
CONTINUOUS
 62
    7
 10
231.25730772276185
 20
209.19557313661318
 11
231.5347125079181
 21
209.47297792176943
  0
LINE
  8
_1-0_
  6
DASHED2
 62
    7
 10
100.29172742688979
 20
82.213910077069258
 11
233.05857065561656
 21
141.95900994378167
  0
LINE
  8
_1-0_
  6
DASHED2
 62
    7
 10
230.59639595650339
 20
147.43053539379224
 11
233.05857065561656
 21
141.95900994378167
  0
LINE
  8
_1-0_
  6
CONTINUOUS
 62
    7
 10
107.67830101219384
 20
65.799321355046459
 11
235.13513513513516
 21
123.15493197054477
  0
LINE
  8
_1-0_
  6
CONTINUOUS
 62
    7
 10
235.13513513513516
 20
209.47297792176943
 11
235.13513513513516
 21
149.47297792176943
  0
LINE
  8
_1-0_
  6
CONTINUOUS
 62
    7
 10
236.68007515572214
 20
122.72552490234375
 11
236.68007515572214
 21
104.5945945945946
  0
LINE
  8
_1-0_
  6
CONTINUOUS
 62
    7
 10
227.28278082770271
 20
208.40015308277029
 11
214.37223692198057
 21
243.87161667282518
  0
LINE
  8
_1-0_
  6
CONTINUOUS
 62
    7
 10
227.28278082770271
 20
208.40015308277029
 11
232.18575142525339
 21
208.40015308277029
  0
LINE
  8
_1-0_
  6
CONTINUOUS
 62
    7
 10
214.37223692198057
 20
243.87161667282518
 11
210.84347286739867
 21
243.87161667282518
  0
LINE
  8
_1-0_
  6
CONTINUOUS
 62
    7
 10
131.65477443385768
 20
96.327283704603047
 11
126.46041870117187
 21
74.251284212679479
  0
LINE
  8
_1-0_
  6
CONTINUOUS
 62
    7
 10
133.4931162241343
 20
97.154543077623529
 11
128.29876049144849
 21
75.078537399704402
  0
LINE
  8
_1-0_
  6
CONTINUOUS
 62
    7
 10
135.33147038640203
 20
97.981802450644011
 11
130.13711465371622
 21
75.90579058672931
  0
LINE
  8
_1-0_
  6
CONTINUOUS
 62
    7
 10
196.34043100717906
 20
125.43584462758658
 11
191.14607527449326
 21
103.35984513566301
  0
LINE
  8
_1-0_
  6
CONTINUOUS
 62
    7
 10
200.01712695972341
 20
127.09035100163641
 11
194.82277122703761
 21
105.01435150971284
  0
LINE
  8
_1-0_
  6
CONTINUOUS
 62
    7
 10
198.1787851694468
 20
126.2630978146115
 11
192.98442943676099
 21
104.18709832268793
  0
LINE
  8
_1-0_
  6
CONTINUOUS
 62
    7
 10
230.13514338312925
 20
222.83784608583193
 11
245.24602116765203
 21
237.94872387035474
  0
LINE
  8
_1-0_
  6
CONTINUOUS
 62
    7
 10
230.13514338312925
 20
220.57510788376268
 11
247.5087593697213
 21
237.94872387035474
  0
LINE
  8
_1-0_
  6
CONTINUOUS
 62
    7
 10
230.13514338312925
 20
218.31236968169341
 11
249.77149757179055
 21
237.94872387035474
  0
LINE
  8
_1-3_
  6
CONTINUOUS
 62
    7
 10
228.68499755859375
 20
176.9823723870355
 11
230.02664102090372
 21
174.29909783440669
  0
ARC
  8
_1-2_
  6
CONTINUOUS
 62
    3
 10
241.46155280035896
 20
129.20889364706505
 40
41.612016832506335
 50
110.20721435546875
 51
139.72186279296875
  0
ARC
  8
_1-2_
  6
CONTINUOUS
 62
    3
 10
246.62760141733531
 20
115.17343881967906
 40
60.168024011560391
 50
110.20721435546875
 51
130.12750244140625
  0
CIRCLE
  8
_1-2_
  6
CONTINUOUS
 62
    7
 10
223.2985542915963
 20
155.29080777554898
 40
0.2036608554221488
  0
CIRCLE
  8
_1-2_
  6
CONTINUOUS
 62
    7
 10
221.76284377639359
 20
155.07141525680956
 40
0.2036608554221488
  0
CIRCLE
  8
_1-2_
  6
CONTINUOUS
 62
    7
 10
220.95839216902451
 20
160.58747987489443
 40
0.2036608554221488
  0
CIRCLE
  8
_1-2_
  6
CONTINUOUS
 62
    7
 10
220.44648866395693
 20
159.49052965318836
 40
0.2036608554221488
  0
CIRCLE
  8
_1-2_
  6
CONTINUOUS
 62
    7
 10
220.6658935546875
 20
158.39357943148227
 40
0.2036608554221488
  0
CIRCLE
  8
_1-2_
  6
CONTINUOUS
 62
    7
 10
221.61658209723396
 20
157.36976004935602
 40
0.2036608554221488
  0
CIRCLE
  8
_1-2_
  6
CONTINUOUS
 62
    7
 10
221.76284377639359
 20
156.1996789880701
 40
0.2036608554221488
  0
CIRCLE
  8
_1-2_
  6
CONTINUOUS
 62
    7
 10
221.03153538059544
 20
154.66394372888513
 40
0.2036608554221488
  0
CIRCLE
  8
_1-2_
  6
CONTINUOUS
 62
    7
 10
218.98389661634292
 20
153.56699350717906
 40
0.2036608554221488
  0
CIRCLE
  8
_1-2_
  6
CONTINUOUS
 62
    7
 10
217.37501814558701
 20
152.90882832295188
 40
0.2036608554221488
  0
CIRCLE
  8
_1-2_
  6
CONTINUOUS
 62
    7
 10
219.20327676309122
 20
152.10440145956505
 40
0.2036608554221488
  0
CIRCLE
  8
_1-2_
  6
CONTINUOUS
 62
    7
 10
217.1556379988387
 20
154.59081288930534
 40
0.2036608554221488
  0
CIRCLE
  8
_1-2_
  6
CONTINUOUS
 62
    7
 10
217.59442303631758
 20
151.15370054502745
 40
0.2036608554221488
  0
CIRCLE
  8
_1-2_
  6
CONTINUOUS
 62
    7
 10
216.86311464051943
 20
150.6417970399599
 40
0.2036608554221488
  0
CIRCLE
  8
_1-2_
  6
CONTINUOUS
 62
    7
 10
216.13183098870357
 20
151.73874726166596
 40
0.2036608554221488
  0
CIRCLE
  8
_1-2_
  6
CONTINUOUS
 62
    7
 10
216.71685296135982
 20
152.6163049646326
 40
0.2036608554221488
  0
CIRCLE
  8
_1-2_
  6
CONTINUOUS
 62
    7
 10
216.57059128220018
 20
153.1282208416913
 40
0.2036608554221488
  0
CIRCLE
  8
_1-2_
  6
CONTINUOUS
 62
    7
 10
216.49747281461151
 20
154.29830190297722
 40
0.2036608554221488
  0
CIRCLE
  8
_1-2_
  6
CONTINUOUS
 62
    7
 10
216.49747281461151
 20
155.4683829642631
 40
0.2036608554221488
  0
CIRCLE
  8
_1-2_
  6
CONTINUOUS
 62
    7
 10
216.35121113545188
 20
156.85785654428844
 40
0.2036608554221488
  0
CIRCLE
  8
_1-2_
  6
CONTINUOUS
 62
    7
 10
216.49747281461151
 20
158.10105607316302
 40
0.2036608554221488
  0
CIRCLE
  8
_1-2_
  6
CONTINUOUS
 62
    7
 10
216.57059128220018
 20
160.07557636982688
 40
0.2036608554221488
  0
CIRCLE
  8
_1-2_
  6
CONTINUOUS
 62
    7
 10
216.78999617293076
 20
161.02626491237331
 40
0.2036608554221488
  0
CIRCLE
  8
_1-2_
  6
CONTINUOUS
 62
    7
 10
219.56891858899917
 20
155.29080777554898
 40
0.2036608554221488
  0
CIRCLE
  8
_1-2_
  6
CONTINUOUS
 62
    7
 10
218.83763493718328
 20
158.32044859190245
 40
0.2036608554221488
  0
CIRCLE
  8
_1-2_
  6
CONTINUOUS
 62
    7
 10
218.61823004645271
 20
156.63846402554898
 40
0.2036608554221488
  0
CIRCLE
  8
_1-2_
  6
CONTINUOUS
 62
    7
 10
220.37337019636826
 20
155.76089395059122
 40
0.2036608554221488
  0
CIRCLE
  8
_1-2_
  6
CONTINUOUS
 62
    7
 10
222.34786574904984
 20
153.05509000211148
 40
0.2036608554221488
  0
CIRCLE
  8
_1-2_
  6
CONTINUOUS
 62
    7
 10
223.2985542915963
 20
154.15204022381758
 40
0.2036608554221488
  0
CIRCLE
  8
_1-2_
  6
CONTINUOUS
 62
    7
 10
222.93291246568836
 20
156.05341730891047
 40
0.2036608554221488
  0
CIRCLE
  8
_1-2_
  6
CONTINUOUS
 62
    7
 10
223.51795918232688
 20
157.22349837019638
 40
0.2036608554221488
  0
CIRCLE
  8
_1-2_
  6
CONTINUOUS
 62
    7
 10
226.00438298405828
 20
159.49052965318836
 40
0.2036608554221488
  0
CIRCLE
  8
_1-2_
  6
CONTINUOUS
 62
    7
 10
225.05369444151182
 20
155.51020029428844
 40
0.2036608554221488
  0
CIRCLE
  8
_1-2_
  6
CONTINUOUS
 62
    7
 10
226.44316802153716
 20
157.33844653980154
 40
0.2036608554221488
  0
CIRCLE
  8
_1-2_
  6
CONTINUOUS
 62
    7
 10
225.63871641416807
 20
158.80105095940669
 40
0.2036608554221488
  0
CIRCLE
  8
_1-2_
  6
CONTINUOUS
 62
    7
 10
223.66422086148651
 20
158.14287340318836
 40
0.2036608554221488
  0
CIRCLE
  8
_1-2_
  6
CONTINUOUS
 62
    7
 10
222.85979399809966
 20
156.24149631809544
 40
0.2036608554221488
  0
CIRCLE
  8
_1-2_
  6
CONTINUOUS
 62
    7
 10
221.47032041807432
 20
156.6071505159945
 40
0.2036608554221488
  0
CIRCLE
  8
_1-2_
  6
CONTINUOUS
 62
    7
 10
219.86144194731841
 20
156.75339982316302
 40
0.2036608554221488
  0
CIRCLE
  8
_1-2_
  6
CONTINUOUS
 62
    7
 10
217.37501814558701
 20
155.29080777554898
 40
0.2036608554221488
  0
CIRCLE
  8
_1-2_
  6
CONTINUOUS
 62
    7
 10
218.17946975295609
 20
154.26698839342274
 40
0.2036608554221488
  0
CIRCLE
  8
_1-2_
  6
CONTINUOUS
 62
    7
 10
219.78832347972974
 20
160.8800032332137
 40
0.2036608554221488
  0
CIRCLE
  8
_1-2_
  6
CONTINUOUS
 62
    7
 10
223.51795918232688
 20
154.19385755384292
 40
0.2036608554221488
  0
CIRCLE
  8
_1-2_
  6
CONTINUOUS
 62
    7
 10
218.47196836729307
 20
159.27113713444891
 40
0.2036608554221488
  0
CIRCLE
  8
_1-2_
  6
CONTINUOUS
 62
    7
 10
224.90743276235222
 20
159.63679133234797
 40
0.2036608554221488
  0
CIRCLE
  8
_1-2_
  6
CONTINUOUS
 62
    7
 10
226.22376313080659
 20
156.63846402554898
 40
0.2036608554221488
  0
CIRCLE
  8
_1-2_
  6
CONTINUOUS
 62
    7
 10
226.6625481682855
 20
155.76089395059122
 40
0.2036608554221488
  0
CIRCLE
  8
_1-2_
  6
CONTINUOUS
 62
    7
 10
228.78333014410896
 20
157.15036753061656
 40
0.2036608554221488
  0
CIRCLE
  8
_1-2_
  6
CONTINUOUS
 62
    7
 10
229.73401868665542
 20
159.34426797402872
 40
0.2036608554221488
  0
CIRCLE
  8
_1-2_
  6
CONTINUOUS
 62
    7
 10
231.78165745090794
 20
158.58165844066724
 40
0.2036608554221488
  0
CIRCLE
  8
_1-2_
  6
CONTINUOUS
 62
    7
 10
230.97723058752112
 20
159.020431106155
 40
0.2036608554221488
  0
CIRCLE
  8
_1-2_
  6
CONTINUOUS
 62
    7
 10
230.02651730099242
 20
158.50852760108742
 40
0.2036608554221488
  0
CIRCLE
  8
_1-2_
  6
CONTINUOUS
 62
    7
 10
229.1489719700169
 20
159.82487034153294
 40
0.2036608554221488
  0
CIRCLE
  8
_1-2_
  6
CONTINUOUS
 62
    7
 10
229.07582875844597
 20
164.06640954919766
 40
0.2036608554221488
  0
CIRCLE
  8
_1-2_
  6
CONTINUOUS
 62
    7
 10
225.71185962573904
 20
165.82153732712206
 40
0.2036608554221488
  0
CIRCLE
  8
_1-2_
  6
CONTINUOUS
 62
    7
 10
226.29690634237755
 20
166.26030999260982
 40
0.2036608554221488
  0
CIRCLE
  8
_1-2_
  6
CONTINUOUS
 62
    7
 10
225.71185962573904
 20
166.26030999260982
 40
0.2036608554221488
  0
CIRCLE
  8
_1-2_
  6
CONTINUOUS
 62
    7
 10
224.3223860457137
 20
166.40657167176943
 40
0.2036608554221488
  0
CIRCLE
  8
_1-2_
  6
CONTINUOUS
 62
    7
 10
223.079174144848
 20
165.45588312922297
 40
0.2036608554221488
  0
CIRCLE
  8
_1-2_
  6
CONTINUOUS
 62
    7
 10
222.93291246568836
 20
164.21267122835727
 40
0.2036608554221488
  0
CIRCLE
  8
_1-2_
  6
CONTINUOUS
 62
    7
 10
222.27474728146117
 20
164.72458710541596
 40
0.2036608554221488
  0
CIRCLE
  8
_1-2_
  6
CONTINUOUS
 62
    7
 10
221.03153538059544
 20
164.50519458667654
 40
0.2036608554221488
  0
CIRCLE
  8
_1-2_
  6
CONTINUOUS
 62
    7
 10
220.30022698479732
 20
164.06640954919766
 40
0.2036608554221488
  0
CIRCLE
  8
_1-2_
  6
CONTINUOUS
 62
    7
 10
218.91075340477198
 20
163.26198268581081
 40
0.2036608554221488
  0
CIRCLE
  8
_1-2_
  6
CONTINUOUS
 62
    7
 10
217.44816135715794
 20
162.67693596917232
 40
0.2036608554221488
  0
CIRCLE
  8
_1-2_
  6
CONTINUOUS
 62
    7
 10
217.37501814558701
 20
161.57998574746622
 40
0.2036608554221488
  0
CIRCLE
  8
_1-2_
  6
CONTINUOUS
 62
    7
 10
216.0586877771326
 20
160.33677384660052
 40
0.2036608554221488
  0
CIRCLE
  8
_1-2_
  6
CONTINUOUS
 62
    7
 10
219.05701508393159
 20
161.94563994536529
 40
0.2036608554221488
  0
CIRCLE
  8
_1-2_
  6
CONTINUOUS
 62
    7
 10
216.13183098870357
 20
161.72624742662586
 40
0.2036608554221488
  0
CIRCLE
  8
_1-2_
  6
CONTINUOUS
 62
    7
 10
220.44648866395693
 20
162.89632848791175
 40
0.2036608554221488
  0
CIRCLE
  8
_1-2_
  6
CONTINUOUS
 62
    7
 10
227.75949838999156
 20
164.57832542625636
 40
0.2036608554221488
  0
CIRCLE
  8
_1-2_
  6
CONTINUOUS
 62
    7
 10
224.3223860457137
 20
164.72458710541596
 40
0.2036608554221488
  0
CIRCLE
  8
_1-2_
  6
CONTINUOUS
 62
    7
 10
226.73566663587417
 20
166.84535670924831
 40
0.2036608554221488
  0
CIRCLE
  8
_1-2_
  6
CONTINUOUS
 62
    7
 10
229.58775700749578
 20
161.94563994536529
 40
0.2036608554221488
  0
CIRCLE
  8
_1-2_
  6
CONTINUOUS
 62
    7
 10
227.39385656408362
 20
160.48303552576016
 40
0.2036608554221488
  0
CIRCLE
  8
_1-2_
  6
CONTINUOUS
 62
    7
 10
227.46697503167232
 20
154.92515357764992
 40
0.2036608554221488
  0
CIRCLE
  8
_1-2_
  6
CONTINUOUS
 62
    7
 10
227.9057600691512
 20
159.56366049276818
 40
0.2036608554221488
  0
CIRCLE
  8
_1-2_
  6
CONTINUOUS
 62
    7
 10
224.76117108319258
 20
158.32044859190245
 40
0.2036608554221488
  0
CIRCLE
  8
_1-2_
  6
CONTINUOUS
 62
    7
 10
225.05369444151182
 20
157.22349837019638
 40
0.2036608554221488
  0
CIRCLE
  8
_1-2_
  6
CONTINUOUS
 62
    7
 10
226.15064466321792
 20
154.9564670872044
 40
0.2036608554221488
  0
CIRCLE
  8
_1-2_
  6
CONTINUOUS
 62
    7
 10
229.73401868665542
 20
159.27113713444891
 40
0.2036608554221488
  0
CIRCLE
  8
_1-2_
  6
CONTINUOUS
 62
    7
 10
232.43982263513516
 20
160.07557636982688
 40
0.2036608554221488
  0
CIRCLE
  8
_1-2_
  6
CONTINUOUS
 62
    7
 10
232.36670416754646
 20
150.56866620038008
 40
0.2036608554221488
  0
CIRCLE
  8
_1-2_
  6
CONTINUOUS
 62
    7
 10
232.95172614020271
 20
157.66228340767526
 40
0.2036608554221488
  0
CIRCLE
  8
_1-2_
  6
CONTINUOUS
 62
    7
 10
230.3921838708826
 20
159.92931469066724
 40
0.2036608554221488
  0
CIRCLE
  8
_1-2_
  6
CONTINUOUS
 62
    7
 10
232.7323459934544
 20
154.77889189849029
 40
0.2036608554221488
  0
CIRCLE
  8
_1-2_
  6
CONTINUOUS
 62
    7
 10
233.90241468274917
 20
156.82653066274284
 40
0.2036608554221488
  0
CIRCLE
  8
_1-2_
  6
CONTINUOUS
 62
    7
 10
233.31739271009292
 20
159.75173950195312
 40
0.2036608554221488
  0
CIRCLE
  8
_1-2_
  6
CONTINUOUS
 62
    7
 10
233.17113103093328
 20
162.16503246410474
 40
0.2036608554221488
  0
CIRCLE
  8
_1-2_
  6
CONTINUOUS
 62
    7
 10
231.15147771062078
 20
168.56352934966216
 40
0.2036608554221488
  0
CIRCLE
  8
_1-2_
  6
CONTINUOUS
 62
    7
 10
231.15147771062078
 20
170.90360486829604
 40
0.2036608554221488
  0
CIRCLE
  8
_1-2_
  6
CONTINUOUS
 62
    7
 10
231.15147771062078
 20
174.50373056772594
 40
0.2036608554221488
  0
CIRCLE
  8
_1-2_
  6
CONTINUOUS
 62
    7
 10
232.23152779244089
 20
171.26362981023016
 40
0.2036608554221488
  0
CIRCLE
  8
_1-2_
  6
CONTINUOUS
 62
    7
 10
226.83132687130492
 20
171.26362981023016
 40
0.2036608554221488
  0
CIRCLE
  8
_1-2_
  6
CONTINUOUS
 62
    7
 10
228.63140209301099
 20
170.18357972841005
 40
0.2036608554221488
  0
CIRCLE
  8
_1-2_
  6
CONTINUOUS
 62
    7
 10
229.35142723289698
 20
168.38352925068625
 40
0.2036608554221488
  0
CIRCLE
  8
_1-2_
  6
CONTINUOUS
 62
    7
 10
231.87150285050677
 20
168.20351677971919
 40
0.2036608554221488
  0
CIRCLE
  8
_1-2_
  6
CONTINUOUS
 62
    7
 10
230.79147751266893
 20
164.60339108028927
 40
0.2036608554221488
  0
CIRCLE
  8
_1-2_
  6
CONTINUOUS
 62
    7
 10
223.95122631176099
 20
156.68311454154352
 40
0.2036608554221488
  0
CIRCLE
  8
_1-2_
  6
CONTINUOUS
 62
    7
 10
227.37133954022383
 20
159.48789441907729
 40
0.2036608554221488
  0
CIRCLE
  8
_1-2_
  6
CONTINUOUS
 62
    7
 10
226.47132667335305
 20
160.92794469884925
 40
0.2036608554221488
  0
CIRCLE
  8
_1-2_
  6
CONTINUOUS
 62
    7
 10
228.09138942409209
 20
157.32781899941935
 40
0.2036608554221488
  0
CIRCLE
  8
_1-2_
  6
CONTINUOUS
 62
    7
 10
226.11130173141893
 20
158.04784413930534
 40
0.2036608554221488
  0
CIRCLE
  8
_1-2_
  6
CONTINUOUS
 62
    7
 10
230.07145237278294
 20
158.2278566102724
 40
0.2036608554221488
  0
CIRCLE
  8
_1-2_
  6
CONTINUOUS
 62
    7
 10
232.05151532147383
 20
167.12347906989021
 40
0.2036608554221488
  0
CIRCLE
  8
_1-2_
  6
CONTINUOUS
 62
    7
 10
232.59152799039276
 20
163.16334080051732
 40
0.2036608554221488
  0
CIRCLE
  8
_1-2_
  6
CONTINUOUS
 62
    7
 10
231.15147771062078
 20
161.18327785182643
 40
0.2036608554221488
  0
CIRCLE
  8
_1-2_
  6
CONTINUOUS
 62
    7
 10
229.89143990181589
 20
166.04344136006125
 40
0.2036608554221488
  0
CIRCLE
  8
_1-2_
  6
CONTINUOUS
 62
    7
 10
229.89143990181589
 20
171.0836173392631
 40
0.2036608554221488
  0
CIRCLE
  8
_1-2_
  6
CONTINUOUS
 62
    7
 10
232.77154046135982
 20
173.24369275892104
 40
0.2036608554221488
  0
CIRCLE
  8
_1-2_
  6
CONTINUOUS
 62
    7
 10
233.13154065931167
 20
171.0836173392631
 40
0.2036608554221488
  0
CIRCLE
  8
_1-2_
  6
CONTINUOUS
 62
    7
 10
228.63140209301099
 20
171.62363000818203
 40
0.2036608554221488
  0
CIRCLE
  8
_1-2_
  6
CONTINUOUS
 62
    7
 10
228.81138981999578
 20
172.52366761903505
 40
0.2036608554221488
  0
CIRCLE
  8
_1-2_
  6
CONTINUOUS
 62
    7
 10
232.05151532147383
 20
157.8678440403294
 40
0.2036608554221488
  0
ARC
  8
_1-0_
  6
CONTINUOUS
 62
    3
 10
227.56352605046453
 20
208.35890486433701
 40
3.7873487214784367
 50
330.13520812988281
 51
17.106918334960948
  0
TEXT
  8
_0-0_
 62
    7
 10
141.89189395389042
 20
14.594594594594582
 40
2.5
 41
1
 50
0
  1
縮尺
  0
TEXT
  8
_0-0_
 62
    7
 10
377.10214563318203
 20
22.865493362014362
 40
2.5
 41
1
 50
0
  1
ＮＯ
  0
TEXT
  8
_0-0_
 62
    7
 10
14.594594336844779
 20
24.324324324324323
 40
2.5
 41
1
 50
0
  1
和形
  0
TEXT
  8
_0-0_
 62
    7
 10
383.23801896378802
 20
18.523427086907475
 40
3
 41
1
 50
0
  1
Ｊ
  0
TEXT
  8
_1-0_
 62
    7
 10
169.90681828679266
 20
13.3181144095756
 40
2.5
 41
1
 50
0
  1
1/5
  0
TEXT
  8
_1-2_
 62
    7
 10
289.30082578916807
 20
177.59794080579604
 40
2.5
 41
1
 50
90
  1
300
  0
TEXT
  8
_1-6_
 62
    7
 10
177.55662041741448
 20
224.76696117504224
 40
2.5
 41
1
 50
0
  1
雨押え板　15ｘ90
  0
TEXT
  8
_1-6_
 62
    7
 10
179.92330396497573
 20
206.9291233372044
 40
2.5
 41
1
 50
0
  1
水切鉄板
  0
TEXT
  8
_1-6_
 62
    7
 10
186.1358642578125
 20
187.46966387774495
 40
2.5
 41
1
 50
0
  1
のし瓦
  0
TEXT
  8
_1-6_
 62
    7
 10
179.92330396497573
 20
170.44263685071792
 40
2.5
 41
1
 50
0
  1
面戸漆喰
  0
TEXT
  8
_1-6_
 62
    7
 10
39.721904445338907
 20
15.395235628695104
 40
2.5
 41
1
 50
0
  1
壁際　　6
  0
TEXT
  8
_0-0_
 62
    7
 10
25.556194717819636
 20
20.211577544341225
 40
2.5
 41
1
 50
0
  1
ＲＣ
  0
TEXT
  8
_1-0_
 62
    7
 10
196.71141340925885
 20
242.7208235457137
 40
2.5
 41
1
 50
0
  1
コーキング
  0
TEXT
  8
_1-0_
 62
    7
 10
296.05551642340583
 20
176.80607151340794
 40
2.5
 41
1
 50
0
  1
下葺き材立上がり寸法
  0
TEXT
  8
_1-0_
 62
    7
 10
183.32151052114125
 20
167.29312381228885
 40
2.5
 41
1
 50
0
  1
及び葺き土
  0
POINT
  8
_1-2_
 62
    7
 10
289.80082743876693
 20
209.47297792176943
  0
POINT
  8
_1-2_
 62
    7
 10
289.80082743876693
 20
149.47290368982263
  0
TEXT
  8
_0-0_
 62
    7
 10
394.41408311998521
 20
16.552749839988905
 40
2.5
 41
1
 50
0
  1
26
  0
LINE
  8
_1-1_
  6
CONTINUOUS
 62
    7
 10
102.2889691904729
 20
94.736489224938566
 11
103.52006891202062
 21
92.000720313937705
  0
LINE
  8
_1-1_
  6
CONTINUOUS
 62
    7
 10
142.00315969934115
 20
109.31810560083593
 11
140.7720476058023
 21
112.0538745118368
  0
LINE
  8
_1-1_
  6
CONTINUOUS
 62
    7
 10
140.7720476058023
 20
112.0538745118368
 11
145.14928281220008
 21
114.02363159191492
  0
LINE
  8
_1-1_
  6
CONTINUOUS
 62
    7
 10
145.14928281220008
 20
114.02363159191492
 11
146.38037016175667
 21
111.28786268091406
  0
LINE
  8
_1-1_
  6
CONTINUOUS
 62
    7
 10
146.38037016175667
 20
111.28786268091406
 11
142.00315969934115
 21
109.31810560083593
  0
LINE
  8
_1-1_
  6
CONTINUOUS
 62
    7
 10
184.86347332106834
 20
128.60524796781229
 11
183.63236122752949
 21
131.34101687881312
  0
LINE
  8
_1-1_
  6
CONTINUOUS
 62
    7
 10
183.63236122752949
 20
131.34101687881312
 11
188.0095964339273
 21
133.31077395889125
  0
LINE
  8
_1-1_
  6
CONTINUOUS
 62
    7
 10
188.0095964339273
 20
133.31077395889125
 11
189.24068378348389
 21
130.57500504789041
  0
LINE
  8
_1-1_
  6
CONTINUOUS
 62
    7
 10
189.24068378348389
 20
130.57500504789041
 11
184.86347332106834
 21
128.60524796781229
  0
LINE
  8
_1-1_
  6
CONTINUOUS
 62
    7
 10
227.72378694279553
 20
147.89241507877091
 11
226.49267484925667
 21
150.62815924578948
  0
LINE
  8
_1-1_
  6
CONTINUOUS
 62
    7
 10
226.49267484925667
 20
150.62815924578948
 11
230.86991005565449
 21
152.59792869785875
  0
LINE
  8
_1-1_
  6
CONTINUOUS
 62
    7
 10
230.86991005565449
 20
152.59792869785875
 11
232.10099740521107
 21
149.86215978685789
  0
LINE
  8
_1-1_
  6
CONTINUOUS
 62
    7
 10
232.10099740521107
 20
149.86215978685789
 11
227.72378694279553
 21
147.89241507877091
  0
LINE
  8
_1-1_
  6
CONTINUOUS
 62
    7
 10
226.49267484925667
 20
150.62815924578948
 11
232.10102214919334
 21
149.86213504287562
  0
LINE
  8
_1-1_
  6
CONTINUOUS
 62
    7
 10
183.63236122752949
 20
131.34101687881312
 11
189.24068378348389
 21
130.57500504789041
  0
LINE
  8
_1-1_
  6
CONTINUOUS
 62
    7
 10
140.7720476058023
 20
112.0538745118368
 11
146.38037016175667
 21
111.28786268091406
  0
LINE
  8
_1-b_
  6
CONTINUOUS
 62
    3
 10
103.15765617579807
 20
92.954006974621819
 11
104.84686598497247
 21
93.575749016957133
  0
LINE
  8
_1-b_
  6
CONTINUOUS
 62
    3
 10
102.46681656299189
 20
94.830899889264998
 11
103.15765617579807
 21
92.954006974621819
  0
LINE
  8
_1-1_
  6
CONTINUOUS
 62
    7
 10
142.00315969934115
 20
109.31810560083593
 11
140.77207234978457
 21
112.0538745118368
  0
LINE
  8
_1-1_
  6
CONTINUOUS
 62
    7
 10
140.77207234978457
 20
112.0538745118368
 11
145.14928281220008
 21
114.02363159191492
  0
LINE
  8
_1-1_
  6
CONTINUOUS
 62
    7
 10
145.14928281220008
 20
114.02363159191492
 11
146.38039490573894
 21
111.28786268091406
  0
LINE
  8
_1-1_
  6
CONTINUOUS
 62
    7
 10
146.38039490573894
 20
111.28786268091406
 11
142.00315969934115
 21
109.31810560083593
  0
LINE
  8
_1-1_
  6
CONTINUOUS
 62
    7
 10
140.77207234978457
 20
112.0538745118368
 11
146.38039490573894
 21
111.28786268091406
  0
LINE
  8
_1-b_
  6
CONTINUOUS
 62
    3
 10
146.01796979752527
 20
112.24114934159817
 11
147.70716723470855
 21
112.86289138393349
  0
LINE
  8
_1-b_
  6
CONTINUOUS
 62
    3
 10
145.32714255671024
 20
114.11804225624135
 11
146.01796979752527
 21
112.24114934159817
  0
LINE
  8
_1-1_
  6
CONTINUOUS
 62
    7
 10
140.77207234978457
 20
112.05388688382791
 11
145.14928281220008
 21
114.02364396390604
  0
LINE
  8
_1-1_
  6
CONTINUOUS
 62
    7
 10
184.86347332106834
 20
128.60524796781229
 11
183.63236122752949
 21
131.34101687881312
  0
LINE
  8
_1-1_
  6
CONTINUOUS
 62
    7
 10
183.63236122752949
 20
131.34101687881312
 11
188.0095964339273
 21
133.31077395889125
  0
LINE
  8
_1-1_
  6
CONTINUOUS
 62
    7
 10
188.0095964339273
 20
133.31077395889125
 11
189.24068378348389
 21
130.57500504789041
  0
LINE
  8
_1-1_
  6
CONTINUOUS
 62
    7
 10
189.24068378348389
 20
130.57500504789041
 11
184.86347332106834
 21
128.60524796781229
  0
LINE
  8
_1-1_
  6
CONTINUOUS
 62
    7
 10
183.63236122752949
 20
131.34101687881312
 11
189.24068378348389
 21
130.57500504789041
  0
LINE
  8
_1-b_
  6
CONTINUOUS
 62
    3
 10
132.49330499600501
 20
112.90578507718729
 11
188.18743143445516
 21
133.40518462321768
  0
LINE
  8
_1-b_
  6
CONTINUOUS
 62
    3
 10
188.87828341925245
 20
131.52829170857453
 11
190.567505600418
 21
132.15003375090984
  0
LINE
  8
_1-b_
  6
CONTINUOUS
 62
    3
 10
188.18743143445516
 20
133.40518462321768
 11
188.87828341925245
 21
131.52829170857453
  0
LINE
  8
_1-b_
  6
CONTINUOUS
 62
    3
 10
133.20959379456917
 20
116.15307396153062
 11
187.40797124917222
 21
136.10193227418898
  0
LINE
  8
_1-b_
  6
CONTINUOUS
 62
    3
 10
132.26073630671021
 20
114.09887804197825
 11
132.67806831156665
 21
112.96503454271726
  0
LINE
  8
_1-1_
  6
CONTINUOUS
 62
    7
 10
183.63236122752949
 20
131.34101687881312
 11
188.0095964339273
 21
133.31077395889125
  0
LINE
  8
_1-1_
  6
CONTINUOUS
 62
    7
 10
188.0095964339273
 20
133.31077395889125
 11
189.24068378348389
 21
130.57500504789041
  0
LINE
  8
_1-1_
  6
CONTINUOUS
 62
    7
 10
227.72378694279553
 20
147.89239033478864
 11
226.49267484925667
 21
150.62815924578948
  0
LINE
  8
_1-1_
  6
CONTINUOUS
 62
    7
 10
226.49267484925667
 20
150.62815924578948
 11
230.86991005565449
 21
152.59792869785875
  0
LINE
  8
_1-1_
  6
CONTINUOUS
 62
    7
 10
230.86991005565449
 20
152.59792869785875
 11
232.10099740521107
 21
149.86213504287562
  0
LINE
  8
_1-1_
  6
CONTINUOUS
 62
    7
 10
232.10099740521107
 20
149.86213504287562
 11
227.72378694279553
 21
147.89239033478864
  0
LINE
  8
_1-1_
  6
CONTINUOUS
 62
    7
 10
183.63236122752949
 20
131.34101687881312
 11
189.24068378348389
 21
130.57500504789041
  0
LINE
  8
_1-1_
  6
CONTINUOUS
 62
    7
 10
183.63238597151175
 20
131.34101687881312
 11
188.0095964339273
 21
133.31077395889125
  0
LINE
  8
_1-1_
  6
CONTINUOUS
 62
    7
 10
188.0095964339273
 20
133.31077395889125
 11
189.24070852746615
 21
130.57500504789041
  0
LINE
  8
_1-1_
  6
CONTINUOUS
 62
    7
 10
183.63238597151175
 20
131.34101687881312
 11
189.24070852746615
 21
130.57500504789041
  0
LINE
  8
_1-b_
  6
CONTINUOUS
 62
    3
 10
188.87828341925245
 20
131.52829170857453
 11
190.56748085643574
 21
132.15003375090984
  0
LINE
  8
_1-b_
  6
CONTINUOUS
 62
    3
 10
188.18745617843743
 20
133.40518462321768
 11
188.87828341925245
 21
131.52829170857453
  0
LINE
  8
ADD_LINE
  6
DOT
 62
    3
 10
188.0095964339273
 20
133.31078633088239
 11
188.0095964339273
 21
133.76957687802133
  0
LINE
  8
ADD_LINE
  6
DOT
 62
    3
 10
188.0095964339273
 20
133.31078633088239
 11
188.0095964339273
 21
132.9277494854432
  0
LINE
  8
_1-1_
  6
CONTINUOUS
 62
    7
 10
183.63238597151175
 20
131.34102925080427
 11
188.0095964339273
 21
133.31078633088239
  0
LINE
  8
_1-1_
  6
CONTINUOUS
 62
    7
 10
227.72378694279553
 20
147.89239033478864
 11
226.49267484925667
 21
150.62815924578948
  0
LINE
  8
_1-1_
  6
CONTINUOUS
 62
    7
 10
226.49267484925667
 20
150.62815924578948
 11
230.86991005565449
 21
152.59792869785875
  0
LINE
  8
_1-1_
  6
CONTINUOUS
 62
    7
 10
230.86991005565449
 20
152.59792869785875
 11
232.10099740521107
 21
149.86213504287562
  0
LINE
  8
_1-1_
  6
CONTINUOUS
 62
    7
 10
232.10099740521107
 20
149.86213504287562
 11
227.72378694279553
 21
147.89239033478864
  0
LINE
  8
_1-1_
  6
CONTINUOUS
 62
    7
 10
226.49267484925667
 20
150.62815924578948
 11
232.10099740521107
 21
149.86213504287562
  0
LINE
  8
_1-b_
  6
CONTINUOUS
 62
    3
 10
175.3536186177322
 20
132.19292744416364
 11
231.04774505618235
 21
152.69232699019403
  0
LINE
  8
_1-b_
  6
CONTINUOUS
 62
    3
 10
231.73859704097967
 20
150.81542170355976
 11
233.42781922214519
 21
151.43718848987731
  0
LINE
  8
_1-b_
  6
CONTINUOUS
 62
    3
 10
231.04774505618235
 20
152.69232699019403
 11
231.73859704097967
 21
150.81542170355976
  0
LINE
  8
_1-b_
  6
CONTINUOUS
 62
    3
 10
176.06990741629639
 20
135.44021632850695
 11
230.26828487089944
 21
155.38907464116534
  0
LINE
  8
_1-b_
  6
CONTINUOUS
 62
    3
 10
175.12104992843743
 20
133.38602040895461
 11
175.53838193329383
 21
132.25217690969362
  0
LINE
  8
_1-1_
  6
CONTINUOUS
 62
    7
 10
230.86320443646107
 20
152.61277508721685
 11
232.09429178601766
 21
149.87703092019825
  0
LINE
  8
_1-1_
  6
CONTINUOUS
 62
    7
 10
226.48596923006326
 20
150.64303037912984
 11
232.09429178601766
 21
149.87703092019825
  0
LINE
  8
_1-1_
  6
CONTINUOUS
 62
    7
 10
227.71708132360212
 20
147.90726146812901
 11
226.48596923006326
 21
150.64303037912984
  0
LINE
  8
_1-1_
  6
CONTINUOUS
 62
    7
 10
226.48596923006326
 20
150.64303037912984
 11
230.86320443646107
 21
152.61277508721685
  0
LINE
  8
_1-1_
  6
CONTINUOUS
 62
    7
 10
230.86320443646107
 20
152.61277508721685
 11
232.09429178601766
 21
149.87703092019825
  0
LINE
  8
_1-1_
  6
CONTINUOUS
 62
    7
 10
226.48596923006326
 20
150.64303037912984
 11
232.09429178601766
 21
149.87703092019825
  0
LINE
  8
_1-b_
  6
CONTINUOUS
 62
    3
 10
231.73189142178626
 20
150.83031758088239
 11
233.42111360295178
 21
151.45203487923541
  0
LINE
  8
_1-b_
  6
CONTINUOUS
 62
    3
 10
231.04103943698894
 20
152.70719812353443
 11
231.73189142178626
 21
150.83031758088239
  0
LINE
  8
_1-1_
  6
CONTINUOUS
 62
    7
 10
226.48596923006326
 20
150.64303037912984
 11
230.86320443646107
 21
152.61277508721685
  0
LINE
  8
_1-1_
  6
CONTINUOUS
 62
    7
 10
230.86320443646107
 20
152.61277508721685
 11
232.09429178601766
 21
149.87703092019825
  0
LINE
  8
_1-1_
  6
CONTINUOUS
 62
    7
 10
226.48596923006326
 20
150.64303037912984
 11
232.09429178601766
 21
149.87703092019825
  0
LINE
  8
_1-1_
  6
CONTINUOUS
 62
    7
 10
226.48599397404553
 20
150.64303037912984
 11
230.86320443646107
 21
152.61277508721685
  0
LINE
  8
_1-1_
  6
CONTINUOUS
 62
    7
 10
230.86320443646107
 20
152.61277508721685
 11
232.09431652999993
 21
149.87703092019825
  0
LINE
  8
_1-b_
  6
CONTINUOUS
 62
    3
 10
231.73189142178626
 20
150.83031758088239
 11
233.42108885896951
 21
151.45203487923541
  0
LINE
  8
_1-b_
  6
CONTINUOUS
 62
    3
 10
231.0410641809712
 20
152.70719812353443
 11
231.73189142178626
 21
150.83031758088239
  0
LINE
  8
_1-b_
  6
CONTINUOUS
 62
    3
 10
230.09044987037154
 20
155.8688357132726
 11
230.26157925170602
 21
155.4039457745057
  0
LINE
  8
_1-b_
  6
CONTINUOUS
 62
    3
 10
230.09153860559115
 20
155.8692316169888
 11
230.26828487089944
 21
155.38907464116534
  0
LINE
  8
_1-b_
  6
CONTINUOUS
 62
    3
 10
230.09047461435381
 20
155.86881096929034
 11
230.26157925170602
 21
155.4039457745057
  0
LINE
  8
_1-b_
  6
CONTINUOUS
 62
    3
 10
231.59196420208607
 20
156.42149255712818
 11
233.42108885896951
 21
151.45203487923541
  0
LINE
  8
_1-b_
  6
CONTINUOUS
 62
    3
 10
231.59307768128792
 20
156.42188846084437
 11
233.42781922214519
 21
151.43718848987731
  0
LINE
  8
_1-b_
  6
CONTINUOUS
 62
    3
 10
231.59198894606834
 20
156.42149255712818
 11
233.42111360295178
 21
151.45203487923541
  0
LINE
  8
_1-b_
  6
CONTINUOUS
 62
    3
 10
187.23686661182003
 20
136.56679746897359
 11
187.40797124917222
 21
136.10193227418898
  0
LINE
  8
_1-b_
  6
CONTINUOUS
 62
    3
 10
188.7383561995523
 20
137.11947905681143
 11
190.56748085643574
 21
132.15003375090984
  0
LINE
  8
_1-b_
  6
CONTINUOUS
 62
    3
 10
187.23686661182003
 20
136.56679746897359
 11
187.40797124917222
 21
136.10193227418898
  0
LINE
  8
_1-b_
  6
CONTINUOUS
 62
    3
 10
188.73838094353457
 20
137.11947905681143
 11
190.567505600418
 21
132.15003375090984
  0
LINE
  8
_1-b_
  6
CONTINUOUS
 62
    3
 10
144.37655299009282
 20
117.27966747398838
 11
144.54765762744503
 21
116.81478990721263
  0
LINE
  8
_1-b_
  6
CONTINUOUS
 62
    3
 10
145.87804257782508
 20
117.83232431784396
 11
147.70716723470855
 21
112.86289138393349
  0
LINE
  8
_1-b_
  6
CONTINUOUS
 62
    3
 10
103.01775370008016
 20
98.545181950867601
 11
104.84686598497247
 21
93.575749016957133
  0
LINE
  8
_1-c_
  6
CONTINUOUS
 62
    7
 10
129.77374339338675
 20
120.85572965066703
 11
132.26073630671021
 21
114.09889041396937
  0
LINE
  8
_1-c_
  6
CONTINUOUS
 62
    7
 10
172.63405701511394
 20
140.14284727366109
 11
175.12104992843743
 21
133.38602040895461
  0
LINE
  8
_1-c_
  6
CONTINUOUS
 62
    7
 10
173.58288975899063
 20
142.19704319321346
 11
216.07889772985212
 21
157.83860516534185
  0
LINE
  8
_1-c_
  6
CONTINUOUS
 62
    7
 10
130.72258850925456
 20
122.90991319822825
 11
173.21964809936225
 21
138.55185870208172
  0
LINE
  8
_1-b_
  6
CONTINUOUS
 62
    3
 10
100.92216109820093
 20
97.773862535749373
 11
145.32714255671024
 21
114.11804225624135
  0
LINE
  8
_1-b_
  6
CONTINUOUS
 62
    3
 10
99.770303979852116
 20
100.33354089697193
 11
144.54765762744503
 21
116.81478990721263
  0
LINE
  8
_1-c_
  6
CONTINUOUS
 62
    7
 10
96.80839981494502
 20
106.91557627096896
 11
130.35934684962621
 21
119.26471633510536
  0
LINE
  8
_1-b_
  6
CONTINUOUS
 62
    3
 10
230.09044987037154
 20
155.8688357132726
 11
231.59196420208607
 21
156.42150492911929
  0
LINE
  8
_1-b_
  6
CONTINUOUS
 62
    7
 10
216.07889772985212
 20
157.83860516534185
 11
229.2816928100886
 21
162.69817481800231
  0
LINE
  8
_1-b_
  6
CONTINUOUS
 62
    7
 10
231.59196420208607
 20
156.42149255712818
 11
229.2816928100886
 21
162.69817481800231
  0
ARC
  8
_1-b_
  6
CONTINUOUS
 62
    3
 10
133.76225063842475
 20
114.65154725782494
 40
1.5999999239638045
 50
110.20680236816406
 51
200.20738220214844
  0
ARC
  8
_1-b_
  6
CONTINUOUS
 62
    3
 10
176.62256426015196
 20
133.9386896248013
 40
1.5999999239638045
 50
110.20680236816406
 51
200.20738220214844
  0
ARC
  8
_1-c_
  6
CONTINUOUS
 62
    7
 10
131.27525772510126
 20
121.4083864945226
 40
1.5999999239638045
 50
110.20722961425781
 51
200.20695495605469
  0
ARC
  8
_1-c_
  6
CONTINUOUS
 62
    7
 10
174.13557134682847
 20
140.69550411751666
 40
1.5999999239638045
 50
110.20748901367187
 51
200.20695495605469
  0
LINE
  8
_1-0_
  6
CONTINUOUS
 62
    7
 10
97.172958786423152
 20
89.144513929212422
 11
233.09967082450353
 21
150.31154347014166
  0
LINE
  8
_1-0_
  6
CONTINUOUS
 62
    7
 10
233.09967082450353
 20
150.31154347014166
 11
233.34588164536086
 21
149.76440855413216
  0
LINE
  8
_1-0_
  6
CONTINUOUS
 62
    7
 10
97.419161409945104
 20
88.597368807406042
 11
233.34588164536086
 21
149.76440855413216
  0
ARC
  8
_1-0_
  6
CONTINUOUS
 62
    5
 10
176.2808557458826
 20
153.29798930400128
 40
39.200978665738496
 50
355.01562038025588
 51
11.376220703125046
  0
LINE
  8
_1-2_
  6
CONTINUOUS
 62
    7
 10
148.153078202995
 20
98.533277870216295
 11
116.90385646438138
 21
184.38980514938768
  0
TEXT
  8
_1-0_
 62
    7
 10
60.536884051418838
 20
175.03015910808665
 40
2.5
 41
1
 50
0
  1
※　地域により瓦桟木の大きさは、異なります
  0
TEXT
  8
_1-5_
 62
    7
 10
46.705431111740381
 20
183.65780392208615
 40
2.5
 41
1
 50
0
  1
桟瓦
  0
TEXT
  8
_1-5_
 62
    7
 10
46.389903066910904
 20
178.26098055452914
 40
2.5
 41
1
 50
0
  1
瓦桟　
  0
TEXT
  8
_1-5_
 62
    7
 10
46.391461937793451
 20
171.26098220412797
 40
2.5
 41
1
 50
0
  1
流し桟
  0
TEXT
  8
_1-5_
 62
    7
 10
46.391462968792723
 20
164.26098385372677
 40
2.5
 41
1
 50
0
  1
下葺き材
  0
TEXT
  8
_1-0_
 62
    7
 10
46.956534074749754
 20
157.66983032226562
 40
2.5
 41
1
 50
0
  1
木煉瓦
  0
TEXT
  8
_1-0_
 62
    7
 10
56.69634182225559
 20
157.66983032226562
 40
2.5
 41
1
 50
0
  1
防腐処理
  0
TEXT
  8
_1-0_
 62
    7
 10
60.396245568164545
 20
164.162032668655
 40
2.5
 41
1
 50
0
  1
ゴムアス系ルーフィング
  0
TEXT
  8
_1-0_
 62
    7
 10
60.396246599163817
 20
177.87037205051732
 40
2.5
 41
1
 50
0
  1
15×30　（樹脂桟木）
  0
LINE
  8
_1-2_
  6
CONTINUOUS
 62
    7
 10
78.465643218825733
 20
184.38980514938768
 11
67.314844937462908
 21
184.38980514938768
  0
LINE
  8
_1-2_
  6
CONTINUOUS
 62
    7
 10
95.575624446391188
 20
159.41668123812289
 11
77.75376952515785
 21
159.41668123812289
  0
LINE
  8
_1-2_
  6
CONTINUOUS
 62
    7
 10
78.465643218825733
 20
184.38980514938768
 11
116.90385646438138
 21
184.38980514938768
  0
LINE
  8
_1-2_
  6
CONTINUOUS
 62
    7
 10
112.57135033585487
 20
179.08588306323904
 11
118.8343263145706
 21
179.08588306323904
  0
LINE
  8
_1-2_
  6
CONTINUOUS
 62
    7
 10
79.725681027630628
 20
172.59313634923987
 11
121.19749296232804
 21
172.59313634923987
  0
LINE
  8
_1-2_
  6
CONTINUOUS
 62
    7
 10
123.90818597130023
 20
165.14556884765625
 11
91.324371489161265
 21
165.14556884765625
  0
LINE
  8
_1-2_
  6
CONTINUOUS
 62
    7
 10
95.575624446391188
 20
159.41668123812289
 11
125.99333062947854
 21
159.41668123812289
  0
LINE
  8
_1-2_
  6
CONTINUOUS
 62
    7
 10
123.90818597130023
 20
165.14556884765625
 11
116.54347600163641
 21
165.14556884765625
  0
ENDSEC
  0
EOF
