  0
SECTION
  2
HEADER
  9
$ACADVER
  1
AC1009
  9
$INSBASE
 10
0
 20
0
 30
0
  9
$EXTMIN
 10
0
 20
0
  9
$EXTMAX
 10
420
 20
297
  9
$LIMMIN
 10
0
 20
0
  9
$LIMMAX
 10
420
 20
297
  9
$LTSCALE
 40
1
  0
ENDSEC
  0
SECTION
  2
TABLES
  0
TABLE
  2
LTYPE
 70
     9
  0
LTYPE
  2
CONTINUOUS
 70
    64
  3
実線
 72
    65
 73
     0
 40
0.0
  0
LTYPE
  2
DASHED1
 70
    64
  3
--  --  --  --  --  --  --  --  
 72
    65
 73
     2
 40
2.5
 49
1.25
 49
-1.25
  0
LTYPE
  2
DASHED2
 70
    64
  3
----    ----    ----    ----    
 72
    65
 73
     2
 40
5.0
 49
2.5
 49
-2.5
  0
LTYPE
  2
DASHED3
 70
    64
  3
------  ------  ------  ------  
 72
    65
 73
     2
 40
5.0
 49
3.75
 49
-1.25
  0
LTYPE
  2
CENTER1
 70
    64
  3
----- - ----- - ----- - ----- - 
 72
    65
 73
     4
 40
10.0
 49
6.25
 49
-1.25
 49
1.25
 49
-1.25
  0
LTYPE
  2
CENTER2
 70
    64
  3
----------  --  ----------  --  
 72
    65
 73
     4
 40
20.0
 49
12.5
 49
-2.5
 49
2.5
 49
-2.5
  0
LTYPE
  2
PHANTOM1
 70
    64
  3
--- - - --- - - --- - - --- - - 
 72
    65
 73
     6
 40
10.0
 49
3.25
 49
-1.25
 49
1.25
 49
-1.25
 49
1.25
 49
-1.25
  0
LTYPE
  2
PHANTOM2
 70
    64
  3
--------  -  -  --------  -  -  
 72
    65
 73
     6
 40
20.0
 49
10.0
 49
-2.5
 49
1.25
 49
-2.5
 49
1.25
 49
-2.5
  0
LTYPE
  2
DOT
 70
    64
  3
-   -   -   -   -   -   -   -   
 72
    65
 73
     2
 40
2.5
 49
0.625
 49
-1.875
  0
LTYPE
  2
DUMMY
 70
    64
  3
ダミー
 72
    65
 73
     0
 40
0.0
  0
LTYPE
  2
RAND1
 70
    64
  3
ランダム線1
 72
    65
 73
     4
 40
10.0
 49
1.0
 49
-2.0
 49
3.0
 49
-4.0
  0
LTYPE
  2
RAND2
 70
    64
  3
ランダム線2
 72
    65
 73
     4
 40
14.0
 49
2.0
 49
-3.0
 49
4.0
 49
-5.0
  0
LTYPE
  2
RAND3
 70
    64
  3
ランダム線3
 72
    65
 73
     4
 40
18.0
 49
3.0
 49
-4.0
 49
5.0
 49
-6.0
  0
LTYPE
  2
RAND4
 70
    64
  3
ランダム線4
 72
    65
 73
     4
 40
22.0
 49
4.0
 49
-5.0
 49
6.0
 49
-7.0
  0
LTYPE
  2
RAND5
 70
    64
  3
ランダム線5
 72
    65
 73
     4
 40
26.0
 49
5.0
 49
-6.0
 49
7.0
 49
-8.0
  0
LTYPE
  2
LONG1
 70
    64
  3
----------  --  ----------  --  
 72
    65
 73
     4
 40
40.0
 49
32.5
 49
-2.5
 49
2.5
 49
-2.5
  0
LTYPE
  2
LONG2
 70
    64
  3
--------  -  -  --------  -  -  
 72
    65
 73
     6
 40
40.0
 49
30.0
 49
-2.5
 49
1.25
 49
-2.5
 49
1.25
 49
-2.5
  0
LTYPE
  2
LONG3
 70
    64
  3
+++++++++++++++..+++++++++++++++
 72
    65
 73
     2
 40
40.0
 49
37.5
 49
-2.5
  0
LTYPE
  2
LONG4
 70
    64
  3
+++++++++++++++..+++++++++++++++
 72
    65
 73
     2
 40
80.0
 49
75.0
 49
-5.0
  0
LTYPE
  2
LONG5
 70
    64
  3
----------  --  ----------  --  
 72
    65
 73
     4
 40
60.0
 49
37.5
 49
-7.5
 49
7.5
 49
-7.5
  0
LTYPE
  2
dashed
 70
   64
  3
-------   -------------   ------
 72
   65
 73
    2
 40
7.5
 49
6
 49
-1.5
  0
LTYPE
  2
dashed_spaced
 70
   64
  3
----        --------        ----
 72
   65
 73
    2
 40
12
 49
6
 49
-6
  0
LTYPE
  2
long_dashed_dotted
 70
   64
  3
------------- --- --------------
 72
   65
 73
    4
 40
15.25
 49
12
 49
-1.5
 49
0.25
 49
-1.5
  0
LTYPE
  2
long_dashed_double-dotted
 70
   64
  3
----------- --- --- ------------
 72
   65
 73
    6
 40
17
 49
12
 49
-1.5
 49
0.25
 49
-1.5
 49
0.25
 49
-1.5
  0
LTYPE
  2
long_dashed_triplicate-dotted
 70
   64
  3
--------- --- --- --- ----------
 72
   65
 73
    8
 40
18.75
 49
12
 49
-1.5
 49
0.25
 49
-1.5
 49
0.25
 49
-1.5
 49
0.25
 49
-1.5
  0
LTYPE
  2
dotted
 70
   64
  3
   -       -       -       -    
 72
   65
 73
    2
 40
1.75
 49
0.25
 49
-1.5
  0
LTYPE
  2
chain
 70
   64
  3
-------------- -- --------------
 72
   65
 73
    4
 40
18.5
 49
12
 49
-1.5
 49
3.5
 49
-1.5
  0
LTYPE
  2
chain_double_dash
 70
   64
  3
------------ -- -- -------------
 72
   65
 73
    6
 40
23.5
 49
12
 49
-1.5
 49
3.5
 49
-1.5
 49
3.5
 49
-1.5
  0
LTYPE
  2
dashed_dotted
 70
   64
  3
-----------     -     ----------
 72
   65
 73
    4
 40
9.25
 49
6
 49
-1.5
 49
0.25
 49
-1.5
  0
LTYPE
  2
double-dashed_dotted
 70
   64
  3
------   -----------   -   -----
 72
   65
 73
    6
 40
16.75
 49
6
 49
-1.5
 49
6
 49
-1.5
 49
0.25
 49
-1.5
  0
LTYPE
  2
dashed_double-dotted
 70
   64
  3
---------    -    -    ---------
 72
   65
 73
    6
 40
11
 49
6
 49
-1.5
 49
0.25
 49
-1.5
 49
0.25
 49
-1.5
  0
LTYPE
  2
double-dashed_double-dotted
 70
   64
  3
-----   ---------   -   -   ----
 72
   65
 73
    8
 40
18.5
 49
6
 49
-1.5
 49
6
 49
-1.5
 49
0.25
 49
-1.5
 49
0.25
 49
-1.5
  0
LTYPE
  2
dashed_triplicate-dotted
 70
   64
  3
-------    -    -    -    ------
 72
   65
 73
    8
 40
12.75
 49
6
 49
-1.5
 49
0.25
 49
-1.5
 49
0.25
 49
-1.5
 49
0.25
 49
-1.5
  0
LTYPE
  2
double-dashed_triplicate-dotted
 70
   64
  3
-----  ---------  -  -  -  -----
 72
   65
 73
   10
 40
20.25
 49
6
 49
-1.5
 49
6
 49
-1.5
 49
0.25
 49
-1.5
 49
0.25
 49
-1.5
 49
0.25
 49
-1.5
  0
LTYPE
  2
undefined
 70
   64
  3
--------------------------------
 72
   65
 73
    0
 40
0
  0
ENDTAB
  0
TABLE
  2
STYLE
  5
3
100
AcDbSymbolTable
 70
     1
  0
STYLE
  5
10
100
AcDbSymbolTableRecord
100
AcDbTextStyleTableRecord
  2
STANDARD
 70
     0
 40
0.0
 41
1.0
 50
0.0
 71
     0
 42
0.2
  3
txt
  4
bigfont.shx
  0
STYLE
  5
26
100
AcDbSymbolTableRecord
100
AcDbTextStyleTableRecord
  2
TATEGAKI
 70
    68
 40
0.0
 41
1.0
 50
0.0
 71
     0
 42
1.0
  3
txt
  4
bigfont.shx
  0
ENDTAB
  0
TABLE
  2
LAYER
 70
   11
  0
LAYER
  2
_0-0_
 70
   64
 62
    7
  6
CONTINUOUS
  0
LAYER
  2
_1-0_
 70
   64
 62
    7
  6
CONTINUOUS
  0
LAYER
  2
_1-1_
 70
   64
 62
    7
  6
CONTINUOUS
  0
LAYER
  2
_1-2_
 70
   64
 62
    7
  6
CONTINUOUS
  0
LAYER
  2
_1-3_
 70
   64
 62
    7
  6
CONTINUOUS
  0
LAYER
  2
_1-4_
 70
   64
 62
    7
  6
CONTINUOUS
  0
LAYER
  2
_1-5_
 70
   64
 62
    7
  6
CONTINUOUS
  0
LAYER
  2
_1-a_
 70
   64
 62
    7
  6
CONTINUOUS
  0
LAYER
  2
_1-b_
 70
   64
 62
    7
  6
CONTINUOUS
  0
LAYER
  2
_1-c_
 70
   64
 62
    7
  6
CONTINUOUS
  0
LAYER
  2
ADD_LINE
 70
   64
 62
    7
  6
CONTINUOUS
  0
ENDTAB
  0
ENDSEC
  0
SECTION
  2
BLOCKS
  0
ENDSEC
  0
SECTION
  2
ENTITIES
  0
LINE
  8
_0-0_
  6
CONTINUOUS
 62
    5
 10
6.7567526327597136
 20
280.13513513513516
 11
406.75677325274495
 21
280.13513513513516
  0
LINE
  8
_0-0_
  6
CONTINUOUS
 62
    5
 10
406.75677325274495
 20
30.135133073136615
 11
6.7567402607685949
 21
30.135133073136615
  0
LINE
  8
_0-0_
  6
CONTINUOUS
 62
    5
 10
371.75678150073907
 20
10.13513513513513
 11
371.75678150073907
 21
30.135133073136615
  0
LINE
  8
_0-0_
  6
CONTINUOUS
 62
    5
 10
137.02703939901818
 20
30.135133073136615
 11
137.02703939901818
 21
10.13513513513513
  0
LINE
  8
_0-0_
  6
CONTINUOUS
 62
    5
 10
214.86486486486487
 20
30.135133073136615
 11
214.86486486486487
 21
10.13513513513513
  0
LINE
  8
_0-0_
  6
CONTINUOUS
 62
    5
 10
137.02703939901818
 20
20.135134104135886
 11
214.86486486486487
 21
20.135134104135886
  0
LINE
  8
_0-0_
  6
CONTINUOUS
 62
    5
 10
396.48648648648651
 20
25.945945945945951
 11
383.91891891891896
 21
13.378379924877265
  0
LINE
  8
_1-1_
  6
CONTINUOUS
 62
    7
 10
263.76414530986068
 20
159.16460191881336
 11
262.53303321632183
 21
161.90037082981419
  0
LINE
  8
_1-1_
  6
CONTINUOUS
 62
    7
 10
262.53303321632183
 20
161.90037082981419
 11
266.91026842271958
 21
163.87012790989232
  0
LINE
  8
_1-1_
  6
CONTINUOUS
 62
    7
 10
266.91026842271958
 20
163.87012790989232
 11
268.1413557722762
 21
161.13435899889149
  0
LINE
  8
_1-1_
  6
CONTINUOUS
 62
    7
 10
268.1413557722762
 20
161.13435899889149
 11
263.76414530986068
 21
159.16460191881336
  0
LINE
  8
_1-1_
  6
CONTINUOUS
 62
    7
 10
306.62445893158787
 20
178.45174428578972
 11
305.39334683804901
 21
181.18751319679055
  0
LINE
  8
_1-1_
  6
CONTINUOUS
 62
    7
 10
305.39334683804901
 20
181.18751319679055
 11
309.77058204444683
 21
183.15727027686867
  0
LINE
  8
_1-1_
  6
CONTINUOUS
 62
    7
 10
309.77058204444683
 20
183.15727027686867
 11
311.00166939400339
 21
180.42150136586784
  0
LINE
  8
_1-1_
  6
CONTINUOUS
 62
    7
 10
311.00166939400339
 20
180.42150136586784
 11
306.62445893158787
 21
178.45174428578972
  0
LINE
  8
_1-1_
  6
CONTINUOUS
 62
    7
 10
349.48477255331505
 20
197.73891139674834
 11
348.2536604597762
 21
200.4746555637669
  0
LINE
  8
_1-1_
  6
CONTINUOUS
 62
    7
 10
352.63089566617401
 20
202.44442501583617
 11
353.86198301573057
 21
199.70865610483531
  0
LINE
  8
_1-1_
  6
CONTINUOUS
 62
    7
 10
353.86198301573057
 20
199.70865610483531
 11
349.48477255331505
 21
197.73891139674834
  0
LINE
  8
_1-1_
  6
CONTINUOUS
 62
    7
 10
348.2536604597762
 20
200.4746555637669
 11
353.86200775971287
 21
199.70863136085305
  0
LINE
  8
_1-1_
  6
CONTINUOUS
 62
    7
 10
305.39334683804901
 20
181.18751319679055
 11
311.00166939400339
 21
180.42150136586784
  0
LINE
  8
_1-1_
  6
CONTINUOUS
 62
    7
 10
262.53303321632183
 20
161.90037082981419
 11
268.1413557722762
 21
161.13435899889149
  0
LINE
  8
_1-1_
  6
CONTINUOUS
 62
    7
 10
263.76414530986068
 20
159.16460191881336
 11
262.53305796030406
 21
161.90037082981419
  0
LINE
  8
_1-1_
  6
CONTINUOUS
 62
    7
 10
262.53305796030406
 20
161.90037082981419
 11
266.91026842271958
 21
163.87012790989232
  0
LINE
  8
_1-1_
  6
CONTINUOUS
 62
    7
 10
266.91026842271958
 20
163.87012790989232
 11
268.14138051625844
 21
161.13435899889149
  0
LINE
  8
_1-1_
  6
CONTINUOUS
 62
    7
 10
268.14138051625844
 20
161.13435899889149
 11
263.76414530986068
 21
159.16460191881336
  0
LINE
  8
_1-1_
  6
CONTINUOUS
 62
    7
 10
262.53305796030406
 20
161.90037082981419
 11
268.14138051625844
 21
161.13435899889149
  0
LINE
  8
_1-b_
  6
CONTINUOUS
 62
    3
 10
267.77895540804479
 20
162.0876456595756
 11
269.46815284522808
 21
162.70938770191091
  0
LINE
  8
_1-b_
  6
CONTINUOUS
 62
    3
 10
267.08812816722974
 20
163.96453857421875
 11
267.77895540804479
 21
162.0876456595756
  0
LINE
  8
_1-b_
  6
CONTINUOUS
 62
    3
 10
212.11026578336148
 20
146.71242791253169
 11
266.30864323796453
 21
166.66128622519005
  0
LINE
  8
_1-1_
  6
CONTINUOUS
 62
    7
 10
262.53305796030406
 20
161.90038320180534
 11
266.91026842271958
 21
163.87014028188347
  0
LINE
  8
_1-1_
  6
CONTINUOUS
 62
    7
 10
306.62445893158787
 20
178.45174428578972
 11
305.39334683804901
 21
181.18751319679055
  0
LINE
  8
_1-1_
  6
CONTINUOUS
 62
    7
 10
305.39334683804901
 20
181.18751319679055
 11
309.77058204444683
 21
183.15727027686867
  0
LINE
  8
_1-1_
  6
CONTINUOUS
 62
    7
 10
309.77058204444683
 20
183.15727027686867
 11
311.00166939400339
 21
180.42150136586784
  0
LINE
  8
_1-1_
  6
CONTINUOUS
 62
    7
 10
311.00166939400339
 20
180.42150136586784
 11
306.62445893158787
 21
178.45174428578972
  0
LINE
  8
_1-1_
  6
CONTINUOUS
 62
    7
 10
305.39334683804901
 20
181.18751319679055
 11
311.00166939400339
 21
180.42150136586784
  0
LINE
  8
_1-b_
  6
CONTINUOUS
 62
    3
 10
310.63926902977198
 20
181.37478802655195
 11
312.3284912109375
 21
181.99653006888727
  0
LINE
  8
_1-b_
  6
CONTINUOUS
 62
    3
 10
309.94841704497469
 20
183.2516809411951
 11
310.63926902977198
 21
181.37478802655195
  0
LINE
  8
_1-b_
  6
CONTINUOUS
 62
    3
 10
254.9705794050887
 20
165.99957027950802
 11
309.16895685969172
 21
185.94842859216641
  0
LINE
  8
_1-b_
  6
CONTINUOUS
 62
    3
 10
254.02172191722974
 20
163.94537435995568
 11
254.43905392208617
 21
162.81153086069469
  0
LINE
  8
_1-1_
  6
CONTINUOUS
 62
    7
 10
305.39334683804901
 20
181.18751319679055
 11
309.77058204444683
 21
183.15727027686867
  0
LINE
  8
_1-1_
  6
CONTINUOUS
 62
    7
 10
309.77058204444683
 20
183.15727027686867
 11
311.00166939400339
 21
180.42150136586784
  0
LINE
  8
_1-1_
  6
CONTINUOUS
 62
    7
 10
349.48477255331505
 20
197.73888665276607
 11
348.2536604597762
 21
200.4746555637669
  0
LINE
  8
_1-1_
  6
CONTINUOUS
 62
    7
 10
348.2536604597762
 20
200.4746555637669
 11
352.63089566617401
 21
202.44442501583617
  0
LINE
  8
_1-1_
  6
CONTINUOUS
 62
    7
 10
352.63089566617401
 20
202.44442501583617
 11
353.86198301573057
 21
199.70863136085305
  0
LINE
  8
_1-1_
  6
CONTINUOUS
 62
    7
 10
353.86198301573057
 20
199.70863136085305
 11
349.48477255331505
 21
197.73888665276607
  0
LINE
  8
_1-1_
  6
CONTINUOUS
 62
    7
 10
348.2536604597762
 20
200.4746555637669
 11
353.86198301573057
 21
199.70863136085305
  0
LINE
  8
_1-1_
  6
CONTINUOUS
 62
    7
 10
305.39334683804901
 20
181.18751319679055
 11
311.00166939400339
 21
180.42150136586784
  0
LINE
  8
_1-1_
  6
CONTINUOUS
 62
    7
 10
305.39337158203125
 20
181.18751319679055
 11
309.77058204444683
 21
183.15727027686867
  0
LINE
  8
_1-1_
  6
CONTINUOUS
 62
    7
 10
309.77058204444683
 20
183.15727027686867
 11
311.00169413798568
 21
180.42150136586784
  0
LINE
  8
_1-1_
  6
CONTINUOUS
 62
    7
 10
305.39337158203125
 20
181.18751319679055
 11
311.00169413798568
 21
180.42150136586784
  0
LINE
  8
_1-b_
  6
CONTINUOUS
 62
    3
 10
310.63926902977198
 20
181.37478802655195
 11
312.32846646695526
 21
181.99653006888727
  0
LINE
  8
_1-b_
  6
CONTINUOUS
 62
    3
 10
309.94844178895693
 20
183.2516809411951
 11
310.63926902977198
 21
181.37478802655195
  0
LINE
  8
ADD_LINE
  6
DOT
 62
    3
 10
309.77058204444683
 20
183.15728264885982
 11
309.77058204444683
 21
183.61607319599875
  0
LINE
  8
ADD_LINE
  6
DOT
 62
    3
 10
309.77058204444683
 20
183.15728264885982
 11
309.77058204444683
 21
182.77424580342063
  0
LINE
  8
_1-1_
  6
CONTINUOUS
 62
    7
 10
305.39337158203125
 20
181.18752556878169
 11
309.77058204444683
 21
183.15728264885982
  0
LINE
  8
_1-1_
  6
CONTINUOUS
 62
    7
 10
349.48477255331505
 20
197.73888665276607
 11
348.2536604597762
 21
200.4746555637669
  0
LINE
  8
_1-1_
  6
CONTINUOUS
 62
    7
 10
348.2536604597762
 20
200.4746555637669
 11
352.63089566617401
 21
202.44442501583617
  0
LINE
  8
_1-1_
  6
CONTINUOUS
 62
    7
 10
352.63089566617401
 20
202.44442501583617
 11
353.86198301573057
 21
199.70863136085305
  0
LINE
  8
_1-1_
  6
CONTINUOUS
 62
    7
 10
353.86198301573057
 20
199.70863136085305
 11
349.48477255331505
 21
197.73888665276607
  0
LINE
  8
_1-1_
  6
CONTINUOUS
 62
    7
 10
348.2536604597762
 20
200.4746555637669
 11
353.86198301573057
 21
199.70863136085305
  0
LINE
  8
_1-b_
  6
CONTINUOUS
 62
    3
 10
353.49958265149917
 20
200.66191802153716
 11
355.18880483266474
 21
201.28368480785474
  0
LINE
  8
_1-b_
  6
CONTINUOUS
 62
    3
 10
352.80873066670188
 20
202.53882330817146
 11
353.49958265149917
 21
200.66191802153716
  0
LINE
  8
_1-b_
  6
CONTINUOUS
 62
    3
 10
297.83089302681589
 20
185.28671264648437
 11
352.02927048141896
 21
205.23557095914273
  0
LINE
  8
_1-b_
  6
CONTINUOUS
 62
    3
 10
296.88203553895693
 20
183.23251672693203
 11
297.29936754381339
 21
182.09867322767104
  0
LINE
  8
_1-b_
  6
CONTINUOUS
 62
    3
 10
340.68450102934969
 20
204.58873851879224
 11
374.01308626741979
 21
216.85601311760982
  0
LINE
  8
_1-b_
  6
CONTINUOUS
 62
    3
 10
351.85143548089104
 20
205.71533203125
 11
352.02256486222552
 21
205.25044209248313
  0
LINE
  8
_1-b_
  6
CONTINUOUS
 62
    3
 10
351.85252421611068
 20
205.71572793496622
 11
352.02927048141896
 21
205.23557095914273
  0
LINE
  8
_1-b_
  6
CONTINUOUS
 62
    3
 10
351.85146022487334
 20
205.71530728726773
 11
352.02256486222552
 21
205.25044209248313
  0
LINE
  8
_1-b_
  6
CONTINUOUS
 62
    3
 10
353.35294981260557
 20
206.26798887510557
 11
355.18207446948907
 21
201.29853119721284
  0
LINE
  8
_1-b_
  6
CONTINUOUS
 62
    3
 10
353.35406329180745
 20
206.2683847788218
 11
355.18880483266474
 21
201.28368480785474
  0
LINE
  8
_1-b_
  6
CONTINUOUS
 62
    3
 10
353.35297455658787
 20
206.26798887510557
 11
355.1820992134713
 21
201.29853119721284
  0
LINE
  8
_1-b_
  6
CONTINUOUS
 62
    3
 10
308.99785222233953
 20
186.41329378695102
 11
309.16895685969172
 21
185.94842859216641
  0
LINE
  8
_1-b_
  6
CONTINUOUS
 62
    3
 10
310.49934181007183
 20
186.96597537478885
 11
312.32846646695526
 21
181.99653006888727
  0
LINE
  8
_1-b_
  6
CONTINUOUS
 62
    3
 10
308.99785222233953
 20
186.41329378695102
 11
309.16895685969172
 21
185.94842859216641
  0
LINE
  8
_1-b_
  6
CONTINUOUS
 62
    3
 10
310.49936655405406
 20
186.96597537478885
 11
312.3284912109375
 21
181.99653006888727
  0
LINE
  8
_1-b_
  6
CONTINUOUS
 62
    3
 10
266.13753860061234
 20
167.12616379196581
 11
266.30864323796453
 21
166.66128622519005
  0
LINE
  8
_1-b_
  6
CONTINUOUS
 62
    3
 10
267.63902818834458
 20
167.67882063582138
 11
269.46815284522808
 21
162.70938770191091
  0
LINE
  8
_1-c_
  6
CONTINUOUS
 62
    7
 10
337.24865062816724
 20
209.2913818359375
 11
339.73564354149073
 21
202.5345178552576
  0
LINE
  8
_1-c_
  6
CONTINUOUS
 62
    7
 10
338.19748337204396
 20
211.34557775548987
 11
371.5260933540963
 21
223.61285235430745
  0
LINE
  8
_1-c_
  6
CONTINUOUS
 62
    7
 10
295.34387536951016
 20
192.04353951119089
 11
337.83988334037161
 21
207.68510148331927
  0
LINE
  8
_1-c_
  6
CONTINUOUS
 62
    7
 10
252.48358649176521
 20
172.75640951620568
 11
294.98063370988177
 21
188.39835502005914
  0
LINE
  8
_1-0_
  6
CONTINUOUS
 62
    7
 10
193.67441538217906
 20
125.86969324060389
 11
377.69313502956084
 21
208.67812697951859
  0
LINE
  8
_1-1_
  6
DASHED1
 62
    3
 10
193.67441538217906
 20
126.74695401578337
 11
377.36485661687078
 21
209.40767855257602
  0
LINE
  8
_1-1_
  6
CONTINUOUS
 62
    7
 10
162.06778861380914
 20
141.84721663191513
 11
166.44499907622466
 21
139.87745955183701
  0
LINE
  8
_1-1_
  6
CONTINUOUS
 62
    7
 10
123.58468545449747
 20
159.16460191881336
 11
124.81579754803633
 21
161.90037082981419
  0
LINE
  8
_1-1_
  6
CONTINUOUS
 62
    7
 10
124.81579754803633
 20
161.90037082981419
 11
120.43856234163852
 21
163.87012790989232
  0
LINE
  8
_1-1_
  6
CONTINUOUS
 62
    7
 10
120.43856234163852
 20
163.87012790989232
 11
119.20747499208193
 21
161.13435899889149
  0
LINE
  8
_1-1_
  6
CONTINUOUS
 62
    7
 10
119.20747499208193
 20
161.13435899889149
 11
123.58468545449747
 21
159.16460191881336
  0
LINE
  8
_1-1_
  6
CONTINUOUS
 62
    7
 10
80.72437183277026
 20
178.45174428578972
 11
81.955483926309114
 21
181.18751319679055
  0
LINE
  8
_1-1_
  6
CONTINUOUS
 62
    7
 10
81.955483926309114
 20
181.18751319679055
 11
77.578248719911301
 21
183.15727027686867
  0
LINE
  8
_1-1_
  6
CONTINUOUS
 62
    7
 10
77.578248719911301
 20
183.15727027686867
 11
76.34716137035474
 21
180.42150136586784
  0
LINE
  8
_1-1_
  6
CONTINUOUS
 62
    7
 10
76.34716137035474
 20
180.42150136586784
 11
80.72437183277026
 21
178.45174428578972
  0
LINE
  8
_1-1_
  6
CONTINUOUS
 62
    7
 10
37.864058211043073
 20
197.73891139674834
 11
39.095170304581927
 21
200.4746555637669
  0
LINE
  8
_1-1_
  6
CONTINUOUS
 62
    7
 10
39.095170304581927
 20
200.4746555637669
 11
34.717935098184114
 21
202.44442501583617
  0
LINE
  8
_1-1_
  6
CONTINUOUS
 62
    7
 10
34.717935098184114
 20
202.44442501583617
 11
33.486847748627525
 21
199.70865610483531
  0
LINE
  8
_1-1_
  6
CONTINUOUS
 62
    7
 10
33.486847748627525
 20
199.70865610483531
 11
37.864058211043073
 21
197.73891139674834
  0
LINE
  8
_1-1_
  6
CONTINUOUS
 62
    7
 10
39.095170304581927
 20
200.4746555637669
 11
33.48682300464526
 21
199.70863136085305
  0
LINE
  8
_1-1_
  6
CONTINUOUS
 62
    7
 10
81.955483926309114
 20
181.18751319679055
 11
76.34716137035474
 21
180.42150136586784
  0
LINE
  8
_1-1_
  6
CONTINUOUS
 62
    7
 10
124.81579754803633
 20
161.90037082981419
 11
119.20747499208193
 21
161.13435899889149
  0
LINE
  8
_1-1_
  6
CONTINUOUS
 62
    7
 10
123.58468545449747
 20
159.16460191881336
 11
124.81577280405406
 21
161.90037082981419
  0
LINE
  8
_1-1_
  6
CONTINUOUS
 62
    7
 10
124.81577280405406
 20
161.90037082981419
 11
120.43856234163852
 21
163.87012790989232
  0
LINE
  8
_1-1_
  6
CONTINUOUS
 62
    7
 10
120.43856234163852
 20
163.87012790989232
 11
119.20745024809968
 21
161.13435899889149
  0
LINE
  8
_1-1_
  6
CONTINUOUS
 62
    7
 10
119.20745024809968
 20
161.13435899889149
 11
123.58468545449747
 21
159.16460191881336
  0
LINE
  8
_1-1_
  6
CONTINUOUS
 62
    7
 10
124.81577280405406
 20
161.90037082981419
 11
119.20745024809968
 21
161.13435899889149
  0
LINE
  8
_1-b_
  6
CONTINUOUS
 62
    3
 10
119.56987535631335
 20
162.0876456595756
 11
117.88067791913008
 21
162.70938770191091
  0
LINE
  8
_1-b_
  6
CONTINUOUS
 62
    3
 10
120.26070259712839
 20
163.96453857421875
 11
119.56987535631335
 21
162.0876456595756
  0
LINE
  8
_1-b_
  6
CONTINUOUS
 62
    3
 10
175.23856498099664
 20
146.71242791253169
 11
121.04018752639358
 21
166.66128622519005
  0
LINE
  8
_1-1_
  6
CONTINUOUS
 62
    7
 10
124.81577280405406
 20
161.90038320180534
 11
120.43856234163852
 21
163.87014028188347
  0
LINE
  8
_1-1_
  6
CONTINUOUS
 62
    7
 10
80.72437183277026
 20
178.45174428578972
 11
81.955483926309114
 21
181.18751319679055
  0
LINE
  8
_1-1_
  6
CONTINUOUS
 62
    7
 10
81.955483926309114
 20
181.18751319679055
 11
77.578248719911301
 21
183.15727027686867
  0
LINE
  8
_1-1_
  6
CONTINUOUS
 62
    7
 10
77.578248719911301
 20
183.15727027686867
 11
76.34716137035474
 21
180.42150136586784
  0
LINE
  8
_1-1_
  6
CONTINUOUS
 62
    7
 10
76.34716137035474
 20
180.42150136586784
 11
80.72437183277026
 21
178.45174428578972
  0
LINE
  8
_1-1_
  6
CONTINUOUS
 62
    7
 10
81.955483926309114
 20
181.18751319679055
 11
76.34716137035474
 21
180.42150136586784
  0
LINE
  8
_1-b_
  6
CONTINUOUS
 62
    3
 10
76.709561734586146
 20
181.37478802655195
 11
75.020339553420627
 21
181.99653006888727
  0
LINE
  8
_1-b_
  6
CONTINUOUS
 62
    3
 10
77.400413719383437
 20
183.2516809411951
 11
76.709561734586146
 21
181.37478802655195
  0
LINE
  8
_1-b_
  6
CONTINUOUS
 62
    3
 10
132.37825135926943
 20
165.99957027950802
 11
78.179873904666408
 21
185.94842859216641
  0
LINE
  8
_1-b_
  6
CONTINUOUS
 62
    3
 10
133.32710884712839
 20
163.94537435995568
 11
132.90977684227198
 21
162.81153086069469
  0
LINE
  8
_1-1_
  6
CONTINUOUS
 62
    7
 10
81.955483926309114
 20
181.18751319679055
 11
77.578248719911301
 21
183.15727027686867
  0
LINE
  8
_1-1_
  6
CONTINUOUS
 62
    7
 10
77.578248719911301
 20
183.15727027686867
 11
76.34716137035474
 21
180.42150136586784
  0
LINE
  8
_1-1_
  6
CONTINUOUS
 62
    7
 10
37.864058211043073
 20
197.73888665276607
 11
39.095170304581927
 21
200.4746555637669
  0
LINE
  8
_1-1_
  6
CONTINUOUS
 62
    7
 10
39.095170304581927
 20
200.4746555637669
 11
34.717935098184114
 21
202.44442501583617
  0
LINE
  8
_1-1_
  6
CONTINUOUS
 62
    7
 10
34.717935098184114
 20
202.44442501583617
 11
33.486847748627525
 21
199.70863136085305
  0
LINE
  8
_1-1_
  6
CONTINUOUS
 62
    7
 10
33.486847748627525
 20
199.70863136085305
 11
37.864058211043073
 21
197.73888665276607
  0
LINE
  8
_1-1_
  6
CONTINUOUS
 62
    7
 10
39.095170304581927
 20
200.4746555637669
 11
33.486847748627525
 21
199.70863136085305
  0
LINE
  8
_1-1_
  6
CONTINUOUS
 62
    7
 10
81.955483926309114
 20
181.18751319679055
 11
76.34716137035474
 21
180.42150136586784
  0
LINE
  8
_1-1_
  6
CONTINUOUS
 62
    7
 10
81.955459182326877
 20
181.18751319679055
 11
77.578248719911301
 21
183.15727027686867
  0
LINE
  8
_1-1_
  6
CONTINUOUS
 62
    7
 10
77.578248719911301
 20
183.15727027686867
 11
76.347136626372475
 21
180.42150136586784
  0
LINE
  8
_1-1_
  6
CONTINUOUS
 62
    7
 10
81.955459182326877
 20
181.18751319679055
 11
76.347136626372475
 21
180.42150136586784
  0
LINE
  8
_1-b_
  6
CONTINUOUS
 62
    3
 10
76.709561734586146
 20
181.37478802655195
 11
75.020364297402864
 21
181.99653006888727
  0
LINE
  8
_1-b_
  6
CONTINUOUS
 62
    3
 10
77.400388975401199
 20
183.2516809411951
 11
76.709561734586146
 21
181.37478802655195
  0
LINE
  8
ADD_LINE
  6
DOT
 62
    3
 10
77.578248719911301
 20
183.15728264885982
 11
77.578248719911301
 21
183.61607319599875
  0
LINE
  8
ADD_LINE
  6
DOT
 62
    3
 10
77.578248719911301
 20
183.15728264885982
 11
77.578248719911301
 21
182.77424580342063
  0
LINE
  8
_1-1_
  6
CONTINUOUS
 62
    7
 10
81.955459182326877
 20
181.18752556878169
 11
77.578248719911301
 21
183.15728264885982
  0
LINE
  8
_1-1_
  6
CONTINUOUS
 62
    7
 10
37.864058211043073
 20
197.73888665276607
 11
39.095170304581927
 21
200.4746555637669
  0
LINE
  8
_1-1_
  6
CONTINUOUS
 62
    7
 10
39.095170304581927
 20
200.4746555637669
 11
34.717935098184114
 21
202.44442501583617
  0
LINE
  8
_1-1_
  6
CONTINUOUS
 62
    7
 10
34.717935098184114
 20
202.44442501583617
 11
33.486847748627525
 21
199.70863136085305
  0
LINE
  8
_1-1_
  6
CONTINUOUS
 62
    7
 10
33.486847748627525
 20
199.70863136085305
 11
37.864058211043073
 21
197.73888665276607
  0
LINE
  8
_1-1_
  6
CONTINUOUS
 62
    7
 10
39.095170304581927
 20
200.4746555637669
 11
33.486847748627525
 21
199.70863136085305
  0
LINE
  8
_1-b_
  6
CONTINUOUS
 62
    3
 10
34.54010009765625
 20
202.53882330817146
 11
33.849248112858959
 21
200.66191802153716
  0
LINE
  8
_1-b_
  6
CONTINUOUS
 62
    3
 10
89.51793773754224
 20
185.28671264648437
 11
35.319560282939193
 21
205.23557095914273
  0
LINE
  8
_1-b_
  6
CONTINUOUS
 62
    3
 10
47.613187222867396
 20
202.53454259923987
 11
47.19585521801099
 21
201.40067435599664
  0
LINE
  8
ADD_LINE
  6
DOT
 62
    3
 10
22.220986855996614
 20
236.60101813239021
 11
-4.918559306376693
 21
176.290938918655
  0
LINE
  8
_1-b_
  6
CONTINUOUS
 62
    3
 10
46.664329735008437
 20
204.58873851879224
 11
13.335744496938332
 21
216.85601311760982
  0
LINE
  8
_1-b_
  6
CONTINUOUS
 62
    3
 10
35.497395283467057
 20
205.71533203125
 11
35.326265902132604
 21
205.25044209248313
  0
LINE
  8
_1-b_
  6
CONTINUOUS
 62
    3
 10
35.496306548247475
 20
205.71572793496622
 11
35.319560282939193
 21
205.23557095914273
  0
LINE
  8
_1-b_
  6
CONTINUOUS
 62
    3
 10
35.497370539484791
 20
205.71530728726773
 11
35.326265902132604
 21
205.25044209248313
  0
LINE
  8
_1-b_
  6
CONTINUOUS
 62
    3
 10
33.994767472550677
 20
206.2683847788218
 11
32.160025931693411
 21
201.28368480785474
  0
LINE
  8
_1-b_
  6
CONTINUOUS
 62
    3
 10
78.350978542018595
 20
186.41329378695102
 11
78.179873904666408
 21
185.94842859216641
  0
LINE
  8
_1-b_
  6
CONTINUOUS
 62
    3
 10
76.849488954286301
 20
186.96597537478885
 11
75.020364297402864
 21
181.99653006888727
  0
LINE
  8
_1-b_
  6
CONTINUOUS
 62
    3
 10
78.350978542018595
 20
186.41329378695102
 11
78.179873904666408
 21
185.94842859216641
  0
LINE
  8
_1-b_
  6
CONTINUOUS
 62
    3
 10
76.849464210304063
 20
186.96597537478885
 11
75.020339553420627
 21
181.99653006888727
  0
LINE
  8
_1-b_
  6
CONTINUOUS
 62
    3
 10
121.21129216374578
 20
167.12616379196581
 11
121.04018752639358
 21
166.66128622519005
  0
LINE
  8
_1-b_
  6
CONTINUOUS
 62
    3
 10
119.70980257601352
 20
167.67882063582138
 11
117.88067791913008
 21
162.70938770191091
  0
LINE
  8
_1-c_
  6
CONTINUOUS
 62
    7
 10
92.953788138724661
 20
189.98934359163852
 11
90.466795225401185
 21
183.23251672693203
  0
LINE
  8
_1-c_
  6
CONTINUOUS
 62
    7
 10
49.151347392314193
 20
211.34557775548987
 11
15.822737410261823
 21
223.61285235430745
  0
LINE
  8
_1-c_
  6
CONTINUOUS
 62
    7
 10
92.004955394847983
 20
192.04353951119089
 11
49.508947423986484
 21
207.68510148331927
  0
LINE
  8
_1-c_
  6
CONTINUOUS
 62
    7
 10
134.86524427259292
 20
172.75640951620568
 11
92.368197054476354
 21
188.39835502005914
  0
LINE
  8
_1-0_
  6
CONTINUOUS
 62
    7
 10
193.67441538217906
 20
125.86969324060389
 11
9.6556957347972912
 21
208.67812697951859
  0
LINE
  8
_1-0_
  6
CONTINUOUS
 62
    7
 10
167.53205170502534
 20
139.38829576646961
 11
10.31225256017737
 21
210.1372053816512
  0
LINE
  8
_1-2_
  6
CONTINUOUS
 62
    7
 10
167.53205170502534
 20
139.38829576646961
 11
167.28583670951227
 21
138.84114445866766
  0
LINE
  8
_1-0_
  6
CONTINUOUS
 62
    7
 10
167.28583670951227
 20
138.84114445866766
 11
10.066049936655418
 21
209.59006644584039
  0
LINE
  8
_1-0_
  6
CONTINUOUS
 62
    7
 10
219.37485153610643
 20
139.18941600902662
 11
377.03657820418078
 21
210.1372053816512
  0
LINE
  8
_1-0_
  6
CONTINUOUS
 62
    7
 10
219.62105415962839
 20
138.64227707321581
 11
377.28278082770271
 21
209.59006644584039
  0
LINE
  8
_1-2_
  6
CONTINUOUS
 62
    7
 10
219.37485153610643
 20
139.18941600902662
 11
219.62105415962839
 21
138.64227707321581
  0
LINE
  8
_1-1_
  6
CONTINUOUS
 62
    7
 10
219.67271959459461
 20
142.61322846283784
 11
219.67274433857688
 21
142.61324083482899
  0
LINE
  8
_1-2_
  6
CONTINUOUS
 62
    7
 10
219.11726668074326
 20
145.16076990076013
 11
227.47449720228042
 21
148.52089134422511
  0
LINE
  8
_1-1_
  6
CONTINUOUS
 62
    7
 10
225.28104215054901
 20
141.84721663191513
 11
220.90383168813347
 21
139.87745955183701
  0
LINE
  8
_1-2_
  6
CONTINUOUS
 62
    7
 10
219.11726668074326
 20
145.16076990076013
 11
221.39527191986909
 21
140.09860889331716
  0
LINE
  8
_1-2_
  6
CONTINUOUS
 62
    7
 10
227.47449720228042
 20
148.52089134422511
 11
229.60255390888938
 21
143.79188331397805
  0
LINE
  8
_1-2_
  6
CONTINUOUS
 62
    7
 10
219.11726668074326
 20
145.16076990076013
 11
229.60255390888938
 21
143.79188331397805
  0
LINE
  8
_1-1_
  6
CONTINUOUS
 62
    7
 10
167.67611116976352
 20
142.61322846283784
 11
167.67608642578125
 21
142.61324083482899
  0
LINE
  8
_1-2_
  6
CONTINUOUS
 62
    7
 10
168.23156408361487
 20
145.16076990076013
 11
159.87433356207771
 21
148.52089134422511
  0
LINE
  8
_1-1_
  6
CONTINUOUS
 62
    7
 10
162.06778861380914
 20
141.84721663191513
 11
166.44499907622466
 21
139.87745955183701
  0
LINE
  8
_1-2_
  6
CONTINUOUS
 62
    7
 10
168.23156408361487
 20
145.16076990076013
 11
165.95355884448904
 21
140.09860889331716
  0
LINE
  8
_1-2_
  6
CONTINUOUS
 62
    7
 10
159.87433356207771
 20
148.52089134422511
 11
157.74627685546875
 21
143.79188331397805
  0
LINE
  8
_1-2_
  6
CONTINUOUS
 62
    7
 10
168.23156408361487
 20
145.16076990076013
 11
157.74627685546875
 21
143.79188331397805
  0
LINE
  8
_1-2_
  6
CONTINUOUS
 62
    3
 10
166.41216381176099
 20
140.17099741342906
 11
193.54582090635557
 21
127.96084429766681
  0
LINE
  8
_1-2_
  6
CONTINUOUS
 62
    3
 10
166.41216381176099
 20
140.17099741342906
 11
168.70096979914484
 21
145.25716008366766
  0
LINE
  8
_1-2_
  6
CONTINUOUS
 62
    3
 10
168.67441950617609
 20
145.19815805796031
 11
164.59126652898016
 21
146.83983467720651
  0
LINE
  8
_1-2_
  6
CONTINUOUS
 62
    3
 10
164.59126652898016
 20
146.83983467720651
 11
168.32410657728042
 21
146.15467380832982
  0
LINE
  8
_1-2_
  6
CONTINUOUS
 62
    3
 10
193.54582090635557
 20
127.96084429766681
 11
220.79015783361487
 21
140.22079467773437
  0
LINE
  8
_1-2_
  6
CONTINUOUS
 62
    3
 10
220.79015783361487
 20
140.22079467773437
 11
218.60125567461995
 21
145.08496671109586
  0
LINE
  8
_1-2_
  6
CONTINUOUS
 62
    3
 10
218.60125567461995
 20
145.08496671109586
 11
218.54644775390625
 21
145.20675659179687
  0
LINE
  8
_1-2_
  6
CONTINUOUS
 62
    3
 10
218.54644775390625
 20
145.20675659179687
 11
223.04007865287164
 21
147.01347557274073
  0
LINE
  8
_1-2_
  6
CONTINUOUS
 62
    3
 10
223.04007865287164
 20
147.01347557274073
 11
220.71889516469597
 21
146.79889575855154
  0
LINE
  8
_1-3_
  6
CONTINUOUS
 62
    7
 10
217.54800332559122
 20
74.966311068148229
 11
244.66374577702703
 21
87.168391459697006
  0
LINE
  8
_1-3_
  6
CONTINUOUS
 62
    7
 10
172.25536861935177
 20
80.420825030352617
 11
145.03641901789484
 21
92.669349876610013
  0
LINE
  8
_1-3_
  6
CONTINUOUS
 62
    7
 10
265.54524189717063
 20
156.68604670344172
 11
290.72580698374156
 21
225.86903340107688
  0
LINE
  8
_1-3_
  6
CONTINUOUS
 62
    7
 10
290.72580698374156
 20
225.86903340107688
 11
299.71695358688771
 21
250.57201488597974
  0
LINE
  8
_1-3_
  6
CONTINUOUS
 62
    7
 10
301.98711498363599
 20
236.60492768158784
 11
294.63335191881339
 21
236.60492768158784
  0
LINE
  8
_1-3_
  6
CONTINUOUS
 62
    7
 10
297.14459393475511
 20
243.5045149519637
 11
301.83377652554901
 21
243.5045149519637
  0
LINE
  8
_1-3_
  6
CONTINUOUS
 62
    7
 10
299.71695358688771
 20
250.57201488597974
 11
301.37381063925255
 21
250.57201488597974
  0
LINE
  8
_1-3_
  6
CONTINUOUS
 62
    7
 10
299.71695358688771
 20
250.57201488597974
 11
301.99622076910896
 21
256.83424666121203
  0
LINE
  8
_1-3_
  6
CONTINUOUS
 62
    7
 10
301.99622076910896
 20
256.83424666121203
 11
303.77855455553214
 21
256.83424666121203
  0
LINE
  8
_1-3_
  6
CONTINUOUS
 62
    7
 10
162.07508808857688
 20
203.45910149651607
 11
188.7723850559544
 21
130.10889414194469
  0
LINE
  8
_1-3_
  6
CONTINUOUS
 62
    7
 10
162.07508808857688
 20
203.45910149651607
 11
155.85795222101984
 21
220.54054054054055
  0
LINE
  8
_1-3_
  6
DASHED1
 62
    3
 10
193.63185573268584
 20
126.32551450987121
 11
118.50250656540329
 21
160.13372472814612
  0
LINE
  8
_1-0_
  6
CONTINUOUS
 62
    7
 10
219.70008643897805
 20
132.31764097471495
 11
217.73034173089107
 21
136.69486380912164
  0
LINE
  8
_1-0_
  6
CONTINUOUS
 62
    7
 10
217.73034173089107
 20
136.69486380912164
 11
234.14490570893159
 21
144.08141265044341
  0
LINE
  8
_1-0_
  6
CONTINUOUS
 62
    7
 10
234.14490570893159
 20
144.08141265044341
 11
236.11467516100086
 21
139.70418981603675
  0
LINE
  8
_1-0_
  6
CONTINUOUS
 62
    7
 10
236.11467516100086
 20
139.70418981603675
 11
219.70008643897805
 21
132.31764097471495
  0
LINE
  8
_1-0_
  6
CONTINUOUS
 62
    7
 10
151.23415560335727
 20
139.70421456001901
 11
153.20390031144427
 21
144.08143739442568
  0
LINE
  8
_1-0_
  6
CONTINUOUS
 62
    7
 10
153.20390031144427
 20
144.08143739442568
 11
169.61848903346706
 21
136.69486380912164
  0
LINE
  8
_1-0_
  6
CONTINUOUS
 62
    7
 10
169.61848903346706
 20
136.69486380912164
 11
167.64873195338893
 21
132.31764097471495
  0
LINE
  8
_1-0_
  6
CONTINUOUS
 62
    7
 10
167.64873195338893
 20
132.31764097471495
 11
151.23415560335727
 21
139.70421456001901
  0
LINE
  8
_1-0_
  6
CONTINUOUS
 62
    7
 10
153.20390031144427
 20
144.08142502243456
 11
167.64873195338893
 21
132.31764097471495
  0
LINE
  8
_1-0_
  6
CONTINUOUS
 62
    7
 10
219.70008643897805
 20
132.31764097471495
 11
234.14490570893159
 21
144.08141265044341
  0
LINE
  8
_1-0_
  6
CONTINUOUS
 62
    7
 10
292.50205375052786
 20
230.7492395349451
 11
301.48387187236068
 21
230.7492395349451
  0
LINE
  8
_1-3_
  6
CONTINUOUS
 62
    7
 10
193.67441538217906
 20
114.90384076092695
 11
5.5520439147949219
 21
199.55891789616766
  0
LINE
  8
_1-3_
  6
CONTINUOUS
 62
    7
 10
193.67441538217906
 20
114.90384076092695
 11
381.79680076805323
 21
199.55891789616766
  0
LINE
  8
_1-c_
  6
CONTINUOUS
 62
    7
 10
212.06161911423143
 20
154.36675612990922
 11
252.12034483213685
 21
169.11121265308279
  0
LINE
  8
_1-c_
  6
CONTINUOUS
 62
    7
 10
175.28721165012669
 20
154.36675612990922
 11
135.2284859322213
 21
169.11121265308279
  0
LINE
  8
_1-b_
  6
CONTINUOUS
 62
    3
 10
175.77292364996833
 20
143.53209624419341
 11
175.77009046399917
 21
143.52438849371833
  0
LINE
  8
_1-b_
  6
CONTINUOUS
 62
    3
 10
175.77293602195948
 20
143.53209624419341
 11
120.26070259712839
 21
163.96453857421875
  0
LINE
  8
_1-3_
  6
CONTINUOUS
 62
    7
 10
175.77293602195948
 20
143.53209624419341
 11
175.64004846521328
 21
146.49640057538008
  0
LINE
  8
_1-3_
  6
CONTINUOUS
 62
    7
 10
175.64004846521328
 20
146.49640057538008
 11
175.28721165012669
 21
154.36675612990922
  0
LINE
  8
_1-3_
  6
CONTINUOUS
 62
    7
 10
211.57589474239867
 20
143.53209624419341
 11
212.06161911423143
 21
154.36675612990922
  0
LINE
  8
_1-b_
  6
CONTINUOUS
 62
    3
 10
211.57589474239867
 20
143.53209624419341
 11
267.08812816722974
 21
163.96453857421875
  0
LINE
  8
_1-b_
  6
CONTINUOUS
 62
    3
 10
254.43623310810813
 20
162.81923861116977
 11
309.94841704497469
 21
183.2516809411951
  0
LINE
  8
_1-c_
  6
CONTINUOUS
 62
    7
 10
251.53472900390625
 20
170.70222596864443
 11
254.43623310810813
 21
162.81923861116977
  0
LINE
  8
_1-c_
  6
CONTINUOUS
 62
    7
 10
294.39504262563344
 20
189.98934359163852
 11
297.29652198585308
 21
182.10638097814612
  0
LINE
  8
_1-b_
  6
CONTINUOUS
 62
    3
 10
339.73564354149073
 20
202.53454259923987
 11
340.15012998838682
 21
201.40839447846284
  0
LINE
  8
_1-b_
  6
CONTINUOUS
 62
    3
 10
340.15012998838682
 20
201.40839447846284
 11
375.16494338576859
 21
214.29634712837839
  0
LINE
  8
_1-b_
  6
CONTINUOUS
 62
    3
 10
132.91261002824115
 20
162.81923861116977
 11
77.400413719383437
 21
183.2516809411951
  0
LINE
  8
_1-c_
  6
CONTINUOUS
 62
    7
 10
135.81410176045188
 20
170.70222596864443
 11
132.91261002824115
 21
162.81923861116977
  0
LINE
  8
_1-b_
  6
CONTINUOUS
 62
    3
 10
90.466795225401185
 20
183.23251672693203
 11
90.052302592509506
 21
182.10638097814612
  0
LINE
  8
_1-b_
  6
CONTINUOUS
 62
    3
 10
90.052302592509506
 20
182.10638097814612
 11
34.54010009765625
 21
202.53882330817146
  0
LINE
  8
_1-b_
  6
CONTINUOUS
 62
    3
 10
47.198697682973489
 20
201.40839447846284
 11
12.183887378589532
 21
214.29634712837839
  0
LINE
  8
_1-c_
  6
CONTINUOUS
 62
    7
 10
50.100180136190886
 20
209.2913818359375
 11
47.198697682973489
 21
201.40839447846284
  0
LINE
  8
_1-3_
  6
CONTINUOUS
 62
    7
 10
193.67441538217906
 20
88.585788623706719
 11
-4.2967136486156505
 21
177.6728037241343
  0
LINE
  8
_1-3_
  6
CONTINUOUS
 62
    7
 10
193.67441538217906
 20
88.585788623706719
 11
391.64554905247047
 21
177.6728037241343
  0
LINE
  8
_1-3_
  6
CONTINUOUS
 62
    7
 10
54.796693131730365
 20
177.39882598052154
 11
36.646320239917657
 21
159.24843453072214
  0
LINE
  8
_1-3_
  6
CONTINUOUS
 62
    7
 10
53.236189146299637
 20
178.10104782516893
 11
35.085803882495782
 21
159.95066874736065
  0
LINE
  8
_1-3_
  6
CONTINUOUS
 62
    7
 10
51.675678974873307
 20
178.80328204180745
 11
33.525299897065025
 21
160.65290296399917
  0
LINE
  8
_1-3_
  6
CONTINUOUS
 62
    7
 10
125.92956130569047
 20
145.38902076514992
 11
107.77918222788219
 21
127.23864168734164
  0
LINE
  8
_1-3_
  6
CONTINUOUS
 62
    7
 10
127.49007766311234
 20
144.68679892050255
 11
109.33969858530406
 21
126.53641984269426
  0
LINE
  8
_1-3_
  6
CONTINUOUS
 62
    7
 10
129.05058164854307
 20
143.98456470386404
 11
110.90020257073481
 21
125.83418562605576
  0
LINE
  8
_1-3_
  6
CONTINUOUS
 62
    7
 10
327.60505470069683
 20
175.17262226826438
 11
279.75407780827703
 21
127.3216453758446
  0
LINE
  8
_1-3_
  6
CONTINUOUS
 62
    7
 10
335.8332206107475
 20
178.87531177417654
 11
287.98219423036318
 21
131.02429776578336
  0
LINE
  8
_1-3_
  6
CONTINUOUS
 62
    7
 10
331.7191129117399
 20
177.02395464922932
 11
283.86808653135557
 21
129.17294064083615
  0
LINE
  8
_1-3_
  6
CONTINUOUS
 62
    7
 10
225.69800299567146
 20
129.3144514754012
 11
244.66374577702703
 21
87.168391459697006
  0
LINE
  8
_1-3_
  6
CONTINUOUS
 62
    7
 10
198.58227291622677
 20
117.11237726984798
 11
217.54800332559122
 21
74.966311068148229
  0
LINE
  8
_1-3_
  6
CONTINUOUS
 62
    7
 10
185.91598923141893
 20
110.77774460251267
 11
172.25536861935177
 21
80.420825030352617
  0
LINE
  8
_1-3_
  6
CONTINUOUS
 62
    7
 10
188.76657022012247
 20
117.11237726984798
 11
185.91598923141893
 21
110.77774460251267
  0
LINE
  8
_1-3_
  6
CONTINUOUS
 62
    7
 10
161.54762061866555
 20
129.36089593010979
 11
145.03641901789484
 21
92.669349876610013
  0
LINE
  8
_1-1_
  6
CONTINUOUS
 62
    7
 10
348.2536604597762
 20
200.4746555637669
 11
352.63089566617401
 21
202.44442501583617
  0
LINE
  8
_1-b_
  6
CONTINUOUS
 62
    3
 10
297.29652198585308
 20
182.10638097814612
 11
352.80873066670188
 21
202.53882330817146
  0
LINE
  8
_1-b_
  6
CONTINUOUS
 62
    3
 10
33.849248112858959
 20
200.66191802153716
 11
32.160025931693411
 21
201.28368480785474
  0
LINE
  8
_1-3_
  6
CONTINUOUS
 62
    5
 10
137.02703939901818
 20
10.13513513513513
 11
6.7567402607685949
 21
10.13513513513513
  0
LINE
  8
_1-3_
  6
CONTINUOUS
 62
    5
 10
137.02703939901818
 20
10.13513513513513
 11
406.75677325274495
 21
10.13513513513513
  0
LINE
  8
_1-3_
  6
DASHED1
 62
    3
 10
193.63185573268584
 20
126.32551450987121
 11
239.22793826541385
 21
146.84375659839529
  0
LINE
  8
_1-1_
  6
DASHED1
 62
    3
 10
193.67441538217906
 20
126.74695401578337
 11
148.20213936470651
 21
147.20948502824115
  0
LINE
  8
_1-4_
  6
DASHED1
 62
    7
 10
193.64713514173354
 20
126.03029405748522
 11
239.30885108741555
 21
146.57806808884081
  0
LINE
  8
_1-4_
  6
DASHED1
 62
    7
 10
193.64713514173354
 20
126.03029405748522
 11
148.05106498099664
 21
146.5485361460093
  0
LINE
  8
_1-a_
  6
CONTINUOUS
 62
    7
 10
250.58025463207349
 20
121.61636352539062
 11
246.16060824007602
 21
131.43783156936234
  0
LINE
  8
_1-a_
  6
CONTINUOUS
 62
    7
 10
204.98418447133659
 20
101.09812143686656
 11
200.564525707348
 21
110.91958948083827
  0
LINE
  8
_1-a_
  6
CONTINUOUS
 62
    7
 10
250.58025463207349
 20
121.61636352539062
 11
204.98418447133659
 21
101.09812143686656
  0
LINE
  8
_1-a_
  6
CONTINUOUS
 62
    7
 10
136.49419011296453
 20
121.19183102169553
 11
142.03624828441724
 21
133.50752959380279
  0
LINE
  8
_1-a_
  6
CONTINUOUS
 62
    7
 10
181.96646613043708
 20
100.72930000923776
 11
187.50853667388091
 21
113.04501095333616
  0
LINE
  8
_1-a_
  6
CONTINUOUS
 62
    7
 10
136.49419011296453
 20
121.19183102169553
 11
181.96646613043708
 21
100.72930000923776
  0
ARC
  8
_1-b_
  6
CONTINUOUS
 62
    3
 10
255.52323624894427
 20
164.49804357580237
 40
1.5999999239638045
 50
110.20680236816406
 51
200.20738220214844
  0
ARC
  8
_1-b_
  6
CONTINUOUS
 62
    3
 10
298.38354987067146
 20
183.78518594277872
 40
1.5999999239638045
 50
110.20680236816406
 51
200.20738220214844
  0
ARC
  8
_1-b_
  6
CONTINUOUS
 62
    3
 10
341.23715787320526
 20
203.08719944309544
 40
1.5999999239638045
 50
110.20680236816406
 51
200.20738220214844
  0
ARC
  8
_1-c_
  6
CONTINUOUS
 62
    7
 10
253.03624333562078
 20
171.2548828125
 40
1.5999999239638045
 50
110.20722961425781
 51
200.20695495605469
  0
ARC
  8
_1-c_
  6
CONTINUOUS
 62
    7
 10
295.89655695734797
 20
190.54200043549409
 40
1.5999999239638045
 50
110.20748901367187
 51
200.20695495605469
  0
ARC
  8
_1-c_
  6
CONTINUOUS
 62
    7
 10
338.75016495988177
 20
209.84403867979307
 40
1.5999999239638045
 50
110.20748901367187
 51
200.20695495605469
  0
ARC
  8
_1-b_
  6
CONTINUOUS
 62
    3
 10
131.82559451541385
 20
164.49804357580237
 40
1.5999999239638045
 50
339.79261779785156
 51
69.793197631835938
  0
ARC
  8
_1-b_
  6
CONTINUOUS
 62
    3
 10
88.965280893686653
 20
183.78518594277872
 40
1.5999999239638045
 50
339.79261779785156
 51
69.793197631835938
  0
ARC
  8
_1-b_
  6
CONTINUOUS
 62
    3
 10
46.111672891152864
 20
203.08719944309544
 40
1.5999999239638045
 50
339.79261779785156
 51
69.793197631835938
  0
ARC
  8
_1-c_
  6
CONTINUOUS
 62
    7
 10
134.31258742873734
 20
171.2548828125
 40
1.5999999239638045
 50
339.79304504394526
 51
69.792770385742131
  0
ARC
  8
_1-c_
  6
CONTINUOUS
 62
    7
 10
91.452273807010144
 20
190.54200043549409
 40
1.5999999239638045
 50
339.79304504394526
 51
69.792510986328125
  0
ARC
  8
_1-c_
  6
CONTINUOUS
 62
    7
 10
48.598665804476354
 20
209.84403867979307
 40
1.5999999239638045
 50
339.79304504394526
 51
69.792510986328125
  0
ARC
  8
_1-b_
  6
CONTINUOUS
 62
    3
 10
174.68590813714107
 20
145.21090120882602
 40
1.5999999239638045
 50
53.389724731445355
 51
69.79319763183598
  0
ARC
  8
_1-b_
  6
CONTINUOUS
 62
    3
 10
174.68590813714107
 20
145.21090120882602
 40
1.5999999239638045
 50
53.415969848632855
 51
69.79319763183598
  0
ARC
  8
_1-b_
  6
CONTINUOUS
 62
    3
 10
212.66292262721709
 20
145.21090120882602
 40
1.5999999239638045
 50
110.20680236816406
 51
126.60992431640625
  0
CIRCLE
  8
_1-4_
  6
CONTINUOUS
 62
    7
 10
276.54782681851776
 20
157.10756044130068
 40
0.1627906593116554
  0
CIRCLE
  8
_1-4_
  6
CONTINUOUS
 62
    7
 10
274.14162300728464
 20
155.31307735958615
 40
0.1627906593116554
  0
CIRCLE
  8
_1-4_
  6
CONTINUOUS
 62
    7
 10
273.53252513988599
 20
154.68260069151182
 40
0.1627906593116554
  0
CIRCLE
  8
_1-4_
  6
CONTINUOUS
 62
    7
 10
275.73864911053636
 20
156.92258680188979
 40
0.1627906593116554
  0
CIRCLE
  8
_1-4_
  6
CONTINUOUS
 62
    7
 10
273.40798867715375
 20
156.94656372070312
 40
0.1627906593116554
  0
CIRCLE
  8
_1-4_
  6
CONTINUOUS
 62
    7
 10
271.85631829339104
 20
156.428127804318
 40
0.1627906593116554
  0
CIRCLE
  8
_1-4_
  6
CONTINUOUS
 62
    7
 10
269.45008973817568
 20
154.63364472260346
 40
0.1627906593116554
  0
CIRCLE
  8
_1-4_
  6
CONTINUOUS
 62
    7
 10
269.80494318781672
 20
152.65156513935813
 40
0.1627906593116554
  0
CIRCLE
  8
_1-4_
  6
CONTINUOUS
 62
    7
 10
278.37254704655828
 20
155.42873073268581
 40
0.1627906593116554
  0
CIRCLE
  8
_1-4_
  6
CONTINUOUS
 62
    7
 10
280.07273081186656
 20
156.01386405326227
 40
0.1627906593116554
  0
CIRCLE
  8
_1-4_
  6
CONTINUOUS
 62
    7
 10
281.4545585013725
 20
157.70517710092906
 40
0.1627906593116554
  0
CIRCLE
  8
_1-4_
  6
CONTINUOUS
 62
    7
 10
278.89360582506333
 20
157.44727057379646
 40
0.1627906593116554
  0
CIRCLE
  8
_1-4_
  6
CONTINUOUS
 62
    7
 10
277.46904527818833
 20
158.23509422508448
 40
0.1627906593116554
  0
CIRCLE
  8
_1-4_
  6
CONTINUOUS
 62
    7
 10
273.39289484797297
 20
156.58287666939401
 40
0.1627906593116554
  0
CIRCLE
  8
_1-4_
  6
CONTINUOUS
 62
    7
 10
272.53836142050255
 20
155.30682950406461
 40
0.1627906593116554
  0
CIRCLE
  8
_1-4_
  6
CONTINUOUS
 62
    7
 10
275.26918153505068
 20
154.39184652792443
 40
0.1627906593116554
  0
CIRCLE
  8
_1-4_
  6
CONTINUOUS
 62
    7
 10
272.94475658519849
 20
152.8125742319468
 40
0.1627906593116554
  0
CIRCLE
  8
_1-4_
  6
CONTINUOUS
 62
    7
 10
271.4962438634924
 20
151.26974982184333
 40
0.1627906593116554
  0
CIRCLE
  8
_1-4_
  6
CONTINUOUS
 62
    7
 10
267.71345808699328
 20
154.92439888619089
 40
0.1627906593116554
  0
CIRCLE
  8
_1-4_
  6
CONTINUOUS
 62
    7
 10
268.79828375739021
 20
156.48232949746622
 40
0.1627906593116554
  0
CIRCLE
  8
_1-4_
  6
CONTINUOUS
 62
    7
 10
276.14143165382183
 20
159.60181571341852
 40
0.1627906593116554
  0
CIRCLE
  8
_1-4_
  6
CONTINUOUS
 62
    7
 10
288.06008828652875
 20
162.58162214949326
 40
0.1627906593116554
  0
CIRCLE
  8
_1-4_
  6
CONTINUOUS
 62
    7
 10
285.65388447529563
 20
160.78715143976984
 40
0.1627906593116554
  0
CIRCLE
  8
_1-4_
  6
CONTINUOUS
 62
    7
 10
285.04478660789698
 20
160.15667477169552
 40
0.1627906593116554
  0
CIRCLE
  8
_1-4_
  6
CONTINUOUS
 62
    7
 10
287.25091057854729
 20
162.39666088207349
 40
0.1627906593116554
  0
CIRCLE
  8
_1-4_
  6
CONTINUOUS
 62
    7
 10
284.92025014516469
 20
162.42063780088682
 40
0.1627906593116554
  0
CIRCLE
  8
_1-4_
  6
CONTINUOUS
 62
    7
 10
283.36857976140203
 20
161.90220188450169
 40
0.1627906593116554
  0
CIRCLE
  8
_1-4_
  6
CONTINUOUS
 62
    7
 10
280.96235120618667
 20
160.10770643079604
 40
0.1627906593116554
  0
CIRCLE
  8
_1-4_
  6
CONTINUOUS
 62
    7
 10
281.31720465582771
 20
158.12563921954182
 40
0.1627906593116554
  0
CIRCLE
  8
_1-4_
  6
CONTINUOUS
 62
    7
 10
289.88480851456927
 20
160.90280481286953
 40
0.1627906593116554
  0
CIRCLE
  8
_1-4_
  6
CONTINUOUS
 62
    7
 10
291.58499227987755
 20
161.48792576145482
 40
0.1627906593116554
  0
CIRCLE
  8
_1-4_
  6
CONTINUOUS
 62
    7
 10
292.96681996938344
 20
163.17925118111276
 40
0.1627906593116554
  0
CIRCLE
  8
_1-4_
  6
CONTINUOUS
 62
    7
 10
290.40586729307432
 20
162.92134465398016
 40
0.1627906593116554
  0
CIRCLE
  8
_1-4_
  6
CONTINUOUS
 62
    7
 10
288.98130674619932
 20
163.70916830526818
 40
0.1627906593116554
  0
CIRCLE
  8
_1-4_
  6
CONTINUOUS
 62
    7
 10
284.90515631598396
 20
162.05693837758659
 40
0.1627906593116554
  0
CIRCLE
  8
_1-4_
  6
CONTINUOUS
 62
    7
 10
284.05062288851354
 20
160.78089121225719
 40
0.1627906593116554
  0
CIRCLE
  8
_1-4_
  6
CONTINUOUS
 62
    7
 10
286.78144300306167
 20
159.86592060810813
 40
0.1627906593116554
  0
CIRCLE
  8
_1-4_
  6
CONTINUOUS
 62
    7
 10
284.45701805320948
 20
158.28663594013938
 40
0.1627906593116554
  0
CIRCLE
  8
_1-4_
  6
CONTINUOUS
 62
    7
 10
283.00850533150339
 20
156.74382390202703
 40
0.1627906593116554
  0
CIRCLE
  8
_1-4_
  6
CONTINUOUS
 62
    7
 10
279.22571955500422
 20
160.39846059438347
 40
0.1627906593116554
  0
CIRCLE
  8
_1-4_
  6
CONTINUOUS
 62
    7
 10
280.3105452254012
 20
161.9563912056588
 40
0.1627906593116554
  0
CIRCLE
  8
_1-4_
  6
CONTINUOUS
 62
    7
 10
287.65369312183276
 20
165.07587742161107
 40
0.1627906593116554
  0
CIRCLE
  8
_1-4_
  6
CONTINUOUS
 62
    7
 10
292.88776294605151
 20
165.35725361592063
 40
0.1627906593116554
  0
CIRCLE
  8
_1-4_
  6
CONTINUOUS
 62
    7
 10
290.48155913481844
 20
163.56277053420609
 40
0.1627906593116554
  0
CIRCLE
  8
_1-4_
  6
CONTINUOUS
 62
    7
 10
289.8724365234375
 20
162.93230623812289
 40
0.1627906593116554
  0
CIRCLE
  8
_1-4_
  6
CONTINUOUS
 62
    7
 10
292.07856049408787
 20
165.17227997650971
 40
0.1627906593116554
  0
CIRCLE
  8
_1-4_
  6
CONTINUOUS
 62
    7
 10
289.7479248046875
 20
165.19626926731419
 40
0.1627906593116554
  0
CIRCLE
  8
_1-4_
  6
CONTINUOUS
 62
    7
 10
288.19622967694261
 20
164.67783335092906
 40
0.1627906593116554
  0
CIRCLE
  8
_1-4_
  6
CONTINUOUS
 62
    7
 10
285.79002586570948
 20
162.88333789722341
 40
0.1627906593116554
  0
CIRCLE
  8
_1-4_
  6
CONTINUOUS
 62
    7
 10
286.14485457136828
 20
160.90125831397805
 40
0.1627906593116554
  0
CIRCLE
  8
_1-4_
  6
CONTINUOUS
 62
    7
 10
289.73280623152453
 20
164.83256984401393
 40
0.1627906593116554
  0
CIRCLE
  8
_1-4_
  6
CONTINUOUS
 62
    7
 10
288.87827280405406
 20
163.55652267868456
 40
0.1627906593116554
  0
CIRCLE
  8
_1-4_
  6
CONTINUOUS
 62
    7
 10
291.60909291860219
 20
162.64155207453547
 40
0.1627906593116554
  0
CIRCLE
  8
_1-4_
  6
CONTINUOUS
 62
    7
 10
289.28469271273229
 20
161.06226740656672
 40
0.1627906593116554
  0
CIRCLE
  8
_1-4_
  6
CONTINUOUS
 62
    7
 10
287.8361799910262
 20
159.51944299646328
 40
0.1627906593116554
  0
CIRCLE
  8
_1-4_
  6
CONTINUOUS
 62
    7
 10
284.05336947054479
 20
163.17409206081081
 40
0.1627906593116554
  0
CIRCLE
  8
_1-4_
  6
CONTINUOUS
 62
    7
 10
252.21382759712839
 20
146.53029983108109
 40
0.1627906593116554
  0
CIRCLE
  8
_1-4_
  6
CONTINUOUS
 62
    7
 10
249.80762378589529
 20
144.73581674936656
 40
0.1627906593116554
  0
CIRCLE
  8
_1-4_
  6
CONTINUOUS
 62
    7
 10
249.19852591849664
 20
144.10534008129224
 40
0.1627906593116554
  0
CIRCLE
  8
_1-4_
  6
CONTINUOUS
 62
    7
 10
251.40464988914698
 20
146.34532619167018
 40
0.1627906593116554
  0
CIRCLE
  8
_1-4_
  6
CONTINUOUS
 62
    7
 10
249.07398945576438
 20
146.36930311048354
 40
0.1627906593116554
  0
CIRCLE
  8
_1-4_
  6
CONTINUOUS
 62
    7
 10
247.52231907200169
 20
145.85086719409841
 40
0.1627906593116554
  0
CIRCLE
  8
_1-4_
  6
CONTINUOUS
 62
    7
 10
245.11609051678633
 20
144.05638411238388
 40
0.1627906593116554
  0
CIRCLE
  8
_1-4_
  6
CONTINUOUS
 62
    7
 10
245.47094396642737
 20
142.07430452913852
 40
0.1627906593116554
  0
CIRCLE
  8
_1-4_
  6
CONTINUOUS
 62
    7
 10
254.03854782516893
 20
144.85147012246622
 40
0.1627906593116554
  0
CIRCLE
  8
_1-4_
  6
CONTINUOUS
 62
    7
 10
255.73873159047722
 20
145.43660344304266
 40
0.1627906593116554
  0
CIRCLE
  8
_1-4_
  6
CONTINUOUS
 62
    7
 10
257.12055927998313
 20
147.12791649070948
 40
0.1627906593116554
  0
CIRCLE
  8
_1-4_
  6
CONTINUOUS
 62
    7
 10
254.55960660367401
 20
146.87000996357688
 40
0.1627906593116554
  0
CIRCLE
  8
_1-4_
  6
CONTINUOUS
 62
    7
 10
253.13504605679901
 20
147.65783361486487
 40
0.1627906593116554
  0
CIRCLE
  8
_1-4_
  6
CONTINUOUS
 62
    7
 10
249.05889562658362
 20
146.00561605917443
 40
0.1627906593116554
  0
CIRCLE
  8
_1-4_
  6
CONTINUOUS
 62
    7
 10
248.20436219911318
 20
144.72956889384503
 40
0.1627906593116554
  0
CIRCLE
  8
_1-4_
  6
CONTINUOUS
 62
    7
 10
250.93518231366133
 20
143.81458591770482
 40
0.1627906593116554
  0
CIRCLE
  8
_1-4_
  6
CONTINUOUS
 62
    7
 10
248.61075736380914
 20
142.23531362172722
 40
0.1627906593116554
  0
CIRCLE
  8
_1-4_
  6
CONTINUOUS
 62
    7
 10
247.16224464210305
 20
140.69248921162375
 40
0.1627906593116554
  0
CIRCLE
  8
_1-4_
  6
CONTINUOUS
 62
    7
 10
243.37945886560391
 20
144.3471382759713
 40
0.1627906593116554
  0
CIRCLE
  8
_1-4_
  6
CONTINUOUS
 62
    7
 10
244.46428453600086
 20
145.90506888724664
 40
0.1627906593116554
  0
CIRCLE
  8
_1-4_
  6
CONTINUOUS
 62
    7
 10
251.80743243243245
 20
149.02455510319891
 40
0.1627906593116554
  0
CIRCLE
  8
_1-4_
  6
CONTINUOUS
 62
    7
 10
263.72608906513938
 20
152.00436153927365
 40
0.1627906593116554
  0
CIRCLE
  8
_1-4_
  6
CONTINUOUS
 62
    7
 10
261.31988525390625
 20
150.20989082955026
 40
0.1627906593116554
  0
CIRCLE
  8
_1-4_
  6
CONTINUOUS
 62
    7
 10
260.7107873865076
 20
149.57941416147594
 40
0.1627906593116554
  0
CIRCLE
  8
_1-4_
  6
CONTINUOUS
 62
    7
 10
262.91691135715797
 20
151.81940027185388
 40
0.1627906593116554
  0
CIRCLE
  8
_1-4_
  6
CONTINUOUS
 62
    7
 10
260.58625092377537
 20
151.84337719066724
 40
0.1627906593116554
  0
CIRCLE
  8
_1-4_
  6
CONTINUOUS
 62
    7
 10
259.03458054001266
 20
151.32494127428211
 40
0.1627906593116554
  0
CIRCLE
  8
_1-4_
  6
CONTINUOUS
 62
    7
 10
256.62835198479729
 20
149.53044582057643
 40
0.1627906593116554
  0
CIRCLE
  8
_1-4_
  6
CONTINUOUS
 62
    7
 10
256.98320543443833
 20
147.54837860932221
 40
0.1627906593116554
  0
CIRCLE
  8
_1-4_
  6
CONTINUOUS
 62
    7
 10
265.5508092931799
 20
150.32554420264992
 40
0.1627906593116554
  0
CIRCLE
  8
_1-4_
  6
CONTINUOUS
 62
    7
 10
267.25099305848818
 20
150.91066515123524
 40
0.1627906593116554
  0
CIRCLE
  8
_1-4_
  6
CONTINUOUS
 62
    7
 10
266.071868071685
 20
152.34408404376057
 40
0.1627906593116554
  0
CIRCLE
  8
_1-4_
  6
CONTINUOUS
 62
    7
 10
260.57115709459458
 20
151.47967776736698
 40
0.1627906593116554
  0
CIRCLE
  8
_1-4_
  6
CONTINUOUS
 62
    7
 10
259.71662366712417
 20
150.20363060203761
 40
0.1627906593116554
  0
CIRCLE
  8
_1-4_
  6
CONTINUOUS
 62
    7
 10
262.44744378167229
 20
149.28865999788852
 40
0.1627906593116554
  0
CIRCLE
  8
_1-4_
  6
CONTINUOUS
 62
    7
 10
260.1230188318201
 20
147.70937532991977
 40
0.1627906593116554
  0
CIRCLE
  8
_1-4_
  6
CONTINUOUS
 62
    7
 10
258.67450611011401
 20
146.16656329180745
 40
0.1627906593116554
  0
CIRCLE
  8
_1-4_
  6
CONTINUOUS
 62
    7
 10
254.89172033361487
 20
149.82119998416385
 40
0.1627906593116554
  0
CIRCLE
  8
_1-4_
  6
CONTINUOUS
 62
    7
 10
255.97654600401185
 20
151.37913059543919
 40
0.1627906593116554
  0
CIRCLE
  8
_1-4_
  6
CONTINUOUS
 62
    7
 10
265.53843730204818
 20
152.35504562790331
 40
0.1627906593116554
  0
CIRCLE
  8
_1-4_
  6
CONTINUOUS
 62
    7
 10
261.4560266443201
 20
152.3060772870038
 40
0.1627906593116554
  0
CIRCLE
  8
_1-4_
  6
CONTINUOUS
 62
    7
 10
261.81085534997891
 20
150.32401007574958
 40
0.1627906593116554
  0
CIRCLE
  8
_1-4_
  6
CONTINUOUS
 62
    7
 10
267.27509369721287
 20
152.06429146431589
 40
0.1627906593116554
  0
CIRCLE
  8
_1-4_
  6
CONTINUOUS
 62
    7
 10
264.95069349134292
 20
150.48500679634714
 40
0.1627906593116554
  0
CIRCLE
  8
_1-4_
  6
CONTINUOUS
 62
    7
 10
263.50218076963682
 20
148.94218238624367
 40
0.1627906593116554
  0
CIRCLE
  8
_1-4_
  6
CONTINUOUS
 62
    7
 10
297.78608167493667
 20
168.24680637668919
 40
0.1627906593116554
  0
CIRCLE
  8
_1-4_
  6
CONTINUOUS
 62
    7
 10
295.37987786370354
 20
166.45232329497466
 40
0.1627906593116554
  0
CIRCLE
  8
_1-4_
  6
CONTINUOUS
 62
    7
 10
294.7707799963049
 20
165.82185899889149
 40
0.1627906593116554
  0
CIRCLE
  8
_1-4_
  6
CONTINUOUS
 62
    7
 10
296.97690396695526
 20
168.06183273727831
 40
0.1627906593116554
  0
CIRCLE
  8
_1-4_
  6
CONTINUOUS
 62
    7
 10
294.64624353357266
 20
168.08582202808279
 40
0.1627906593116554
  0
CIRCLE
  8
_1-4_
  6
CONTINUOUS
 62
    7
 10
293.09457314981
 20
167.56738611169766
 40
0.1627906593116554
  0
CIRCLE
  8
_1-4_
  6
CONTINUOUS
 62
    7
 10
290.68836933857688
 20
165.77289065799198
 40
0.1627906593116554
  0
CIRCLE
  8
_1-4_
  6
CONTINUOUS
 62
    7
 10
291.04319804423568
 20
163.79082344673776
 40
0.1627906593116554
  0
CIRCLE
  8
_1-4_
  6
CONTINUOUS
 62
    7
 10
299.61080190297719
 20
166.56797666807432
 40
0.1627906593116554
  0
CIRCLE
  8
_1-4_
  6
CONTINUOUS
 62
    7
 10
301.31098566828547
 20
167.15310998865078
 40
0.1627906593116554
  0
CIRCLE
  8
_1-4_
  6
CONTINUOUS
 62
    7
 10
302.69281335779141
 20
168.8444354083087
 40
0.1627906593116554
  0
CIRCLE
  8
_1-4_
  6
CONTINUOUS
 62
    7
 10
300.13186068148229
 20
168.58652888117609
 40
0.1627906593116554
  0
CIRCLE
  8
_1-4_
  6
CONTINUOUS
 62
    7
 10
298.70732487858953
 20
169.37435253246412
 40
0.1627906593116554
  0
CIRCLE
  8
_1-4_
  6
CONTINUOUS
 62
    7
 10
294.63114970439193
 20
167.72212260478253
 40
0.1627906593116554
  0
CIRCLE
  8
_1-4_
  6
CONTINUOUS
 62
    7
 10
293.77661627692146
 20
166.44607543945312
 40
0.1627906593116554
  0
CIRCLE
  8
_1-4_
  6
CONTINUOUS
 62
    7
 10
296.50743639146964
 20
165.53110483530406
 40
0.1627906593116554
  0
CIRCLE
  8
_1-4_
  6
CONTINUOUS
 62
    7
 10
294.18303618559969
 20
163.95182016733531
 40
0.1627906593116554
  0
CIRCLE
  8
_1-4_
  6
CONTINUOUS
 62
    7
 10
292.73449871991136
 20
162.40899575723185
 40
0.1627906593116554
  0
CIRCLE
  8
_1-4_
  6
CONTINUOUS
 62
    7
 10
288.95171294341219
 20
166.0636448215794
 40
0.1627906593116554
  0
CIRCLE
  8
_1-4_
  6
CONTINUOUS
 62
    7
 10
290.03653861380911
 20
167.62157543285474
 40
0.1627906593116554
  0
CIRCLE
  8
_1-4_
  6
CONTINUOUS
 62
    7
 10
297.37968651024073
 20
170.74106164880703
 40
0.1627906593116554
  0
CIRCLE
  8
_1-4_
  6
CONTINUOUS
 62
    7
 10
309.29834314294766
 20
173.72086808488177
 40
0.1627906593116554
  0
CIRCLE
  8
_1-4_
  6
CONTINUOUS
 62
    7
 10
306.89213933171453
 20
171.92639737515836
 40
0.1627906593116554
  0
CIRCLE
  8
_1-4_
  6
CONTINUOUS
 62
    7
 10
306.28304146431589
 20
171.29592070708404
 40
0.1627906593116554
  0
CIRCLE
  8
_1-4_
  6
CONTINUOUS
 62
    7
 10
308.48916543496625
 20
173.53590681746201
 40
0.1627906593116554
  0
CIRCLE
  8
_1-4_
  6
CONTINUOUS
 62
    7
 10
306.15850500158365
 20
173.55988373627534
 40
0.1627906593116554
  0
CIRCLE
  8
_1-4_
  6
CONTINUOUS
 62
    7
 10
304.60683461782094
 20
173.04144781989021
 40
0.1627906593116554
  0
CIRCLE
  8
_1-4_
  6
CONTINUOUS
 62
    7
 10
302.20063080658787
 20
171.24696473817568
 40
0.1627906593116554
  0
CIRCLE
  8
_1-4_
  6
CONTINUOUS
 62
    7
 10
302.55545951224661
 20
169.26488515493034
 40
0.1627906593116554
  0
CIRCLE
  8
_1-4_
  6
CONTINUOUS
 62
    7
 10
311.12306337098818
 20
172.04205074825802
 40
0.1627906593116554
  0
CIRCLE
  8
_1-4_
  6
CONTINUOUS
 62
    7
 10
312.82324713629646
 20
172.62718406883448
 40
0.1627906593116554
  0
CIRCLE
  8
_1-4_
  6
CONTINUOUS
 62
    7
 10
311.64412214949328
 20
174.06059058936867
 40
0.1627906593116554
  0
CIRCLE
  8
_1-4_
  6
CONTINUOUS
 62
    7
 10
306.14341117240286
 20
173.19618431297511
 40
0.1627906593116554
  0
CIRCLE
  8
_1-4_
  6
CONTINUOUS
 62
    7
 10
305.28887774493245
 20
171.92014951963682
 40
0.1627906593116554
  0
CIRCLE
  8
_1-4_
  6
CONTINUOUS
 62
    7
 10
308.01969785948057
 20
171.00516654349664
 40
0.1627906593116554
  0
CIRCLE
  8
_1-4_
  6
CONTINUOUS
 62
    7
 10
305.69529765361068
 20
169.42588187552789
 40
0.1627906593116554
  0
CIRCLE
  8
_1-4_
  6
CONTINUOUS
 62
    7
 10
304.24676018792229
 20
167.88306983741555
 40
0.1627906593116554
  0
CIRCLE
  8
_1-4_
  6
CONTINUOUS
 62
    7
 10
300.46397441142318
 20
171.5377189017631
 40
0.1627906593116554
  0
CIRCLE
  8
_1-4_
  6
CONTINUOUS
 62
    7
 10
301.5488000818201
 20
173.09564951303844
 40
0.1627906593116554
  0
CIRCLE
  8
_1-4_
  6
CONTINUOUS
 62
    7
 10
311.11069137985646
 20
174.07155217351141
 40
0.1627906593116554
  0
CIRCLE
  8
_1-4_
  6
CONTINUOUS
 62
    7
 10
307.02828072212839
 20
174.02258383261193
 40
0.1627906593116554
  0
CIRCLE
  8
_1-4_
  6
CONTINUOUS
 62
    7
 10
307.38310942778719
 20
172.04051662135768
 40
0.1627906593116554
  0
CIRCLE
  8
_1-4_
  6
CONTINUOUS
 62
    7
 10
312.84734777502115
 20
173.78079800992398
 40
0.1627906593116554
  0
CIRCLE
  8
_1-4_
  6
CONTINUOUS
 62
    7
 10
310.5229475691512
 20
172.20151334195523
 40
0.1627906593116554
  0
CIRCLE
  8
_1-4_
  6
CONTINUOUS
 62
    7
 10
309.0744348474451
 20
170.65868893185177
 40
0.1627906593116554
  0
CIRCLE
  8
_1-4_
  6
CONTINUOUS
 62
    7
 10
324.25229459195526
 20
178.28921343829182
 40
0.1627906593116554
  0
CIRCLE
  8
_1-4_
  6
CONTINUOUS
 62
    7
 10
321.84609078072214
 20
176.49474272856841
 40
0.1627906593116554
  0
CIRCLE
  8
_1-4_
  6
CONTINUOUS
 62
    7
 10
321.23699291332349
 20
175.86426606049409
 40
0.1627906593116554
  0
CIRCLE
  8
_1-4_
  6
CONTINUOUS
 62
    7
 10
323.44311688397386
 20
178.10425217087206
 40
0.1627906593116554
  0
CIRCLE
  8
_1-4_
  6
CONTINUOUS
 62
    7
 10
321.11245645059125
 20
178.12822908968539
 40
0.1627906593116554
  0
CIRCLE
  8
_1-4_
  6
CONTINUOUS
 62
    7
 10
319.56078606682854
 20
177.60979317330026
 40
0.1627906593116554
  0
CIRCLE
  8
_1-4_
  6
CONTINUOUS
 62
    7
 10
317.15455751161318
 20
175.81531009158573
 40
0.1627906593116554
  0
CIRCLE
  8
_1-4_
  6
CONTINUOUS
 62
    7
 10
317.50938621727198
 20
173.83323050834039
 40
0.1627906593116554
  0
CIRCLE
  8
_1-4_
  6
CONTINUOUS
 62
    7
 10
326.07699007601354
 20
176.61039610166807
 40
0.1627906593116554
  0
CIRCLE
  8
_1-4_
  6
CONTINUOUS
 62
    7
 10
327.77717384132183
 20
177.19552942224453
 40
0.1627906593116554
  0
CIRCLE
  8
_1-4_
  6
CONTINUOUS
 62
    7
 10
329.15902627481
 20
178.88684246991133
 40
0.1627906593116554
  0
CIRCLE
  8
_1-4_
  6
CONTINUOUS
 62
    7
 10
326.59807359850089
 20
178.62893594277872
 40
0.1627906593116554
  0
CIRCLE
  8
_1-4_
  6
CONTINUOUS
 62
    7
 10
325.17351305162589
 20
179.41675959406675
 40
0.1627906593116554
  0
CIRCLE
  8
_1-4_
  6
CONTINUOUS
 62
    7
 10
321.09733787742823
 20
177.76452966638516
 40
0.1627906593116554
  0
CIRCLE
  8
_1-4_
  6
CONTINUOUS
 62
    7
 10
320.24282919394005
 20
176.48849487304687
 40
0.1627906593116554
  0
CIRCLE
  8
_1-4_
  6
CONTINUOUS
 62
    7
 10
322.97362456450594
 20
175.57351189690669
 40
0.1627906593116554
  0
CIRCLE
  8
_1-4_
  6
CONTINUOUS
 62
    7
 10
320.64922435863599
 20
173.99422722893794
 40
0.1627906593116554
  0
CIRCLE
  8
_1-4_
  6
CONTINUOUS
 62
    7
 10
319.2007116369299
 20
172.4514151908256
 40
0.1627906593116554
  0
CIRCLE
  8
_1-4_
  6
CONTINUOUS
 62
    7
 10
315.41790111644849
 20
176.10606425517315
 40
0.1627906593116554
  0
CIRCLE
  8
_1-4_
  6
CONTINUOUS
 62
    7
 10
316.50275153082771
 20
177.66399486644849
 40
0.1627906593116554
  0
CIRCLE
  8
_1-4_
  6
CONTINUOUS
 62
    7
 10
323.84589942725933
 20
180.78348108240078
 40
0.1627906593116554
  0
CIRCLE
  8
_1-4_
  6
CONTINUOUS
 62
    7
 10
335.76455605996625
 20
183.76328751847552
 40
0.1627906593116554
  0
CIRCLE
  8
_1-4_
  6
CONTINUOUS
 62
    7
 10
333.35835224873313
 20
181.96880443676099
 40
0.1627906593116554
  0
CIRCLE
  8
_1-4_
  6
CONTINUOUS
 62
    7
 10
332.74925438133448
 20
181.33834014067779
 40
0.1627906593116554
  0
CIRCLE
  8
_1-4_
  6
CONTINUOUS
 62
    7
 10
334.95537835198479
 20
183.57832625105576
 40
0.1627906593116554
  0
CIRCLE
  8
_1-4_
  6
CONTINUOUS
 62
    7
 10
332.62471791860219
 20
183.60230316986909
 40
0.1627906593116554
  0
CIRCLE
  8
_1-4_
  6
CONTINUOUS
 62
    7
 10
331.07304753483953
 20
183.08386725348396
 40
0.1627906593116554
  0
CIRCLE
  8
_1-4_
  6
CONTINUOUS
 62
    7
 10
328.66681897962417
 20
181.28937179977831
 40
0.1627906593116554
  0
CIRCLE
  8
_1-4_
  6
CONTINUOUS
 62
    7
 10
329.02164768528297
 20
179.30730458852409
 40
0.1627906593116554
  0
CIRCLE
  8
_1-4_
  6
CONTINUOUS
 62
    7
 10
337.58925154402453
 20
182.08445780986065
 40
0.1627906593116554
  0
CIRCLE
  8
_1-4_
  6
CONTINUOUS
 62
    7
 10
339.28943530933282
 20
182.66959113043708
 40
0.1627906593116554
  0
CIRCLE
  8
_1-4_
  6
CONTINUOUS
 62
    7
 10
338.11033506651182
 20
184.10301002296242
 40
0.1627906593116554
  0
CIRCLE
  8
_1-4_
  6
CONTINUOUS
 62
    7
 10
332.60959934543922
 20
183.23860374656886
 40
0.1627906593116554
  0
CIRCLE
  8
_1-4_
  6
CONTINUOUS
 62
    7
 10
331.75509066195104
 20
181.96255658123945
 40
0.1627906593116554
  0
CIRCLE
  8
_1-4_
  6
CONTINUOUS
 62
    7
 10
334.48588603251693
 20
181.04758597709039
 40
0.1627906593116554
  0
CIRCLE
  8
_1-4_
  6
CONTINUOUS
 62
    7
 10
332.16148582664698
 20
179.46830130912164
 40
0.1627906593116554
  0
CIRCLE
  8
_1-4_
  6
CONTINUOUS
 62
    7
 10
330.71297310494089
 20
177.92547689901818
 40
0.1627906593116554
  0
CIRCLE
  8
_1-4_
  6
CONTINUOUS
 62
    7
 10
326.93016258445948
 20
181.58012596336573
 40
0.1627906593116554
  0
CIRCLE
  8
_1-4_
  6
CONTINUOUS
 62
    7
 10
328.0150129988387
 20
183.13805657464107
 40
0.1627906593116554
  0
CIRCLE
  8
_1-4_
  6
CONTINUOUS
 62
    7
 10
337.576904296875
 20
184.11395923511404
 40
0.1627906593116554
  0
CIRCLE
  8
_1-4_
  6
CONTINUOUS
 62
    7
 10
333.49449363914698
 20
184.06500326620568
 40
0.1627906593116554
  0
CIRCLE
  8
_1-4_
  6
CONTINUOUS
 62
    7
 10
333.84932234480578
 20
182.08292368296031
 40
0.1627906593116554
  0
CIRCLE
  8
_1-4_
  6
CONTINUOUS
 62
    7
 10
339.31356069203969
 20
183.82320507152662
 40
0.1627906593116554
  0
CIRCLE
  8
_1-4_
  6
CONTINUOUS
 62
    7
 10
336.98916048616979
 20
182.24392040355787
 40
0.1627906593116554
  0
CIRCLE
  8
_1-4_
  6
CONTINUOUS
 62
    7
 10
335.5406477644637
 20
180.70110836544552
 40
0.1627906593116554
  0
CIRCLE
  8
_1-4_
  6
CONTINUOUS
 62
    7
 10
342.36387510557432
 20
189.0333722088788
 40
0.1627906593116554
  0
CIRCLE
  8
_1-4_
  6
CONTINUOUS
 62
    7
 10
339.95767129434125
 20
187.23890149915542
 40
0.1627906593116554
  0
CIRCLE
  8
_1-4_
  6
CONTINUOUS
 62
    7
 10
339.34857342694261
 20
186.60842483108109
 40
0.1627906593116554
  0
CIRCLE
  8
_1-4_
  6
CONTINUOUS
 62
    7
 10
341.55469739759292
 20
188.84841094145904
 40
0.1627906593116554
  0
CIRCLE
  8
_1-4_
  6
CONTINUOUS
 62
    7
 10
339.22403696421031
 20
188.8723878602724
 40
0.1627906593116554
  0
CIRCLE
  8
_1-4_
  6
CONTINUOUS
 62
    7
 10
337.67234183646536
 20
188.35395194388727
 40
0.1627906593116554
  0
CIRCLE
  8
_1-4_
  6
CONTINUOUS
 62
    7
 10
335.26613802523229
 20
186.55945649018159
 40
0.1627906593116554
  0
CIRCLE
  8
_1-4_
  6
CONTINUOUS
 62
    7
 10
335.62096673089104
 20
184.57738927892737
 40
0.1627906593116554
  0
CIRCLE
  8
_1-4_
  6
CONTINUOUS
 62
    7
 10
344.1885705896326
 20
187.35455487225508
 40
0.1627906593116554
  0
CIRCLE
  8
_1-4_
  6
CONTINUOUS
 62
    7
 10
345.88875435494089
 20
187.93967582084039
 40
0.1627906593116554
  0
CIRCLE
  8
_1-4_
  6
CONTINUOUS
 62
    7
 10
347.27058204444683
 20
189.63100124049834
 40
0.1627906593116554
  0
CIRCLE
  8
_1-4_
  6
CONTINUOUS
 62
    7
 10
344.70962936813771
 20
189.37309471336573
 40
0.1627906593116554
  0
CIRCLE
  8
_1-4_
  6
CONTINUOUS
 62
    7
 10
343.28509356524495
 20
190.16091836465372
 40
0.1627906593116554
  0
CIRCLE
  8
_1-4_
  6
CONTINUOUS
 62
    7
 10
339.20891839104729
 20
188.50868843697214
 40
0.1627906593116554
  0
CIRCLE
  8
_1-4_
  6
CONTINUOUS
 62
    7
 10
338.35440970755911
 20
187.23264127164273
 40
0.1627906593116554
  0
CIRCLE
  8
_1-4_
  6
CONTINUOUS
 62
    7
 10
341.085205078125
 20
186.31767066749367
 40
0.1627906593116554
  0
CIRCLE
  8
_1-4_
  6
CONTINUOUS
 62
    7
 10
338.76080487225511
 20
184.73838599952492
 40
0.1627906593116554
  0
CIRCLE
  8
_1-4_
  6
CONTINUOUS
 62
    7
 10
337.31229215054901
 20
183.19557396141261
 40
0.1627906593116554
  0
CIRCLE
  8
_1-4_
  6
CONTINUOUS
 62
    7
 10
333.52948163006761
 20
186.85021065376901
 40
0.1627906593116554
  0
CIRCLE
  8
_1-4_
  6
CONTINUOUS
 62
    7
 10
334.61430730046453
 20
188.4081536370355
 40
0.1627906593116554
  0
CIRCLE
  8
_1-4_
  6
CONTINUOUS
 62
    7
 10
341.95745519689615
 20
191.52763985298776
 40
0.1627906593116554
  0
CIRCLE
  8
_1-4_
  6
CONTINUOUS
 62
    7
 10
353.87613657358531
 20
194.5074462890625
 40
0.1627906593116554
  0
CIRCLE
  8
_1-4_
  6
CONTINUOUS
 62
    7
 10
351.46993276235224
 20
192.712963207348
 40
0.1627906593116554
  0
CIRCLE
  8
_1-4_
  6
CONTINUOUS
 62
    7
 10
350.86083489495354
 20
192.08249891126479
 40
0.1627906593116554
  0
CIRCLE
  8
_1-4_
  6
CONTINUOUS
 62
    7
 10
353.06695886560391
 20
194.32247264965162
 40
0.1627906593116554
  0
CIRCLE
  8
_1-4_
  6
CONTINUOUS
 62
    7
 10
350.7362984322213
 20
194.34646194045609
 40
0.1627906593116554
  0
CIRCLE
  8
_1-4_
  6
CONTINUOUS
 62
    7
 10
349.18460330447635
 20
193.82802602407097
 40
0.1627906593116554
  0
CIRCLE
  8
_1-4_
  6
CONTINUOUS
 62
    7
 10
346.77839949324328
 20
192.03353057036529
 40
0.1627906593116554
  0
CIRCLE
  8
_1-4_
  6
CONTINUOUS
 62
    7
 10
347.13322819890203
 20
190.05146335911107
 40
0.1627906593116554
  0
CIRCLE
  8
_1-4_
  6
CONTINUOUS
 62
    7
 10
355.70083205764359
 20
192.82861658044766
 40
0.1627906593116554
  0
CIRCLE
  8
_1-4_
  6
CONTINUOUS
 62
    7
 10
357.40101582295188
 20
193.41374990102409
 40
0.1627906593116554
  0
CIRCLE
  8
_1-4_
  6
CONTINUOUS
 62
    7
 10
356.22189083614865
 20
194.84715642155828
 40
0.1627906593116554
  0
CIRCLE
  8
_1-4_
  6
CONTINUOUS
 62
    7
 10
350.72117985905828
 20
193.98276251715583
 40
0.1627906593116554
  0
CIRCLE
  8
_1-4_
  6
CONTINUOUS
 62
    7
 10
349.8666711755701
 20
192.70671535182646
 40
0.1627906593116554
  0
CIRCLE
  8
_1-4_
  6
CONTINUOUS
 62
    7
 10
352.59746654613599
 20
191.79174474767737
 40
0.1627906593116554
  0
CIRCLE
  8
_1-4_
  6
CONTINUOUS
 62
    7
 10
350.27306634026604
 20
190.21246007970862
 40
0.1627906593116554
  0
CIRCLE
  8
_1-4_
  6
CONTINUOUS
 62
    7
 10
348.82455361856
 20
188.66963566960516
 40
0.1627906593116554
  0
CIRCLE
  8
_1-4_
  6
CONTINUOUS
 62
    7
 10
345.04174309807854
 20
192.32428473395271
 40
0.1627906593116554
  0
CIRCLE
  8
_1-4_
  6
CONTINUOUS
 62
    7
 10
346.12656876847552
 20
193.88221534522805
 40
0.1627906593116554
  0
CIRCLE
  8
_1-4_
  6
CONTINUOUS
 62
    7
 10
355.68848481049412
 20
194.85811800570102
 40
0.1627906593116554
  0
CIRCLE
  8
_1-4_
  6
CONTINUOUS
 62
    7
 10
351.60607415276604
 20
194.80914966480154
 40
0.1627906593116554
  0
CIRCLE
  8
_1-4_
  6
CONTINUOUS
 62
    7
 10
351.96090285842484
 20
192.82708245354732
 40
0.1627906593116554
  0
CIRCLE
  8
_1-4_
  6
CONTINUOUS
 62
    7
 10
357.4251412056588
 20
194.56736384211362
 40
0.1627906593116554
  0
CIRCLE
  8
_1-4_
  6
CONTINUOUS
 62
    7
 10
355.10074099978885
 20
192.98807917414487
 40
0.1627906593116554
  0
CIRCLE
  8
_1-4_
  6
CONTINUOUS
 62
    7
 10
353.65220353410052
 20
191.44526713603253
 40
0.1627906593116554
  0
CIRCLE
  8
_1-4_
  6
CONTINUOUS
 62
    7
 10
352.59640255489865
 20
190.46592506202492
 40
0.1627906593116554
  0
CIRCLE
  8
_1-4_
  6
CONTINUOUS
 62
    7
 10
350.19019874366558
 20
188.67145435230154
 40
0.1627906593116554
  0
CIRCLE
  8
_1-4_
  6
CONTINUOUS
 62
    7
 10
349.58110087626693
 20
188.04097768422722
 40
0.1627906593116554
  0
CIRCLE
  8
_1-4_
  6
CONTINUOUS
 62
    7
 10
351.78722484691724
 20
190.28096379460516
 40
0.1627906593116554
  0
CIRCLE
  8
_1-4_
  6
CONTINUOUS
 62
    7
 10
349.45656441353464
 20
190.30494071341852
 40
0.1627906593116554
  0
CIRCLE
  8
_1-4_
  6
CONTINUOUS
 62
    7
 10
347.90486928578974
 20
189.78650479703336
 40
0.1627906593116554
  0
CIRCLE
  8
_1-4_
  6
CONTINUOUS
 62
    7
 10
345.49866547455662
 20
187.99200934332771
 40
0.1627906593116554
  0
CIRCLE
  8
_1-4_
  6
CONTINUOUS
 62
    7
 10
345.85349418021536
 20
186.00994213207349
 40
0.1627906593116554
  0
CIRCLE
  8
_1-4_
  6
CONTINUOUS
 62
    7
 10
354.42109803895693
 20
188.7871077254012
 40
0.1627906593116554
  0
CIRCLE
  8
_1-4_
  6
CONTINUOUS
 62
    7
 10
356.12128180426521
 20
189.37222867398648
 40
0.1627906593116554
  0
CIRCLE
  8
_1-4_
  6
CONTINUOUS
 62
    7
 10
357.50313423775339
 20
191.06355409364443
 40
0.1627906593116554
  0
CIRCLE
  8
_1-4_
  6
CONTINUOUS
 62
    7
 10
354.94218156144427
 20
190.80564756651182
 40
0.1627906593116554
  0
CIRCLE
  8
_1-4_
  6
CONTINUOUS
 62
    7
 10
353.51762101456927
 20
191.59347121779984
 40
0.1627906593116554
  0
CIRCLE
  8
_1-4_
  6
CONTINUOUS
 62
    7
 10
349.44144584037161
 20
189.94124129011826
 40
0.1627906593116554
  0
CIRCLE
  8
_1-4_
  6
CONTINUOUS
 62
    7
 10
348.58693715688349
 20
188.66520649678
 40
0.1627906593116554
  0
CIRCLE
  8
_1-4_
  6
CONTINUOUS
 62
    7
 10
351.31773252744932
 20
187.75022352063979
 40
0.1627906593116554
  0
CIRCLE
  8
_1-4_
  6
CONTINUOUS
 62
    7
 10
348.99333232157943
 20
186.17093885267104
 40
0.1627906593116554
  0
CIRCLE
  8
_1-4_
  6
CONTINUOUS
 62
    7
 10
347.54481959987334
 20
184.6281268145587
 40
0.1627906593116554
  0
CIRCLE
  8
_1-4_
  6
CONTINUOUS
 62
    7
 10
343.76200907939193
 20
188.28277587890625
 40
0.1627906593116554
  0
CIRCLE
  8
_1-4_
  6
CONTINUOUS
 62
    7
 10
344.84685949377115
 20
189.84070649018159
 40
0.1627906593116554
  0
CIRCLE
  8
_1-4_
  6
CONTINUOUS
 62
    7
 10
352.19000739020271
 20
192.96019270613388
 40
0.1627906593116554
  0
CIRCLE
  8
_1-4_
  6
CONTINUOUS
 62
    7
 10
364.10866402290964
 20
195.93999914220862
 40
0.1627906593116554
  0
CIRCLE
  8
_1-4_
  6
CONTINUOUS
 62
    7
 10
361.70246021167657
 20
194.14551606049409
 40
0.1627906593116554
  0
CIRCLE
  8
_1-4_
  6
CONTINUOUS
 62
    7
 10
361.09336234427786
 20
193.51505176441091
 40
0.1627906593116554
  0
CIRCLE
  8
_1-4_
  6
CONTINUOUS
 62
    7
 10
363.29948631492823
 20
195.75503787478885
 40
0.1627906593116554
  0
CIRCLE
  8
_1-4_
  6
CONTINUOUS
 62
    7
 10
360.96882588154563
 20
195.77901479360222
 40
0.1627906593116554
  0
CIRCLE
  8
_1-4_
  6
CONTINUOUS
 62
    7
 10
359.41715549778297
 20
195.26057887721709
 40
0.1627906593116554
  0
CIRCLE
  8
_1-4_
  6
CONTINUOUS
 62
    7
 10
357.01092694256761
 20
193.46608342351141
 40
0.1627906593116554
  0
CIRCLE
  8
_1-4_
  6
CONTINUOUS
 62
    7
 10
357.36575564822635
 20
191.48401621225719
 40
0.1627906593116554
  0
CIRCLE
  8
_1-4_
  6
CONTINUOUS
 62
    7
 10
365.93335950696792
 20
194.26116943359375
 40
0.1627906593116554
  0
CIRCLE
  8
_1-4_
  6
CONTINUOUS
 62
    7
 10
367.6335432722762
 20
194.84630275417021
 40
0.1627906593116554
  0
CIRCLE
  8
_1-4_
  6
CONTINUOUS
 62
    7
 10
366.45444302945526
 20
196.27972164669552
 40
0.1627906593116554
  0
CIRCLE
  8
_1-4_
  6
CONTINUOUS
 62
    7
 10
360.9537073083826
 20
195.41531537030195
 40
0.1627906593116554
  0
CIRCLE
  8
_1-4_
  6
CONTINUOUS
 62
    7
 10
360.09919862489443
 20
194.13926820497255
 40
0.1627906593116554
  0
CIRCLE
  8
_1-4_
  6
CONTINUOUS
 62
    7
 10
362.82999399546031
 20
193.22429760082349
 40
0.1627906593116554
  0
CIRCLE
  8
_1-4_
  6
CONTINUOUS
 62
    7
 10
360.50559378959036
 20
191.64501293285474
 40
0.1627906593116554
  0
CIRCLE
  8
_1-4_
  6
CONTINUOUS
 62
    7
 10
359.05708106788433
 20
190.10218852275128
 40
0.1627906593116554
  0
CIRCLE
  8
_1-4_
  6
CONTINUOUS
 62
    7
 10
355.27427054740286
 20
193.75683758709883
 40
0.1627906593116554
  0
CIRCLE
  8
_1-4_
  6
CONTINUOUS
 62
    7
 10
356.35912096178214
 20
195.31476819837417
 40
0.1627906593116554
  0
CIRCLE
  8
_1-4_
  6
CONTINUOUS
 62
    7
 10
365.92101225981844
 20
196.29067085884714
 40
0.1627906593116554
  0
CIRCLE
  8
_1-4_
  6
CONTINUOUS
 62
    7
 10
361.83860160209036
 20
196.24171488993878
 40
0.1627906593116554
  0
CIRCLE
  8
_1-4_
  6
CONTINUOUS
 62
    7
 10
362.19343030774917
 20
194.25963530669341
 40
0.1627906593116554
  0
CIRCLE
  8
_1-4_
  6
CONTINUOUS
 62
    7
 10
367.65766865498313
 20
195.99991669525971
 40
0.1627906593116554
  0
CIRCLE
  8
_1-4_
  6
CONTINUOUS
 62
    7
 10
365.33326844911318
 20
194.42063202729096
 40
0.1627906593116554
  0
CIRCLE
  8
_1-4_
  6
CONTINUOUS
 62
    7
 10
363.88473098342484
 20
192.87781998917865
 40
0.1627906593116554
  0
CIRCLE
  8
_1-4_
  6
CONTINUOUS
 62
    7
 10
369.99171901393584
 20
200.3914786673881
 40
0.1627906593116554
  0
CIRCLE
  8
_1-4_
  6
CONTINUOUS
 62
    7
 10
367.58549045872047
 20
198.59700795766472
 40
0.1627906593116554
  0
CIRCLE
  8
_1-4_
  6
CONTINUOUS
 62
    7
 10
366.97639259132183
 20
197.96653128959039
 40
0.1627906593116554
  0
CIRCLE
  8
_1-4_
  6
CONTINUOUS
 62
    7
 10
369.18251656197214
 20
200.20651739996833
 40
0.1627906593116554
  0
CIRCLE
  8
_1-4_
  6
CONTINUOUS
 62
    7
 10
366.85185612858953
 20
200.23049431878169
 40
0.1627906593116554
  0
CIRCLE
  8
_1-4_
  6
CONTINUOUS
 62
    7
 10
365.30018574482688
 20
199.71205840239654
 40
0.1627906593116554
  0
CIRCLE
  8
_1-4_
  6
CONTINUOUS
 62
    7
 10
362.89398193359375
 20
197.91756294869089
 40
0.1627906593116554
  0
CIRCLE
  8
_1-4_
  6
CONTINUOUS
 62
    7
 10
363.24881063925255
 20
195.93549573743667
 40
0.1627906593116554
  0
CIRCLE
  8
_1-4_
  6
CONTINUOUS
 62
    7
 10
371.81641449799412
 20
198.71266133076438
 40
0.1627906593116554
  0
CIRCLE
  8
_1-4_
  6
CONTINUOUS
 62
    7
 10
373.5165982633024
 20
199.29779465134081
 40
0.1627906593116554
  0
CIRCLE
  8
_1-4_
  6
CONTINUOUS
 62
    7
 10
374.89842595280828
 20
200.9891076990076
 40
0.1627906593116554
  0
CIRCLE
  8
_1-4_
  6
CONTINUOUS
 62
    7
 10
372.33747327649917
 20
200.731201171875
 40
0.1627906593116554
  0
CIRCLE
  8
_1-4_
  6
CONTINUOUS
 62
    7
 10
370.91293747360646
 20
201.51902482316302
 40
0.1627906593116554
  0
CIRCLE
  8
_1-4_
  6
CONTINUOUS
 62
    7
 10
366.8367622994088
 20
199.86679489548143
 40
0.1627906593116554
  0
CIRCLE
  8
_1-4_
  6
CONTINUOUS
 62
    7
 10
365.98222887193839
 20
198.59076010214318
 40
0.1627906593116554
  0
CIRCLE
  8
_1-4_
  6
CONTINUOUS
 62
    7
 10
368.71304898648651
 20
197.67577712600297
 40
0.1627906593116554
  0
CIRCLE
  8
_1-4_
  6
CONTINUOUS
 62
    7
 10
366.38864878061656
 20
196.09649245803422
 40
0.1627906593116554
  0
CIRCLE
  8
_1-4_
  6
CONTINUOUS
 62
    7
 10
364.94011131492823
 20
194.55368041992187
 40
0.1627906593116554
  0
CIRCLE
  8
_1-4_
  6
CONTINUOUS
 62
    7
 10
361.15732553842906
 20
198.20832948426943
 40
0.1627906593116554
  0
CIRCLE
  8
_1-4_
  6
CONTINUOUS
 62
    7
 10
362.24215120882604
 20
199.76626009554477
 40
0.1627906593116554
  0
CIRCLE
  8
_1-4_
  6
CONTINUOUS
 62
    7
 10
369.5852991052576
 20
202.88574631149706
 40
0.1627906593116554
  0
CIRCLE
  8
_1-4_
  6
CONTINUOUS
 62
    7
 10
379.09775192673146
 20
204.07106966585727
 40
0.1627906593116554
  0
CIRCLE
  8
_1-4_
  6
CONTINUOUS
 62
    7
 10
378.48865405933282
 20
203.44060536977409
 40
0.1627906593116554
  0
CIRCLE
  8
_1-4_
  6
CONTINUOUS
 62
    7
 10
378.36411759660052
 20
205.70456839896539
 40
0.1627906593116554
  0
CIRCLE
  8
_1-4_
  6
CONTINUOUS
 62
    7
 10
376.81244721283787
 20
205.18613248258023
 40
0.1627906593116554
  0
CIRCLE
  8
_1-4_
  6
CONTINUOUS
 62
    7
 10
374.40624340160474
 20
203.39163702887458
 40
0.1627906593116554
  0
CIRCLE
  8
_1-4_
  6
CONTINUOUS
 62
    7
 10
374.76107210726354
 20
201.40956981762037
 40
0.1627906593116554
  0
CIRCLE
  8
_1-4_
  6
CONTINUOUS
 62
    7
 10
378.34902376741979
 20
205.34086897566513
 40
0.1627906593116554
  0
CIRCLE
  8
_1-4_
  6
CONTINUOUS
 62
    7
 10
377.49449033994932
 20
204.06482181033573
 40
0.1627906593116554
  0
CIRCLE
  8
_1-4_
  6
CONTINUOUS
 62
    7
 10
377.90091024862755
 20
201.57056653821792
 40
0.1627906593116554
  0
CIRCLE
  8
_1-4_
  6
CONTINUOUS
 62
    7
 10
376.45237278293922
 20
200.02774212811445
 40
0.1627906593116554
  0
CIRCLE
  8
_1-4_
  6
CONTINUOUS
 62
    7
 10
372.66958700644005
 20
203.68239119246201
 40
0.1627906593116554
  0
CIRCLE
  8
_1-4_
  6
CONTINUOUS
 62
    7
 10
373.75441267683703
 20
205.24032180373734
 40
0.1627906593116554
  0
CIRCLE
  8
_1-4_
  6
CONTINUOUS
 62
    7
 10
379.23389331714532
 20
206.16726849530195
 40
0.1627906593116554
  0
CIRCLE
  8
_1-4_
  6
CONTINUOUS
 62
    7
 10
379.58872202280406
 20
204.18518891205659
 40
0.1627906593116554
  0
CIRCLE
  8
_1-4_
  6
CONTINUOUS
 62
    7
 10
204.14187457110432
 20
126.14895382442991
 40
0.1627906593116554
  0
CIRCLE
  8
_1-4_
  6
CONTINUOUS
 62
    7
 10
201.7356707598712
 20
124.35448311470651
 40
0.1627906593116554
  0
CIRCLE
  8
_1-4_
  6
CONTINUOUS
 62
    7
 10
201.12656052048143
 20
123.72400644663219
 40
0.1627906593116554
  0
CIRCLE
  8
_1-4_
  6
CONTINUOUS
 62
    7
 10
203.33268449113177
 20
125.96399255701014
 40
0.1627906593116554
  0
CIRCLE
  8
_1-4_
  6
CONTINUOUS
 62
    7
 10
201.00203642974029
 20
125.98796947582349
 40
0.1627906593116554
  0
CIRCLE
  8
_1-4_
  6
CONTINUOUS
 62
    7
 10
199.45035367398648
 20
125.46953355943835
 40
0.1627906593116554
  0
CIRCLE
  8
_1-4_
  6
CONTINUOUS
 62
    7
 10
197.04413749076227
 20
123.6750381057327
 40
0.1627906593116554
  0
CIRCLE
  8
_1-4_
  6
CONTINUOUS
 62
    7
 10
197.39897856841216
 20
121.69297089447846
 40
0.1627906593116554
  0
CIRCLE
  8
_1-4_
  6
CONTINUOUS
 62
    7
 10
205.96657005516261
 20
124.47013648780617
 40
0.1627906593116554
  0
CIRCLE
  8
_1-4_
  6
CONTINUOUS
 62
    7
 10
207.66676619246201
 20
125.05525743639147
 40
0.1627906593116554
  0
CIRCLE
  8
_1-4_
  6
CONTINUOUS
 62
    7
 10
209.04859388196792
 20
126.74658285604941
 40
0.1627906593116554
  0
CIRCLE
  8
_1-4_
  6
CONTINUOUS
 62
    7
 10
206.4876412056588
 20
126.48867632891681
 40
0.1627906593116554
  0
CIRCLE
  8
_1-4_
  6
CONTINUOUS
 62
    7
 10
205.06309303077492
 20
127.27649998020482
 40
0.1627906593116554
  0
CIRCLE
  8
_1-4_
  6
CONTINUOUS
 62
    7
 10
200.98691785657729
 20
125.62427005252323
 40
0.1627906593116554
  0
CIRCLE
  8
_1-4_
  6
CONTINUOUS
 62
    7
 10
200.132396801098
 20
124.34822288719384
 40
0.1627906593116554
  0
CIRCLE
  8
_1-4_
  6
CONTINUOUS
 62
    7
 10
202.86321691564612
 20
123.43325228304477
 40
0.1627906593116554
  0
CIRCLE
  8
_1-4_
  6
CONTINUOUS
 62
    7
 10
200.53880433778505
 20
121.85396761507602
 40
0.1627906593116554
  0
CIRCLE
  8
_1-4_
  6
CONTINUOUS
 62
    7
 10
199.09029161607899
 20
120.31115557696369
 40
0.1627906593116554
  0
CIRCLE
  8
_1-4_
  6
CONTINUOUS
 62
    7
 10
195.3074934675887
 20
123.9657922693201
 40
0.1627906593116554
  0
CIRCLE
  8
_1-4_
  6
CONTINUOUS
 62
    7
 10
196.39231913798565
 20
125.52372288059544
 40
0.1627906593116554
  0
CIRCLE
  8
_1-4_
  6
CONTINUOUS
 62
    7
 10
203.73546703441724
 20
128.64320909654774
 40
0.1627906593116554
  0
CIRCLE
  8
_1-4_
  6
CONTINUOUS
 62
    7
 10
215.65414841110643
 20
131.62302790461359
 40
0.1627906593116554
  0
CIRCLE
  8
_1-4_
  6
CONTINUOUS
 62
    7
 10
213.24791985589107
 20
129.82854482289909
 40
0.1627906593116554
  0
CIRCLE
  8
_1-4_
  6
CONTINUOUS
 62
    7
 10
212.63882198849242
 20
129.19808052681589
 40
0.1627906593116554
  0
CIRCLE
  8
_1-4_
  6
CONTINUOUS
 62
    7
 10
214.84494595914276
 20
131.43805426520271
 40
0.1627906593116554
  0
CIRCLE
  8
_1-4_
  6
CONTINUOUS
 62
    7
 10
212.51428552576016
 20
131.46204355600719
 40
0.1627906593116554
  0
CIRCLE
  8
_1-4_
  6
CONTINUOUS
 62
    7
 10
210.96261514199747
 20
130.94360763962206
 40
0.1627906593116554
  0
CIRCLE
  8
_1-4_
  6
CONTINUOUS
 62
    7
 10
208.55641133076438
 20
129.14911218591638
 40
0.1627906593116554
  0
CIRCLE
  8
_1-4_
  6
CONTINUOUS
 62
    7
 10
208.91124003642315
 20
127.16704497466218
 40
0.1627906593116554
  0
CIRCLE
  8
_1-4_
  6
CONTINUOUS
 62
    7
 10
217.47884389516472
 20
129.94419819599875
 40
0.1627906593116554
  0
CIRCLE
  8
_1-4_
  6
CONTINUOUS
 62
    7
 10
219.179027660473
 20
130.52933151657518
 40
0.1627906593116554
  0
CIRCLE
  8
_1-4_
  6
CONTINUOUS
 62
    7
 10
217.99990267366977
 20
131.96273803710937
 40
0.1627906593116554
  0
CIRCLE
  8
_1-4_
  6
CONTINUOUS
 62
    7
 10
212.4991916965794
 20
131.09834413270693
 40
0.1627906593116554
  0
CIRCLE
  8
_1-4_
  6
CONTINUOUS
 62
    7
 10
211.64465826910896
 20
129.82229696737755
 40
0.1627906593116554
  0
CIRCLE
  8
_1-4_
  6
CONTINUOUS
 62
    7
 10
214.37547838365711
 20
128.90732636322846
 40
0.1627906593116554
  0
CIRCLE
  8
_1-4_
  6
CONTINUOUS
 62
    7
 10
212.05107817778716
 20
127.32804169525971
 40
0.1627906593116554
  0
CIRCLE
  8
_1-4_
  6
CONTINUOUS
 62
    7
 10
210.60254071209883
 20
125.78521728515625
 40
0.1627906593116554
  0
CIRCLE
  8
_1-4_
  6
CONTINUOUS
 62
    7
 10
206.81975493559966
 20
129.4398663495038
 40
0.1627906593116554
  0
CIRCLE
  8
_1-4_
  6
CONTINUOUS
 62
    7
 10
207.90458060599664
 20
130.99779696077914
 40
0.1627906593116554
  0
CIRCLE
  8
_1-4_
  6
CONTINUOUS
 62
    7
 10
217.46647190403294
 20
131.97369962125211
 40
0.1627906593116554
  0
CIRCLE
  8
_1-4_
  6
CONTINUOUS
 62
    7
 10
213.38406124630492
 20
131.92473128035263
 40
0.1627906593116554
  0
CIRCLE
  8
_1-4_
  6
CONTINUOUS
 62
    7
 10
213.7388899519637
 20
129.94266406909841
 40
0.1627906593116554
  0
CIRCLE
  8
_1-4_
  6
CONTINUOUS
 62
    7
 10
219.20312829919766
 20
131.68294545766472
 40
0.1627906593116554
  0
CIRCLE
  8
_1-4_
  6
CONTINUOUS
 62
    7
 10
216.87872809332771
 20
130.10366078969597
 40
0.1627906593116554
  0
CIRCLE
  8
_1-4_
  6
CONTINUOUS
 62
    7
 10
215.43021537162164
 20
128.56084875158362
 40
0.1627906593116554
  0
CIRCLE
  8
_1-4_
  6
CONTINUOUS
 62
    7
 10
227.91333172772383
 20
135.51346237595018
 40
0.1627906593116554
  0
CIRCLE
  8
_1-4_
  6
CONTINUOUS
 62
    7
 10
225.50710317250847
 20
133.71899166622677
 40
0.1627906593116554
  0
CIRCLE
  8
_1-4_
  6
CONTINUOUS
 62
    7
 10
224.89800530510982
 20
133.08851499815245
 40
0.1627906593116554
  0
CIRCLE
  8
_1-4_
  6
CONTINUOUS
 62
    7
 10
227.10412927576016
 20
135.32850110853042
 40
0.1627906593116554
  0
CIRCLE
  8
_1-4_
  6
CONTINUOUS
 62
    7
 10
221.17042335304055
 20
131.05747944599875
 40
0.1627906593116554
  0
CIRCLE
  8
_1-4_
  6
CONTINUOUS
 62
    7
 10
229.73802721178211
 20
133.83464503932643
 40
0.1627906593116554
  0
CIRCLE
  8
_1-4_
  6
CONTINUOUS
 62
    7
 10
231.43821097709039
 20
134.41976598791175
 40
0.1627906593116554
  0
CIRCLE
  8
_1-4_
  6
CONTINUOUS
 62
    7
 10
232.8200386665963
 20
136.11109140756969
 40
0.1627906593116554
  0
CIRCLE
  8
_1-4_
  6
CONTINUOUS
 62
    7
 10
230.25908599028716
 20
135.85318488043708
 40
0.1627906593116554
  0
CIRCLE
  8
_1-4_
  6
CONTINUOUS
 62
    7
 10
223.90384158572635
 20
133.71273143871412
 40
0.1627906593116554
  0
CIRCLE
  8
_1-4_
  6
CONTINUOUS
 62
    7
 10
226.63466170027451
 20
132.79776083456505
 40
0.1627906593116554
  0
CIRCLE
  8
_1-4_
  6
CONTINUOUS
 62
    7
 10
224.31026149440459
 20
131.2184761665963
 40
0.1627906593116554
  0
CIRCLE
  8
_1-4_
  6
CONTINUOUS
 62
    7
 10
222.86172402871622
 20
129.67566412848396
 40
0.1627906593116554
  0
CIRCLE
  8
_1-4_
  6
CONTINUOUS
 62
    7
 10
239.42559319573482
 20
140.98753645613388
 40
0.1627906593116554
  0
CIRCLE
  8
_1-4_
  6
CONTINUOUS
 62
    7
 10
237.01936464051943
 20
139.19305337441935
 40
0.1627906593116554
  0
CIRCLE
  8
_1-4_
  6
CONTINUOUS
 62
    7
 10
236.41026677312078
 20
138.56258907833615
 40
0.1627906593116554
  0
CIRCLE
  8
_1-4_
  6
CONTINUOUS
 62
    7
 10
238.61639074377112
 20
140.80256281672297
 40
0.1627906593116554
  0
CIRCLE
  8
_1-4_
  6
CONTINUOUS
 62
    7
 10
236.28575505437078
 20
140.82655210752745
 40
0.1627906593116554
  0
CIRCLE
  8
_1-4_
  6
CONTINUOUS
 62
    7
 10
232.68268482105154
 20
136.53155352618245
 40
0.1627906593116554
  0
CIRCLE
  8
_1-4_
  6
CONTINUOUS
 62
    7
 10
241.2502886797931
 20
139.30870674751901
 40
0.1627906593116554
  0
CIRCLE
  8
_1-4_
  6
CONTINUOUS
 62
    7
 10
242.95047244510135
 20
139.89384006809544
 40
0.1627906593116554
  0
CIRCLE
  8
_1-4_
  6
CONTINUOUS
 62
    7
 10
241.77134745829815
 20
141.32724658862966
 40
0.1627906593116554
  0
CIRCLE
  8
_1-4_
  6
CONTINUOUS
 62
    7
 10
236.27063648120779
 20
140.46285268422722
 40
0.1627906593116554
  0
CIRCLE
  8
_1-4_
  6
CONTINUOUS
 62
    7
 10
235.41610305373734
 20
139.18680551889781
 40
0.1627906593116554
  0
CIRCLE
  8
_1-4_
  6
CONTINUOUS
 62
    7
 10
238.1469231682855
 20
138.27183491474875
 40
0.1627906593116554
  0
CIRCLE
  8
_1-4_
  6
CONTINUOUS
 62
    7
 10
235.82252296241555
 20
136.69255024678
 40
0.1627906593116554
  0
CIRCLE
  8
_1-4_
  6
CONTINUOUS
 62
    7
 10
234.37398549672722
 20
135.14972583667654
 40
0.1627906593116554
  0
CIRCLE
  8
_1-4_
  6
CONTINUOUS
 62
    7
 10
241.23794143264359
 20
141.3382081727724
 40
0.1627906593116554
  0
CIRCLE
  8
_1-4_
  6
CONTINUOUS
 62
    7
 10
237.15550603093328
 20
141.28923983187289
 40
0.1627906593116554
  0
CIRCLE
  8
_1-4_
  6
CONTINUOUS
 62
    7
 10
237.51033473659209
 20
139.30717262061867
 40
0.1627906593116554
  0
CIRCLE
  8
_1-4_
  6
CONTINUOUS
 62
    7
 10
242.97457308382602
 20
141.04745400918497
 40
0.1627906593116554
  0
CIRCLE
  8
_1-4_
  6
CONTINUOUS
 62
    7
 10
240.65017287795609
 20
139.46816934121622
 40
0.1627906593116554
  0
CIRCLE
  8
_1-4_
  6
CONTINUOUS
 62
    7
 10
239.20166015625
 20
137.92535730310388
 40
0.1627906593116554
  0
CIRCLE
  8
_1-4_
  6
CONTINUOUS
 62
    7
 10
238.95864950644005
 20
144.2776819177576
 40
0.1627906593116554
  0
CIRCLE
  8
_1-4_
  6
CONTINUOUS
 62
    7
 10
236.55242095122466
 20
142.48321120803422
 40
0.1627906593116554
  0
CIRCLE
  8
_1-4_
  6
CONTINUOUS
 62
    7
 10
235.94332308382602
 20
141.8527345399599
 40
0.1627906593116554
  0
CIRCLE
  8
_1-4_
  6
CONTINUOUS
 62
    7
 10
238.14944705447635
 20
144.09272065033784
 40
0.1627906593116554
  0
CIRCLE
  8
_1-4_
  6
CONTINUOUS
 62
    7
 10
235.81881136507602
 20
144.1166975691512
 40
0.1627906593116554
  0
CIRCLE
  8
_1-4_
  6
CONTINUOUS
 62
    7
 10
240.78334499049834
 20
142.59886458113388
 40
0.1627906593116554
  0
CIRCLE
  8
_1-4_
  6
CONTINUOUS
 62
    7
 10
242.48352875580659
 20
143.18398552971917
 40
0.1627906593116554
  0
CIRCLE
  8
_1-4_
  6
CONTINUOUS
 62
    7
 10
243.8653564453125
 20
144.87531094937711
 40
0.1627906593116554
  0
CIRCLE
  8
_1-4_
  6
CONTINUOUS
 62
    7
 10
241.30440376900339
 20
144.6174044222445
 40
0.1627906593116554
  0
CIRCLE
  8
_1-4_
  6
CONTINUOUS
 62
    7
 10
239.87986796611065
 20
145.40522807353253
 40
0.1627906593116554
  0
CIRCLE
  8
_1-4_
  6
CONTINUOUS
 62
    7
 10
235.80369279191302
 20
143.75299814585094
 40
0.1627906593116554
  0
CIRCLE
  8
_1-4_
  6
CONTINUOUS
 62
    7
 10
237.67997947899073
 20
141.56198037637247
 40
0.1627906593116554
  0
CIRCLE
  8
_1-4_
  6
CONTINUOUS
 62
    7
 10
233.90704180743245
 20
138.43988367029138
 40
0.1627906593116554
  0
CIRCLE
  8
_1-4_
  6
CONTINUOUS
 62
    7
 10
250.47091097445102
 20
149.7517559979413
 40
0.1627906593116554
  0
CIRCLE
  8
_1-4_
  6
CONTINUOUS
 62
    7
 10
248.06468241923565
 20
147.95727291622677
 40
0.1627906593116554
  0
CIRCLE
  8
_1-4_
  6
CONTINUOUS
 62
    7
 10
247.45558455183701
 20
147.32680862014359
 40
0.1627906593116554
  0
CIRCLE
  8
_1-4_
  6
CONTINUOUS
 62
    7
 10
249.66170852248734
 20
149.56678235853042
 40
0.1627906593116554
  0
CIRCLE
  8
_1-4_
  6
CONTINUOUS
 62
    7
 10
247.33107283308701
 20
149.5907716493349
 40
0.1627906593116554
  0
CIRCLE
  8
_1-4_
  6
CONTINUOUS
 62
    7
 10
243.37317389410896
 20
147.27784027924409
 40
0.1627906593116554
  0
CIRCLE
  8
_1-4_
  6
CONTINUOUS
 62
    7
 10
243.72800259976776
 20
145.29577306798987
 40
0.1627906593116554
  0
CIRCLE
  8
_1-4_
  6
CONTINUOUS
 62
    7
 10
252.2956064585093
 20
148.07292628932643
 40
0.1627906593116554
  0
CIRCLE
  8
_1-4_
  6
CONTINUOUS
 62
    7
 10
253.99579022381758
 20
148.65805960990289
 40
0.1627906593116554
  0
CIRCLE
  8
_1-4_
  6
CONTINUOUS
 62
    7
 10
252.81666523701438
 20
150.09146613043708
 40
0.1627906593116554
  0
CIRCLE
  8
_1-4_
  6
CONTINUOUS
 62
    7
 10
247.31595425992401
 20
149.22707222603464
 40
0.1627906593116554
  0
CIRCLE
  8
_1-4_
  6
CONTINUOUS
 62
    7
 10
246.46142083245357
 20
147.95102506070523
 40
0.1627906593116554
  0
CIRCLE
  8
_1-4_
  6
CONTINUOUS
 62
    7
 10
249.19224094700169
 20
147.03605445655617
 40
0.1627906593116554
  0
CIRCLE
  8
_1-4_
  6
CONTINUOUS
 62
    7
 10
246.86784074113177
 20
145.45676978858742
 40
0.1627906593116554
  0
CIRCLE
  8
_1-4_
  6
CONTINUOUS
 62
    7
 10
245.41930327544344
 20
143.91394537848396
 40
0.1627906593116554
  0
CIRCLE
  8
_1-4_
  6
CONTINUOUS
 62
    7
 10
252.28325921135982
 20
150.10242771457982
 40
0.1627906593116554
  0
CIRCLE
  8
_1-4_
  6
CONTINUOUS
 62
    7
 10
248.55565251530828
 20
148.07139216242609
 40
0.1627906593116554
  0
CIRCLE
  8
_1-4_
  6
CONTINUOUS
 62
    7
 10
254.01989086254224
 20
149.8116735509924
 40
0.1627906593116554
  0
CIRCLE
  8
_1-4_
  6
CONTINUOUS
 62
    7
 10
251.69549065667232
 20
148.23238888302365
 40
0.1627906593116554
  0
CIRCLE
  8
_1-4_
  6
CONTINUOUS
 62
    7
 10
250.24697793496622
 20
146.68957684491133
 40
0.1627906593116554
  0
CIRCLE
  8
_1-4_
  6
CONTINUOUS
 62
    7
 10
265.25130813186234
 20
154.84276848870357
 40
0.1627906593116554
  0
CIRCLE
  8
_1-4_
  6
CONTINUOUS
 62
    7
 10
262.84507957664698
 20
153.04829777898016
 40
0.1627906593116554
  0
CIRCLE
  8
_1-4_
  6
CONTINUOUS
 62
    7
 10
262.23598170924834
 20
152.41782111090583
 40
0.1627906593116554
  0
CIRCLE
  8
_1-4_
  6
CONTINUOUS
 62
    7
 10
264.44210567989865
 20
154.6578072212838
 40
0.1627906593116554
  0
CIRCLE
  8
_1-4_
  6
CONTINUOUS
 62
    7
 10
262.11146999049834
 20
154.68178414009714
 40
0.1627906593116554
  0
CIRCLE
  8
_1-4_
  6
CONTINUOUS
 62
    7
 10
260.55977486275339
 20
154.16334822371201
 40
0.1627906593116554
  0
CIRCLE
  8
_1-4_
  6
CONTINUOUS
 62
    7
 10
258.15357105152026
 20
152.36885277000636
 40
0.1627906593116554
  0
CIRCLE
  8
_1-4_
  6
CONTINUOUS
 62
    7
 10
258.50839975717906
 20
150.38678555875211
 40
0.1627906593116554
  0
CIRCLE
  8
_1-4_
  6
CONTINUOUS
 62
    7
 10
267.07600361592063
 20
153.16395115207982
 40
0.1627906593116554
  0
CIRCLE
  8
_1-4_
  6
CONTINUOUS
 62
    7
 10
268.77618738122891
 20
153.74907210066513
 40
0.1627906593116554
  0
CIRCLE
  8
_1-4_
  6
CONTINUOUS
 62
    7
 10
270.15801507073479
 20
155.44039752032307
 40
0.1627906593116554
  0
CIRCLE
  8
_1-4_
  6
CONTINUOUS
 62
    7
 10
267.59706239442568
 20
155.18249099319047
 40
0.1627906593116554
  0
CIRCLE
  8
_1-4_
  6
CONTINUOUS
 62
    7
 10
266.17252659153297
 20
155.97031464447846
 40
0.1627906593116554
  0
CIRCLE
  8
_1-4_
  6
CONTINUOUS
 62
    7
 10
262.09635141733531
 20
154.31808471679687
 40
0.1627906593116554
  0
CIRCLE
  8
_1-4_
  6
CONTINUOUS
 62
    7
 10
261.2418179898649
 20
153.0420375514675
 40
0.1627906593116554
  0
CIRCLE
  8
_1-4_
  6
CONTINUOUS
 62
    7
 10
263.97263810441302
 20
152.12706694731841
 40
0.1627906593116554
  0
CIRCLE
  8
_1-4_
  6
CONTINUOUS
 62
    7
 10
261.64823789854307
 20
150.54778227934966
 40
0.1627906593116554
  0
CIRCLE
  8
_1-4_
  6
CONTINUOUS
 62
    7
 10
260.19972517683703
 20
149.00497024123734
 40
0.1627906593116554
  0
CIRCLE
  8
_1-4_
  6
CONTINUOUS
 62
    7
 10
256.41691465635557
 20
152.65960693359375
 40
0.1627906593116554
  0
CIRCLE
  8
_1-4_
  6
CONTINUOUS
 62
    7
 10
264.84488822318411
 20
157.3370361328125
 40
0.1627906593116554
  0
CIRCLE
  8
_1-4_
  6
CONTINUOUS
 62
    7
 10
276.76356959987334
 20
160.31684256888727
 40
0.1627906593116554
  0
CIRCLE
  8
_1-4_
  6
CONTINUOUS
 62
    7
 10
274.35734104465797
 20
158.52235948717274
 40
0.1627906593116554
  0
CIRCLE
  8
_1-4_
  6
CONTINUOUS
 62
    7
 10
273.74824317725933
 20
157.89189519108953
 40
0.1627906593116554
  0
CIRCLE
  8
_1-4_
  6
CONTINUOUS
 62
    7
 10
275.95436714790964
 20
160.13186892947635
 40
0.1627906593116554
  0
CIRCLE
  8
_1-4_
  6
CONTINUOUS
 62
    7
 10
273.62373145850933
 20
160.15585822028083
 40
0.1627906593116554
  0
CIRCLE
  8
_1-4_
  6
CONTINUOUS
 62
    7
 10
272.07203633076438
 20
159.6374223038957
 40
0.1627906593116554
  0
CIRCLE
  8
_1-4_
  6
CONTINUOUS
 62
    7
 10
269.66583251953125
 20
157.84292685019005
 40
0.1627906593116554
  0
CIRCLE
  8
_1-4_
  6
CONTINUOUS
 62
    7
 10
270.02066122519005
 20
155.86085963893581
 40
0.1627906593116554
  0
CIRCLE
  8
_1-4_
  6
CONTINUOUS
 62
    7
 10
278.58826508393162
 20
158.6380128602724
 40
0.1627906593116554
  0
CIRCLE
  8
_1-4_
  6
CONTINUOUS
 62
    7
 10
280.2884488492399
 20
159.22314618084883
 40
0.1627906593116554
  0
CIRCLE
  8
_1-4_
  6
CONTINUOUS
 62
    7
 10
279.10932386243667
 20
160.65656507337417
 40
0.1627906593116554
  0
CIRCLE
  8
_1-4_
  6
CONTINUOUS
 62
    7
 10
273.6086128853463
 20
159.79215879698057
 40
0.1627906593116554
  0
CIRCLE
  8
_1-4_
  6
CONTINUOUS
 62
    7
 10
272.75407945787583
 20
158.5161116316512
 40
0.1627906593116554
  0
CIRCLE
  8
_1-4_
  6
CONTINUOUS
 62
    7
 10
275.48489957242401
 20
157.60114102750211
 40
0.1627906593116554
  0
CIRCLE
  8
_1-4_
  6
CONTINUOUS
 62
    7
 10
273.16049936655406
 20
156.02185635953336
 40
0.1627906593116554
  0
CIRCLE
  8
_1-4_
  6
CONTINUOUS
 62
    7
 10
271.71198664484797
 20
154.4790319494299
 40
0.1627906593116554
  0
CIRCLE
  8
_1-4_
  6
CONTINUOUS
 62
    7
 10
267.92917612436656
 20
158.13368101377745
 40
0.1627906593116554
  0
CIRCLE
  8
_1-4_
  6
CONTINUOUS
 62
    7
 10
278.57591783678208
 20
160.66751428552578
 40
0.1627906593116554
  0
CIRCLE
  8
_1-4_
  6
CONTINUOUS
 62
    7
 10
274.49348243507183
 20
160.6185583166174
 40
0.1627906593116554
  0
CIRCLE
  8
_1-4_
  6
CONTINUOUS
 62
    7
 10
274.84831114073057
 20
158.63647873337206
 40
0.1627906593116554
  0
CIRCLE
  8
_1-4_
  6
CONTINUOUS
 62
    7
 10
280.31254948796453
 20
160.37676012193836
 40
0.1627906593116554
  0
CIRCLE
  8
_1-4_
  6
CONTINUOUS
 62
    7
 10
277.98814928209458
 20
158.79747545396961
 40
0.1627906593116554
  0
CIRCLE
  8
_1-4_
  6
CONTINUOUS
 62
    7
 10
276.53963656038854
 20
157.25466341585727
 40
0.1627906593116554
  0
CIRCLE
  8
_1-4_
  6
CONTINUOUS
 62
    7
 10
317.8999947212838
 20
178.15665992530617
 40
0.1627906593116554
  0
CIRCLE
  8
_1-4_
  6
CONTINUOUS
 62
    7
 10
315.49379091005068
 20
176.36217684359164
 40
0.1627906593116554
  0
CIRCLE
  8
_1-4_
  6
CONTINUOUS
 62
    7
 10
314.88466829866979
 20
175.73171254750847
 40
0.1627906593116554
  0
CIRCLE
  8
_1-4_
  6
CONTINUOUS
 62
    7
 10
317.0907922693201
 20
177.97169865788641
 40
0.1627906593116554
  0
CIRCLE
  8
_1-4_
  6
CONTINUOUS
 62
    7
 10
314.76015657991979
 20
177.99567557669977
 40
0.1627906593116554
  0
CIRCLE
  8
_1-4_
  6
CONTINUOUS
 62
    7
 10
313.20846145217484
 20
177.47723966031461
 40
0.1627906593116554
  0
CIRCLE
  8
_1-4_
  6
CONTINUOUS
 62
    7
 10
310.80225764094172
 20
175.68274420660896
 40
0.1627906593116554
  0
CIRCLE
  8
_1-4_
  6
CONTINUOUS
 62
    7
 10
311.15708634660052
 20
173.70067699535474
 40
0.1627906593116554
  0
CIRCLE
  8
_1-4_
  6
CONTINUOUS
 62
    7
 10
319.72469020534209
 20
176.47784258868245
 40
0.1627906593116554
  0
CIRCLE
  8
_1-4_
  6
CONTINUOUS
 62
    7
 10
321.42487397065037
 20
177.06296353726773
 40
0.1627906593116554
  0
CIRCLE
  8
_1-4_
  6
CONTINUOUS
 62
    7
 10
322.80670166015625
 20
178.75428895692568
 40
0.1627906593116554
  0
CIRCLE
  8
_1-4_
  6
CONTINUOUS
 62
    7
 10
320.24574898384714
 20
178.49638242979307
 40
0.1627906593116554
  0
CIRCLE
  8
_1-4_
  6
CONTINUOUS
 62
    7
 10
318.82121318095443
 20
179.28420608108109
 40
0.1627906593116554
  0
CIRCLE
  8
_1-4_
  6
CONTINUOUS
 62
    7
 10
314.74503800675677
 20
177.63197615339951
 40
0.1627906593116554
  0
CIRCLE
  8
_1-4_
  6
CONTINUOUS
 62
    7
 10
313.89050457928636
 20
176.3559289880701
 40
0.1627906593116554
  0
CIRCLE
  8
_1-4_
  6
CONTINUOUS
 62
    7
 10
316.62132469383448
 20
175.44095838392104
 40
0.1627906593116554
  0
CIRCLE
  8
_1-4_
  6
CONTINUOUS
 62
    7
 10
314.29692448796453
 20
173.86167371595229
 40
0.1627906593116554
  0
CIRCLE
  8
_1-4_
  6
CONTINUOUS
 62
    7
 10
312.84841176625844
 20
172.31886167783995
 40
0.1627906593116554
  0
CIRCLE
  8
_1-4_
  6
CONTINUOUS
 62
    7
 10
309.06560124577703
 20
175.97349837019638
 40
0.1627906593116554
  0
CIRCLE
  8
_1-4_
  6
CONTINUOUS
 62
    7
 10
310.15042691617401
 20
177.53142898147172
 40
0.1627906593116554
  0
CIRCLE
  8
_1-4_
  6
CONTINUOUS
 62
    7
 10
317.49357481260557
 20
180.65091519742398
 40
0.1627906593116554
  0
CIRCLE
  8
_1-4_
  6
CONTINUOUS
 62
    7
 10
329.41225618929479
 20
183.63073400548987
 40
0.1627906593116554
  0
CIRCLE
  8
_1-4_
  6
CONTINUOUS
 62
    7
 10
327.00605237806167
 20
181.83625092377534
 40
0.1627906593116554
  0
CIRCLE
  8
_1-4_
  6
CONTINUOUS
 62
    7
 10
326.39692976668078
 20
181.20578662769216
 40
0.1627906593116554
  0
CIRCLE
  8
_1-4_
  6
CONTINUOUS
 62
    7
 10
328.60305373733109
 20
183.44576036607899
 40
0.1627906593116554
  0
CIRCLE
  8
_1-4_
  6
CONTINUOUS
 62
    7
 10
326.27241804793078
 20
183.46973728489232
 40
0.1627906593116554
  0
CIRCLE
  8
_1-4_
  6
CONTINUOUS
 62
    7
 10
324.72072292018584
 20
182.95131374049831
 40
0.1627906593116554
  0
CIRCLE
  8
_1-4_
  6
CONTINUOUS
 62
    7
 10
322.31451910895271
 20
181.15681828679266
 40
0.1627906593116554
  0
CIRCLE
  8
_1-4_
  6
CONTINUOUS
 62
    7
 10
322.66934781461151
 20
179.17473870354732
 40
0.1627906593116554
  0
CIRCLE
  8
_1-4_
  6
CONTINUOUS
 62
    7
 10
331.23695167335308
 20
181.951904296875
 40
0.1627906593116554
  0
CIRCLE
  8
_1-4_
  6
CONTINUOUS
 62
    7
 10
332.93713543866136
 20
182.53703761745143
 40
0.1627906593116554
  0
CIRCLE
  8
_1-4_
  6
CONTINUOUS
 62
    7
 10
331.75801045185813
 20
183.97044413798565
 40
0.1627906593116554
  0
CIRCLE
  8
_1-4_
  6
CONTINUOUS
 62
    7
 10
326.25729947476776
 20
183.1060502335832
 40
0.1627906593116554
  0
CIRCLE
  8
_1-4_
  6
CONTINUOUS
 62
    7
 10
325.40276604729729
 20
181.8300030682538
 40
0.1627906593116554
  0
CIRCLE
  8
_1-4_
  6
CONTINUOUS
 62
    7
 10
328.13358616184547
 20
180.91502009211362
 40
0.1627906593116554
  0
CIRCLE
  8
_1-4_
  6
CONTINUOUS
 62
    7
 10
325.80918595597552
 20
179.33574779613599
 40
0.1627906593116554
  0
CIRCLE
  8
_1-4_
  6
CONTINUOUS
 62
    7
 10
324.36067323426943
 20
177.79292338603253
 40
0.1627906593116554
  0
CIRCLE
  8
_1-4_
  6
CONTINUOUS
 62
    7
 10
320.57786271378802
 20
181.44757245038008
 40
0.1627906593116554
  0
CIRCLE
  8
_1-4_
  6
CONTINUOUS
 62
    7
 10
321.662688384185
 20
183.00550306165542
 40
0.1627906593116554
  0
CIRCLE
  8
_1-4_
  6
CONTINUOUS
 62
    7
 10
331.22460442620354
 20
183.98140572212839
 40
0.1627906593116554
  0
CIRCLE
  8
_1-4_
  6
CONTINUOUS
 62
    7
 10
327.14216902449328
 20
183.93243738122891
 40
0.1627906593116554
  0
CIRCLE
  8
_1-4_
  6
CONTINUOUS
 62
    7
 10
327.49702247413433
 20
181.95037016997466
 40
0.1627906593116554
  0
CIRCLE
  8
_1-4_
  6
CONTINUOUS
 62
    7
 10
332.96126082136828
 20
183.69065155854096
 40
0.1627906593116554
  0
CIRCLE
  8
_1-4_
  6
CONTINUOUS
 62
    7
 10
330.63683587151604
 20
182.11136689057221
 40
0.1627906593116554
  0
CIRCLE
  8
_1-4_
  6
CONTINUOUS
 62
    7
 10
329.18832314981
 20
180.5685548524599
 40
0.1627906593116554
  0
CIRCLE
  8
_1-4_
  6
CONTINUOUS
 62
    7
 10
110.80099157384925
 20
157.10756044130068
 40
0.1627906593116554
  0
CIRCLE
  8
_1-4_
  6
CONTINUOUS
 62
    7
 10
113.20720775707349
 20
155.31307735958615
 40
0.1627906593116554
  0
CIRCLE
  8
_1-4_
  6
CONTINUOUS
 62
    7
 10
113.81630562447214
 20
154.68260069151182
 40
0.1627906593116554
  0
CIRCLE
  8
_1-4_
  6
CONTINUOUS
 62
    7
 10
111.6101816538218
 20
156.92258680188979
 40
0.1627906593116554
  0
CIRCLE
  8
_1-4_
  6
CONTINUOUS
 62
    7
 10
113.94082971521327
 20
156.94656372070312
 40
0.1627906593116554
  0
CIRCLE
  8
_1-4_
  6
CONTINUOUS
 62
    7
 10
115.4925248429582
 20
156.428127804318
 40
0.1627906593116554
  0
CIRCLE
  8
_1-4_
  6
CONTINUOUS
 62
    7
 10
117.8987286541913
 20
154.63364472260346
 40
0.1627906593116554
  0
CIRCLE
  8
_1-4_
  6
CONTINUOUS
 62
    7
 10
117.54389994853253
 20
152.65156513935813
 40
0.1627906593116554
  0
CIRCLE
  8
_1-4_
  6
CONTINUOUS
 62
    7
 10
108.97629608979096
 20
155.42873073268581
 40
0.1627906593116554
  0
CIRCLE
  8
_1-4_
  6
CONTINUOUS
 62
    7
 10
107.2761123244827
 20
156.01386405326227
 40
0.1627906593116554
  0
CIRCLE
  8
_1-4_
  6
CONTINUOUS
 62
    7
 10
105.89427226298565
 20
157.70517710092906
 40
0.1627906593116554
  0
CIRCLE
  8
_1-4_
  6
CONTINUOUS
 62
    7
 10
108.4552373112859
 20
157.44727057379646
 40
0.1627906593116554
  0
CIRCLE
  8
_1-4_
  6
CONTINUOUS
 62
    7
 10
109.87977311417863
 20
158.23509422508448
 40
0.1627906593116554
  0
CIRCLE
  8
_1-4_
  6
CONTINUOUS
 62
    7
 10
113.95594828837628
 20
156.58287666939401
 40
0.1627906593116554
  0
CIRCLE
  8
_1-4_
  6
CONTINUOUS
 62
    7
 10
114.81046934385559
 20
155.30682950406461
 40
0.1627906593116554
  0
CIRCLE
  8
_1-4_
  6
CONTINUOUS
 62
    7
 10
112.07966160129857
 20
154.39184652792443
 40
0.1627906593116554
  0
CIRCLE
  8
_1-4_
  6
CONTINUOUS
 62
    7
 10
114.4040618071685
 20
152.8125742319468
 40
0.1627906593116554
  0
CIRCLE
  8
_1-4_
  6
CONTINUOUS
 62
    7
 10
115.85258690086572
 20
151.26974982184333
 40
0.1627906593116554
  0
CIRCLE
  8
_1-4_
  6
CONTINUOUS
 62
    7
 10
119.635385049356
 20
154.92439888619089
 40
0.1627906593116554
  0
CIRCLE
  8
_1-4_
  6
CONTINUOUS
 62
    7
 10
118.55055937895905
 20
156.48232949746622
 40
0.1627906593116554
  0
CIRCLE
  8
_1-4_
  6
CONTINUOUS
 62
    7
 10
111.20739911053633
 20
159.60181571341852
 40
0.1627906593116554
  0
CIRCLE
  8
_1-4_
  6
CONTINUOUS
 62
    7
 10
99.288730105838269
 20
162.58162214949326
 40
0.1627906593116554
  0
CIRCLE
  8
_1-4_
  6
CONTINUOUS
 62
    7
 10
101.69494010306694
 20
160.78715143976984
 40
0.1627906593116554
  0
CIRCLE
  8
_1-4_
  6
CONTINUOUS
 62
    7
 10
102.30405034245672
 20
160.15667477169552
 40
0.1627906593116554
  0
CIRCLE
  8
_1-4_
  6
CONTINUOUS
 62
    7
 10
100.09792018581082
 20
162.39666088207349
 40
0.1627906593116554
  0
CIRCLE
  8
_1-4_
  6
CONTINUOUS
 62
    7
 10
102.42857443319785
 20
162.42063780088682
 40
0.1627906593116554
  0
CIRCLE
  8
_1-4_
  6
CONTINUOUS
 62
    7
 10
103.98026337494721
 20
161.90220188450169
 40
0.1627906593116554
  0
CIRCLE
  8
_1-4_
  6
CONTINUOUS
 62
    7
 10
106.38646718618033
 20
160.10770643079604
 40
0.1627906593116554
  0
CIRCLE
  8
_1-4_
  6
CONTINUOUS
 62
    7
 10
106.03163848052154
 20
158.12563921954182
 40
0.1627906593116554
  0
CIRCLE
  8
_1-4_
  6
CONTINUOUS
 62
    7
 10
97.464034621779987
 20
160.90280481286953
 40
0.1627906593116554
  0
CIRCLE
  8
_1-4_
  6
CONTINUOUS
 62
    7
 10
95.763844670476146
 20
161.48792576145482
 40
0.1627906593116554
  0
CIRCLE
  8
_1-4_
  6
CONTINUOUS
 62
    7
 10
94.382016980970235
 20
163.17925118111276
 40
0.1627906593116554
  0
CIRCLE
  8
_1-4_
  6
CONTINUOUS
 62
    7
 10
96.942969657279349
 20
162.92134465398016
 40
0.1627906593116554
  0
CIRCLE
  8
_1-4_
  6
CONTINUOUS
 62
    7
 10
98.367511646167657
 20
163.70916830526818
 40
0.1627906593116554
  0
CIRCLE
  8
_1-4_
  6
CONTINUOUS
 62
    7
 10
102.44368682036529
 20
162.05693837758659
 40
0.1627906593116554
  0
CIRCLE
  8
_1-4_
  6
CONTINUOUS
 62
    7
 10
103.2982078758446
 20
160.78089121225719
 40
0.1627906593116554
  0
CIRCLE
  8
_1-4_
  6
CONTINUOUS
 62
    7
 10
100.56740013328759
 20
159.86592060810813
 40
0.1627906593116554
  0
CIRCLE
  8
_1-4_
  6
CONTINUOUS
 62
    7
 10
102.89180033915753
 20
158.28663594013938
 40
0.1627906593116554
  0
CIRCLE
  8
_1-4_
  6
CONTINUOUS
 62
    7
 10
104.34032543285474
 20
156.74382390202703
 40
0.1627906593116554
  0
CIRCLE
  8
_1-4_
  6
CONTINUOUS
 62
    7
 10
108.12312358134503
 20
160.39846059438347
 40
0.1627906593116554
  0
CIRCLE
  8
_1-4_
  6
CONTINUOUS
 62
    7
 10
107.03829791094806
 20
161.9563912056588
 40
0.1627906593116554
  0
CIRCLE
  8
_1-4_
  6
CONTINUOUS
 62
    7
 10
99.695143828520912
 20
165.07587742161107
 40
0.1627906593116554
  0
CIRCLE
  8
_1-4_
  6
CONTINUOUS
 62
    7
 10
94.461074004302162
 20
165.35725361592063
 40
0.1627906593116554
  0
CIRCLE
  8
_1-4_
  6
CONTINUOUS
 62
    7
 10
96.867284001530834
 20
163.56277053420609
 40
0.1627906593116554
  0
CIRCLE
  8
_1-4_
  6
CONTINUOUS
 62
    7
 10
97.476388054925053
 20
162.93230623812289
 40
0.1627906593116554
  0
CIRCLE
  8
_1-4_
  6
CONTINUOUS
 62
    7
 10
95.270257898279141
 20
165.17227997650971
 40
0.1627906593116554
  0
CIRCLE
  8
_1-4_
  6
CONTINUOUS
 62
    7
 10
97.600912145666186
 20
165.19626926731419
 40
0.1627906593116554
  0
CIRCLE
  8
_1-4_
  6
CONTINUOUS
 62
    7
 10
99.152594901419974
 20
164.67783335092906
 40
0.1627906593116554
  0
CIRCLE
  8
_1-4_
  6
CONTINUOUS
 62
    7
 10
101.55880489864866
 20
162.88333789722341
 40
0.1627906593116554
  0
CIRCLE
  8
_1-4_
  6
CONTINUOUS
 62
    7
 10
101.20397619298987
 20
160.90125831397805
 40
0.1627906593116554
  0
CIRCLE
  8
_1-4_
  6
CONTINUOUS
 62
    7
 10
97.61602453283362
 20
164.83256984401393
 40
0.1627906593116554
  0
CIRCLE
  8
_1-4_
  6
CONTINUOUS
 62
    7
 10
98.47055177430849
 20
163.55652267868456
 40
0.1627906593116554
  0
CIRCLE
  8
_1-4_
  6
CONTINUOUS
 62
    7
 10
95.739737845755911
 20
162.64155207453547
 40
0.1627906593116554
  0
CIRCLE
  8
_1-4_
  6
CONTINUOUS
 62
    7
 10
98.064138051625847
 20
161.06226740656672
 40
0.1627906593116554
  0
CIRCLE
  8
_1-4_
  6
CONTINUOUS
 62
    7
 10
99.512656959327501
 20
159.51944299646328
 40
0.1627906593116554
  0
CIRCLE
  8
_1-4_
  6
CONTINUOUS
 62
    7
 10
103.29546129381335
 20
163.17409206081081
 40
0.1627906593116554
  0
CIRCLE
  8
_1-4_
  6
CONTINUOUS
 62
    7
 10
135.13499079523859
 20
146.53029983108109
 40
0.1627906593116554
  0
CIRCLE
  8
_1-4_
  6
CONTINUOUS
 62
    7
 10
137.54120697846284
 20
144.73581674936656
 40
0.1627906593116554
  0
CIRCLE
  8
_1-4_
  6
CONTINUOUS
 62
    7
 10
138.15030484586148
 20
144.10534008129224
 40
0.1627906593116554
  0
CIRCLE
  8
_1-4_
  6
CONTINUOUS
 62
    7
 10
135.94418087521115
 20
146.34532619167018
 40
0.1627906593116554
  0
CIRCLE
  8
_1-4_
  6
CONTINUOUS
 62
    7
 10
138.27484130859375
 20
146.36930311048354
 40
0.1627906593116554
  0
CIRCLE
  8
_1-4_
  6
CONTINUOUS
 62
    7
 10
139.82652406434755
 20
145.85086719409841
 40
0.1627906593116554
  0
CIRCLE
  8
_1-4_
  6
CONTINUOUS
 62
    7
 10
142.23272787558068
 20
144.05638411238388
 40
0.1627906593116554
  0
CIRCLE
  8
_1-4_
  6
CONTINUOUS
 62
    7
 10
141.87789916992187
 20
142.07430452913852
 40
0.1627906593116554
  0
CIRCLE
  8
_1-4_
  6
CONTINUOUS
 62
    7
 10
133.31029531118034
 20
144.85147012246622
 40
0.1627906593116554
  0
CIRCLE
  8
_1-4_
  6
CONTINUOUS
 62
    7
 10
131.61011154587206
 20
145.43660344304266
 40
0.1627906593116554
  0
CIRCLE
  8
_1-4_
  6
CONTINUOUS
 62
    7
 10
130.22828385636615
 20
147.12791649070948
 40
0.1627906593116554
  0
CIRCLE
  8
_1-4_
  6
CONTINUOUS
 62
    7
 10
132.78923653267526
 20
146.87000996357688
 40
0.1627906593116554
  0
CIRCLE
  8
_1-4_
  6
CONTINUOUS
 62
    7
 10
134.213772335568
 20
147.65783361486487
 40
0.1627906593116554
  0
CIRCLE
  8
_1-4_
  6
CONTINUOUS
 62
    7
 10
138.28994750976562
 20
146.00561605917443
 40
0.1627906593116554
  0
CIRCLE
  8
_1-4_
  6
CONTINUOUS
 62
    7
 10
139.14446856524495
 20
144.72956889384503
 40
0.1627906593116554
  0
CIRCLE
  8
_1-4_
  6
CONTINUOUS
 62
    7
 10
136.41366082268792
 20
143.81458591770482
 40
0.1627906593116554
  0
CIRCLE
  8
_1-4_
  6
CONTINUOUS
 62
    7
 10
138.73806102855787
 20
142.23531362172722
 40
0.1627906593116554
  0
CIRCLE
  8
_1-4_
  6
CONTINUOUS
 62
    7
 10
140.18658612225508
 20
140.69248921162375
 40
0.1627906593116554
  0
CIRCLE
  8
_1-4_
  6
CONTINUOUS
 62
    7
 10
143.96938427074537
 20
144.3471382759713
 40
0.1627906593116554
  0
CIRCLE
  8
_1-4_
  6
CONTINUOUS
 62
    7
 10
142.88455860034841
 20
145.90506888724664
 40
0.1627906593116554
  0
CIRCLE
  8
_1-4_
  6
CONTINUOUS
 62
    7
 10
135.54141070391682
 20
149.02455510319891
 40
0.1627906593116554
  0
CIRCLE
  8
_1-4_
  6
CONTINUOUS
 62
    7
 10
123.62272932722763
 20
152.00436153927365
 40
0.1627906593116554
  0
CIRCLE
  8
_1-4_
  6
CONTINUOUS
 62
    7
 10
126.02894551045186
 20
150.20989082955026
 40
0.1627906593116554
  0
CIRCLE
  8
_1-4_
  6
CONTINUOUS
 62
    7
 10
126.63804337785051
 20
149.57941416147594
 40
0.1627906593116554
  0
CIRCLE
  8
_1-4_
  6
CONTINUOUS
 62
    7
 10
124.43191940720017
 20
151.81940027185388
 40
0.1627906593116554
  0
CIRCLE
  8
_1-4_
  6
CONTINUOUS
 62
    7
 10
126.76256746859164
 20
151.84337719066724
 40
0.1627906593116554
  0
CIRCLE
  8
_1-4_
  6
CONTINUOUS
 62
    7
 10
128.31426259633659
 20
151.32494127428211
 40
0.1627906593116554
  0
CIRCLE
  8
_1-4_
  6
CONTINUOUS
 62
    7
 10
130.72046640756969
 20
149.53044582057643
 40
0.1627906593116554
  0
CIRCLE
  8
_1-4_
  6
CONTINUOUS
 62
    7
 10
130.36563770191091
 20
147.54837860932221
 40
0.1627906593116554
  0
CIRCLE
  8
_1-4_
  6
CONTINUOUS
 62
    7
 10
121.79803384316935
 20
150.32554420264992
 40
0.1627906593116554
  0
CIRCLE
  8
_1-4_
  6
CONTINUOUS
 62
    7
 10
120.09785007786107
 20
150.91066515123524
 40
0.1627906593116554
  0
CIRCLE
  8
_1-4_
  6
CONTINUOUS
 62
    7
 10
121.27697506466428
 20
152.34408404376057
 40
0.1627906593116554
  0
CIRCLE
  8
_1-4_
  6
CONTINUOUS
 62
    7
 10
126.77768604175465
 20
151.47967776736698
 40
0.1627906593116554
  0
CIRCLE
  8
_1-4_
  6
CONTINUOUS
 62
    7
 10
127.63220709723396
 20
150.20363060203761
 40
0.1627906593116554
  0
CIRCLE
  8
_1-4_
  6
CONTINUOUS
 62
    7
 10
124.90139935467695
 20
149.28865999788852
 40
0.1627906593116554
  0
CIRCLE
  8
_1-4_
  6
CONTINUOUS
 62
    7
 10
127.22579956054687
 20
147.70937532991977
 40
0.1627906593116554
  0
CIRCLE
  8
_1-4_
  6
CONTINUOUS
 62
    7
 10
128.67432465424409
 20
146.16656329180745
 40
0.1627906593116554
  0
CIRCLE
  8
_1-4_
  6
CONTINUOUS
 62
    7
 10
132.45712280273437
 20
149.82119998416385
 40
0.1627906593116554
  0
CIRCLE
  8
_1-4_
  6
CONTINUOUS
 62
    7
 10
131.37229713233742
 20
151.37913059543919
 40
0.1627906593116554
  0
CIRCLE
  8
_1-4_
  6
CONTINUOUS
 62
    7
 10
121.81039346230997
 20
152.35504562790331
 40
0.1627906593116554
  0
CIRCLE
  8
_1-4_
  6
CONTINUOUS
 62
    7
 10
125.89280412003801
 20
152.3060772870038
 40
0.1627906593116554
  0
CIRCLE
  8
_1-4_
  6
CONTINUOUS
 62
    7
 10
125.53797541437923
 20
150.32401007574958
 40
0.1627906593116554
  0
CIRCLE
  8
_1-4_
  6
CONTINUOUS
 62
    7
 10
120.07373706714527
 20
152.06429146431589
 40
0.1627906593116554
  0
CIRCLE
  8
_1-4_
  6
CONTINUOUS
 62
    7
 10
122.39813727301521
 20
150.48500679634714
 40
0.1627906593116554
  0
CIRCLE
  8
_1-4_
  6
CONTINUOUS
 62
    7
 10
123.84666236671242
 20
148.94218238624367
 40
0.1627906593116554
  0
CIRCLE
  8
_1-4_
  6
CONTINUOUS
 62
    7
 10
89.562736717430326
 20
168.24680637668919
 40
0.1627906593116554
  0
CIRCLE
  8
_1-4_
  6
CONTINUOUS
 62
    7
 10
91.968946714658998
 20
166.45232329497466
 40
0.1627906593116554
  0
CIRCLE
  8
_1-4_
  6
CONTINUOUS
 62
    7
 10
92.578050768053217
 20
165.82185899889149
 40
0.1627906593116554
  0
CIRCLE
  8
_1-4_
  6
CONTINUOUS
 62
    7
 10
90.371926797402878
 20
168.06183273727831
 40
0.1627906593116554
  0
CIRCLE
  8
_1-4_
  6
CONTINUOUS
 62
    7
 10
92.70257485879435
 20
168.08582202808279
 40
0.1627906593116554
  0
CIRCLE
  8
_1-4_
  6
CONTINUOUS
 62
    7
 10
94.254263800543711
 20
167.56738611169766
 40
0.1627906593116554
  0
CIRCLE
  8
_1-4_
  6
CONTINUOUS
 62
    7
 10
96.660473797772383
 20
165.77289065799198
 40
0.1627906593116554
  0
CIRCLE
  8
_1-4_
  6
CONTINUOUS
 62
    7
 10
96.305638906118034
 20
163.79082344673776
 40
0.1627906593116554
  0
CIRCLE
  8
_1-4_
  6
CONTINUOUS
 62
    7
 10
87.738035047376485
 20
166.56797666807432
 40
0.1627906593116554
  0
CIRCLE
  8
_1-4_
  6
CONTINUOUS
 62
    7
 10
86.037851282068203
 20
167.15310998865078
 40
0.1627906593116554
  0
CIRCLE
  8
_1-4_
  6
CONTINUOUS
 62
    7
 10
84.656023592562292
 20
168.8444354083087
 40
0.1627906593116554
  0
CIRCLE
  8
_1-4_
  6
CONTINUOUS
 62
    7
 10
87.21697626887142
 20
168.58652888117609
 40
0.1627906593116554
  0
CIRCLE
  8
_1-4_
  6
CONTINUOUS
 62
    7
 10
88.641518257759714
 20
169.37435253246412
 40
0.1627906593116554
  0
CIRCLE
  8
_1-4_
  6
CONTINUOUS
 62
    7
 10
92.717687245961784
 20
167.72212260478253
 40
0.1627906593116554
  0
CIRCLE
  8
_1-4_
  6
CONTINUOUS
 62
    7
 10
93.572214487436668
 20
166.44607543945312
 40
0.1627906593116554
  0
CIRCLE
  8
_1-4_
  6
CONTINUOUS
 62
    7
 10
90.841400558884089
 20
165.53110483530406
 40
0.1627906593116554
  0
CIRCLE
  8
_1-4_
  6
CONTINUOUS
 62
    7
 10
93.165806950749584
 20
163.95182016733531
 40
0.1627906593116554
  0
CIRCLE
  8
_1-4_
  6
CONTINUOUS
 62
    7
 10
94.614325858451224
 20
162.40899575723185
 40
0.1627906593116554
  0
CIRCLE
  8
_1-4_
  6
CONTINUOUS
 62
    7
 10
98.39712400694151
 20
166.0636448215794
 40
0.1627906593116554
  0
CIRCLE
  8
_1-4_
  6
CONTINUOUS
 62
    7
 10
97.312298336544558
 20
167.62157543285474
 40
0.1627906593116554
  0
CIRCLE
  8
_1-4_
  6
CONTINUOUS
 62
    7
 10
89.96914425411741
 20
170.74106164880703
 40
0.1627906593116554
  0
CIRCLE
  8
_1-4_
  6
CONTINUOUS
 62
    7
 10
78.05047524941935
 20
173.72086808488177
 40
0.1627906593116554
  0
CIRCLE
  8
_1-4_
  6
CONTINUOUS
 62
    7
 10
80.456685246648021
 20
171.92639737515836
 40
0.1627906593116554
  0
CIRCLE
  8
_1-4_
  6
CONTINUOUS
 62
    7
 10
81.06578930004224
 20
171.29592070708404
 40
0.1627906593116554
  0
CIRCLE
  8
_1-4_
  6
CONTINUOUS
 62
    7
 10
78.859665329391902
 20
173.53590681746201
 40
0.1627906593116554
  0
CIRCLE
  8
_1-4_
  6
CONTINUOUS
 62
    7
 10
81.190313390783359
 20
173.55988373627534
 40
0.1627906593116554
  0
CIRCLE
  8
_1-4_
  6
CONTINUOUS
 62
    7
 10
82.742002332532735
 20
173.04144781989021
 40
0.1627906593116554
  0
CIRCLE
  8
_1-4_
  6
CONTINUOUS
 62
    7
 10
85.148212329761407
 20
171.24696473817568
 40
0.1627906593116554
  0
CIRCLE
  8
_1-4_
  6
CONTINUOUS
 62
    7
 10
84.793377438107058
 20
169.26488515493034
 40
0.1627906593116554
  0
CIRCLE
  8
_1-4_
  6
CONTINUOUS
 62
    7
 10
76.225773579365523
 20
172.04205074825802
 40
0.1627906593116554
  0
CIRCLE
  8
_1-4_
  6
CONTINUOUS
 62
    7
 10
74.525589814057241
 20
172.62718406883448
 40
0.1627906593116554
  0
CIRCLE
  8
_1-4_
  6
CONTINUOUS
 62
    7
 10
75.704714800860415
 20
174.06059058936867
 40
0.1627906593116554
  0
CIRCLE
  8
_1-4_
  6
CONTINUOUS
 62
    7
 10
81.205425777950808
 20
173.19618431297511
 40
0.1627906593116554
  0
CIRCLE
  8
_1-4_
  6
CONTINUOUS
 62
    7
 10
82.059953019425677
 20
171.92014951963682
 40
0.1627906593116554
  0
CIRCLE
  8
_1-4_
  6
CONTINUOUS
 62
    7
 10
79.329139090873099
 20
171.00516654349664
 40
0.1627906593116554
  0
CIRCLE
  8
_1-4_
  6
CONTINUOUS
 62
    7
 10
81.653545482738593
 20
169.42588187552789
 40
0.1627906593116554
  0
CIRCLE
  8
_1-4_
  6
CONTINUOUS
 62
    7
 10
83.102064390440248
 20
167.88306983741555
 40
0.1627906593116554
  0
CIRCLE
  8
_1-4_
  6
CONTINUOUS
 62
    7
 10
86.884862538930534
 20
171.5377189017631
 40
0.1627906593116554
  0
CIRCLE
  8
_1-4_
  6
CONTINUOUS
 62
    7
 10
85.800036868533581
 20
173.09564951303844
 40
0.1627906593116554
  0
CIRCLE
  8
_1-4_
  6
CONTINUOUS
 62
    7
 10
76.238127012510574
 20
174.07155217351141
 40
0.1627906593116554
  0
CIRCLE
  8
_1-4_
  6
CONTINUOUS
 62
    7
 10
80.32055004222974
 20
174.02258383261193
 40
0.1627906593116554
  0
CIRCLE
  8
_1-4_
  6
CONTINUOUS
 62
    7
 10
79.965715150575392
 20
172.04051662135768
 40
0.1627906593116554
  0
CIRCLE
  8
_1-4_
  6
CONTINUOUS
 62
    7
 10
74.501476803341433
 20
173.78079800992398
 40
0.1627906593116554
  0
CIRCLE
  8
_1-4_
  6
CONTINUOUS
 62
    7
 10
76.825883195206927
 20
172.20151334195523
 40
0.1627906593116554
  0
CIRCLE
  8
_1-4_
  6
CONTINUOUS
 62
    7
 10
78.274402102908596
 20
170.65868893185177
 40
0.1627906593116554
  0
CIRCLE
  8
_1-4_
  6
CONTINUOUS
 62
    7
 10
63.096529986407319
 20
178.28921343829182
 40
0.1627906593116554
  0
CIRCLE
  8
_1-4_
  6
CONTINUOUS
 62
    7
 10
65.50273998363599
 20
176.49474272856841
 40
0.1627906593116554
  0
CIRCLE
  8
_1-4_
  6
CONTINUOUS
 62
    7
 10
66.111850223025783
 20
175.86426606049409
 40
0.1627906593116554
  0
CIRCLE
  8
_1-4_
  6
CONTINUOUS
 62
    7
 10
63.905720066379843
 20
178.10425217087206
 40
0.1627906593116554
  0
CIRCLE
  8
_1-4_
  6
CONTINUOUS
 62
    7
 10
66.236374313766902
 20
178.12822908968539
 40
0.1627906593116554
  0
CIRCLE
  8
_1-4_
  6
CONTINUOUS
 62
    7
 10
67.788057069520676
 20
177.60979317330026
 40
0.1627906593116554
  0
CIRCLE
  8
_1-4_
  6
CONTINUOUS
 62
    7
 10
70.194267066749376
 20
175.81531009158573
 40
0.1627906593116554
  0
CIRCLE
  8
_1-4_
  6
CONTINUOUS
 62
    7
 10
69.839432175095027
 20
173.83323050834039
 40
0.1627906593116554
  0
CIRCLE
  8
_1-4_
  6
CONTINUOUS
 62
    7
 10
61.271828316353464
 20
176.61039610166807
 40
0.1627906593116554
  0
CIRCLE
  8
_1-4_
  6
CONTINUOUS
 62
    7
 10
59.571644551045182
 20
177.19552942224453
 40
0.1627906593116554
  0
CIRCLE
  8
_1-4_
  6
CONTINUOUS
 62
    7
 10
58.189816861539271
 20
178.88684246991133
 40
0.1627906593116554
  0
CIRCLE
  8
_1-4_
  6
CONTINUOUS
 62
    7
 10
60.750769537848385
 20
178.62893594277872
 40
0.1627906593116554
  0
CIRCLE
  8
_1-4_
  6
CONTINUOUS
 62
    7
 10
62.175311526736692
 20
179.41675959406675
 40
0.1627906593116554
  0
CIRCLE
  8
_1-4_
  6
CONTINUOUS
 62
    7
 10
66.251486700934322
 20
177.76452966638516
 40
0.1627906593116554
  0
CIRCLE
  8
_1-4_
  6
CONTINUOUS
 62
    7
 10
67.106007756413646
 20
176.48849487304687
 40
0.1627906593116554
  0
CIRCLE
  8
_1-4_
  6
CONTINUOUS
 62
    7
 10
64.375193827861068
 20
175.57351189690669
 40
0.1627906593116554
  0
CIRCLE
  8
_1-4_
  6
CONTINUOUS
 62
    7
 10
66.699600219726563
 20
173.99422722893794
 40
0.1627906593116554
  0
CIRCLE
  8
_1-4_
  6
CONTINUOUS
 62
    7
 10
68.148119127428231
 20
172.4514151908256
 40
0.1627906593116554
  0
CIRCLE
  8
_1-4_
  6
CONTINUOUS
 62
    7
 10
71.930917275918489
 20
176.10606425517315
 40
0.1627906593116554
  0
CIRCLE
  8
_1-4_
  6
CONTINUOUS
 62
    7
 10
70.846091605521536
 20
177.66399486644849
 40
0.1627906593116554
  0
CIRCLE
  8
_1-4_
  6
CONTINUOUS
 62
    7
 10
63.502943709089948
 20
180.78348108240078
 40
0.1627906593116554
  0
CIRCLE
  8
_1-4_
  6
CONTINUOUS
 62
    7
 10
51.584268518396328
 20
183.76328751847552
 40
0.1627906593116554
  0
CIRCLE
  8
_1-4_
  6
CONTINUOUS
 62
    7
 10
53.990478515625
 20
181.96880443676099
 40
0.1627906593116554
  0
CIRCLE
  8
_1-4_
  6
CONTINUOUS
 62
    7
 10
54.599582569019219
 20
181.33834014067779
 40
0.1627906593116554
  0
CIRCLE
  8
_1-4_
  6
CONTINUOUS
 62
    7
 10
52.393458598368881
 20
183.57832625105576
 40
0.1627906593116554
  0
CIRCLE
  8
_1-4_
  6
CONTINUOUS
 62
    7
 10
54.724112845755911
 20
183.60230316986909
 40
0.1627906593116554
  0
CIRCLE
  8
_1-4_
  6
CONTINUOUS
 62
    7
 10
56.275795601509714
 20
183.08386725348396
 40
0.1627906593116554
  0
CIRCLE
  8
_1-4_
  6
CONTINUOUS
 62
    7
 10
58.682005598738385
 20
181.28937179977831
 40
0.1627906593116554
  0
CIRCLE
  8
_1-4_
  6
CONTINUOUS
 62
    7
 10
58.327170707084036
 20
179.30730458852409
 40
0.1627906593116554
  0
CIRCLE
  8
_1-4_
  6
CONTINUOUS
 62
    7
 10
49.75956994134026
 20
182.08445780986065
 40
0.1627906593116554
  0
CIRCLE
  8
_1-4_
  6
CONTINUOUS
 62
    7
 10
48.05938308303422
 20
182.66959113043708
 40
0.1627906593116554
  0
CIRCLE
  8
_1-4_
  6
CONTINUOUS
 62
    7
 10
49.238508069837422
 20
184.10301002296242
 40
0.1627906593116554
  0
CIRCLE
  8
_1-4_
  6
CONTINUOUS
 62
    7
 10
54.73922523292336
 20
183.23860374656886
 40
0.1627906593116554
  0
CIRCLE
  8
_1-4_
  6
CONTINUOUS
 62
    7
 10
55.593746288402656
 20
181.96255658123945
 40
0.1627906593116554
  0
CIRCLE
  8
_1-4_
  6
CONTINUOUS
 62
    7
 10
52.862932359850078
 20
181.04758597709039
 40
0.1627906593116554
  0
CIRCLE
  8
_1-4_
  6
CONTINUOUS
 62
    7
 10
55.187338751715572
 20
179.46830130912164
 40
0.1627906593116554
  0
CIRCLE
  8
_1-4_
  6
CONTINUOUS
 62
    7
 10
56.63585765941724
 20
177.92547689901818
 40
0.1627906593116554
  0
CIRCLE
  8
_1-4_
  6
CONTINUOUS
 62
    7
 10
60.418655807907527
 20
181.58012596336573
 40
0.1627906593116554
  0
CIRCLE
  8
_1-4_
  6
CONTINUOUS
 62
    7
 10
59.333830137510574
 20
183.13805657464107
 40
0.1627906593116554
  0
CIRCLE
  8
_1-4_
  6
CONTINUOUS
 62
    7
 10
49.771923374485311
 20
184.11395923511404
 40
0.1627906593116554
  0
CIRCLE
  8
_1-4_
  6
CONTINUOUS
 62
    7
 10
53.854343311206719
 20
184.06500326620568
 40
0.1627906593116554
  0
CIRCLE
  8
_1-4_
  6
CONTINUOUS
 62
    7
 10
53.499514605547944
 20
182.08292368296031
 40
0.1627906593116554
  0
CIRCLE
  8
_1-4_
  6
CONTINUOUS
 62
    7
 10
48.035273165316198
 20
183.82320507152662
 40
0.1627906593116554
  0
CIRCLE
  8
_1-4_
  6
CONTINUOUS
 62
    7
 10
50.359676464183906
 20
182.24392040355787
 40
0.1627906593116554
  0
CIRCLE
  8
_1-4_
  6
CONTINUOUS
 62
    7
 10
51.808195371885574
 20
180.70110836544552
 40
0.1627906593116554
  0
CIRCLE
  8
_1-4_
  6
CONTINUOUS
 62
    7
 10
44.984952565785989
 20
189.0333722088788
 40
0.1627906593116554
  0
CIRCLE
  8
_1-4_
  6
CONTINUOUS
 62
    7
 10
47.391162563014689
 20
187.23890149915542
 40
0.1627906593116554
  0
CIRCLE
  8
_1-4_
  6
CONTINUOUS
 62
    7
 10
48.000269709406666
 20
186.60842483108109
 40
0.1627906593116554
  0
CIRCLE
  8
_1-4_
  6
CONTINUOUS
 62
    7
 10
45.794142645758541
 20
188.84841094145904
 40
0.1627906593116554
  0
CIRCLE
  8
_1-4_
  6
CONTINUOUS
 62
    7
 10
48.124793800147813
 20
188.8723878602724
 40
0.1627906593116554
  0
CIRCLE
  8
_1-4_
  6
CONTINUOUS
 62
    7
 10
49.676479648899374
 20
188.35395194388727
 40
0.1627906593116554
  0
CIRCLE
  8
_1-4_
  6
CONTINUOUS
 62
    7
 10
52.082686553130287
 20
186.55945649018159
 40
0.1627906593116554
  0
CIRCLE
  8
_1-4_
  6
CONTINUOUS
 62
    7
 10
51.727857847471512
 20
184.57738927892737
 40
0.1627906593116554
  0
CIRCLE
  8
_1-4_
  6
CONTINUOUS
 62
    7
 10
43.160253988729949
 20
187.35455487225508
 40
0.1627906593116554
  0
CIRCLE
  8
_1-4_
  6
CONTINUOUS
 62
    7
 10
41.46006713042388
 20
187.93967582084039
 40
0.1627906593116554
  0
CIRCLE
  8
_1-4_
  6
CONTINUOUS
 62
    7
 10
40.078236347920182
 20
189.63100124049834
 40
0.1627906593116554
  0
CIRCLE
  8
_1-4_
  6
CONTINUOUS
 62
    7
 10
42.639189024229324
 20
189.37309471336573
 40
0.1627906593116554
  0
CIRCLE
  8
_1-4_
  6
CONTINUOUS
 62
    7
 10
44.06373410611539
 20
190.16091836465372
 40
0.1627906593116554
  0
CIRCLE
  8
_1-4_
  6
CONTINUOUS
 62
    7
 10
48.139906187315262
 20
188.50868843697214
 40
0.1627906593116554
  0
CIRCLE
  8
_1-4_
  6
CONTINUOUS
 62
    7
 10
48.994430335792345
 20
187.23264127164273
 40
0.1627906593116554
  0
CIRCLE
  8
_1-4_
  6
CONTINUOUS
 62
    7
 10
46.263619500237553
 20
186.31767066749367
 40
0.1627906593116554
  0
CIRCLE
  8
_1-4_
  6
CONTINUOUS
 62
    7
 10
48.588022799105261
 20
184.73838599952492
 40
0.1627906593116554
  0
CIRCLE
  8
_1-4_
  6
CONTINUOUS
 62
    7
 10
50.036541706806901
 20
183.19557396141261
 40
0.1627906593116554
  0
CIRCLE
  8
_1-4_
  6
CONTINUOUS
 62
    7
 10
53.819342948294974
 20
186.85021065376901
 40
0.1627906593116554
  0
CIRCLE
  8
_1-4_
  6
CONTINUOUS
 62
    7
 10
52.734511091902448
 20
188.4081536370355
 40
0.1627906593116554
  0
CIRCLE
  8
_1-4_
  6
CONTINUOUS
 62
    7
 10
45.391363195470859
 20
191.52763985298776
 40
0.1627906593116554
  0
CIRCLE
  8
_1-4_
  6
CONTINUOUS
 62
    7
 10
33.472691097775026
 20
194.5074462890625
 40
0.1627906593116554
  0
CIRCLE
  8
_1-4_
  6
CONTINUOUS
 62
    7
 10
35.878901095003698
 20
192.712963207348
 40
0.1627906593116554
  0
CIRCLE
  8
_1-4_
  6
CONTINUOUS
 62
    7
 10
36.488008241395704
 20
192.08249891126479
 40
0.1627906593116554
  0
CIRCLE
  8
_1-4_
  6
CONTINUOUS
 62
    7
 10
34.281881177747579
 20
194.32247264965162
 40
0.1627906593116554
  0
CIRCLE
  8
_1-4_
  6
CONTINUOUS
 62
    7
 10
36.612532332136823
 20
194.34646194045609
 40
0.1627906593116554
  0
CIRCLE
  8
_1-4_
  6
CONTINUOUS
 62
    7
 10
38.164218180888412
 20
193.82802602407097
 40
0.1627906593116554
  0
CIRCLE
  8
_1-4_
  6
CONTINUOUS
 62
    7
 10
40.570428178117083
 20
192.03353057036529
 40
0.1627906593116554
  0
CIRCLE
  8
_1-4_
  6
CONTINUOUS
 62
    7
 10
40.215596379460521
 20
190.05146335911107
 40
0.1627906593116554
  0
CIRCLE
  8
_1-4_
  6
CONTINUOUS
 62
    7
 10
31.647992520718958
 20
192.82861658044766
 40
0.1627906593116554
  0
CIRCLE
  8
_1-4_
  6
CONTINUOUS
 62
    7
 10
29.947805662412918
 20
193.41374990102409
 40
0.1627906593116554
  0
CIRCLE
  8
_1-4_
  6
CONTINUOUS
 62
    7
 10
31.126927556218334
 20
194.84715642155828
 40
0.1627906593116554
  0
CIRCLE
  8
_1-4_
  6
CONTINUOUS
 62
    7
 10
36.627644719304271
 20
193.98276251715583
 40
0.1627906593116554
  0
CIRCLE
  8
_1-4_
  6
CONTINUOUS
 62
    7
 10
37.482168867781354
 20
192.70671535182646
 40
0.1627906593116554
  0
CIRCLE
  8
_1-4_
  6
CONTINUOUS
 62
    7
 10
34.751354939228776
 20
191.79174474767737
 40
0.1627906593116554
  0
CIRCLE
  8
_1-4_
  6
CONTINUOUS
 62
    7
 10
37.07576133109427
 20
190.21246007970862
 40
0.1627906593116554
  0
CIRCLE
  8
_1-4_
  6
CONTINUOUS
 62
    7
 10
38.524280238795939
 20
188.66963566960516
 40
0.1627906593116554
  0
CIRCLE
  8
_1-4_
  6
CONTINUOUS
 62
    7
 10
42.307078387286197
 20
192.32428473395271
 40
0.1627906593116554
  0
CIRCLE
  8
_1-4_
  6
CONTINUOUS
 62
    7
 10
41.222252716889273
 20
193.88221534522805
 40
0.1627906593116554
  0
CIRCLE
  8
_1-4_
  6
CONTINUOUS
 62
    7
 10
31.66034595386401
 20
194.85811800570102
 40
0.1627906593116554
  0
CIRCLE
  8
_1-4_
  6
CONTINUOUS
 62
    7
 10
35.742765890585417
 20
194.80914966480154
 40
0.1627906593116554
  0
CIRCLE
  8
_1-4_
  6
CONTINUOUS
 62
    7
 10
35.387934091928855
 20
192.82708245354732
 40
0.1627906593116554
  0
CIRCLE
  8
_1-4_
  6
CONTINUOUS
 62
    7
 10
29.923695744694896
 20
194.56736384211362
 40
0.1627906593116554
  0
CIRCLE
  8
_1-4_
  6
CONTINUOUS
 62
    7
 10
32.248099043562604
 20
192.98807917414487
 40
0.1627906593116554
  0
CIRCLE
  8
_1-4_
  6
CONTINUOUS
 62
    7
 10
33.696617951264244
 20
191.44526713603253
 40
0.1627906593116554
  0
CIRCLE
  8
_1-4_
  6
CONTINUOUS
 62
    7
 10
34.752425116461666
 20
190.46592506202492
 40
0.1627906593116554
  0
CIRCLE
  8
_1-4_
  6
CONTINUOUS
 62
    7
 10
37.158635113690366
 20
188.67145435230154
 40
0.1627906593116554
  0
CIRCLE
  8
_1-4_
  6
CONTINUOUS
 62
    7
 10
37.767739167084557
 20
188.04097768422722
 40
0.1627906593116554
  0
CIRCLE
  8
_1-4_
  6
CONTINUOUS
 62
    7
 10
35.56161210343646
 20
190.28096379460516
 40
0.1627906593116554
  0
CIRCLE
  8
_1-4_
  6
CONTINUOUS
 62
    7
 10
37.892263257825704
 20
190.30494071341852
 40
0.1627906593116554
  0
CIRCLE
  8
_1-4_
  6
CONTINUOUS
 62
    7
 10
39.443949106577293
 20
189.78650479703336
 40
0.1627906593116554
  0
CIRCLE
  8
_1-4_
  6
CONTINUOUS
 62
    7
 10
41.850159103805964
 20
187.99200934332771
 40
0.1627906593116554
  0
CIRCLE
  8
_1-4_
  6
CONTINUOUS
 62
    7
 10
41.495327305149374
 20
186.00994213207349
 40
0.1627906593116554
  0
CIRCLE
  8
_1-4_
  6
CONTINUOUS
 62
    7
 10
32.927723446407839
 20
188.7871077254012
 40
0.1627906593116554
  0
CIRCLE
  8
_1-4_
  6
CONTINUOUS
 62
    7
 10
31.227536588101771
 20
189.37222867398648
 40
0.1627906593116554
  0
CIRCLE
  8
_1-4_
  6
CONTINUOUS
 62
    7
 10
29.845708898595859
 20
191.06355409364443
 40
0.1627906593116554
  0
CIRCLE
  8
_1-4_
  6
CONTINUOUS
 62
    7
 10
32.406661574905002
 20
190.80564756651182
 40
0.1627906593116554
  0
CIRCLE
  8
_1-4_
  6
CONTINUOUS
 62
    7
 10
33.831203563793281
 20
191.59347121779984
 40
0.1627906593116554
  0
CIRCLE
  8
_1-4_
  6
CONTINUOUS
 62
    7
 10
37.907375644993124
 20
189.94124129011826
 40
0.1627906593116554
  0
CIRCLE
  8
_1-4_
  6
CONTINUOUS
 62
    7
 10
38.761902886468022
 20
188.66520649678
 40
0.1627906593116554
  0
CIRCLE
  8
_1-4_
  6
CONTINUOUS
 62
    7
 10
36.031088957915443
 20
187.75022352063979
 40
0.1627906593116554
  0
CIRCLE
  8
_1-4_
  6
CONTINUOUS
 62
    7
 10
38.355492256783151
 20
186.17093885267104
 40
0.1627906593116554
  0
CIRCLE
  8
_1-4_
  6
CONTINUOUS
 62
    7
 10
39.804011164484791
 20
184.6281268145587
 40
0.1627906593116554
  0
CIRCLE
  8
_1-4_
  6
CONTINUOUS
 62
    7
 10
43.586812405972864
 20
188.28277587890625
 40
0.1627906593116554
  0
CIRCLE
  8
_1-4_
  6
CONTINUOUS
 62
    7
 10
42.501983642578125
 20
189.84070649018159
 40
0.1627906593116554
  0
CIRCLE
  8
_1-4_
  6
CONTINUOUS
 62
    7
 10
35.15883265314875
 20
192.96019270613388
 40
0.1627906593116554
  0
CIRCLE
  8
_1-4_
  6
CONTINUOUS
 62
    7
 10
23.240162101951796
 20
195.93999914220862
 40
0.1627906593116554
  0
CIRCLE
  8
_1-4_
  6
CONTINUOUS
 62
    7
 10
25.646372099180496
 20
194.14551606049409
 40
0.1627906593116554
  0
CIRCLE
  8
_1-4_
  6
CONTINUOUS
 62
    7
 10
26.255477699073595
 20
193.51505176441091
 40
0.1627906593116554
  0
CIRCLE
  8
_1-4_
  6
CONTINUOUS
 62
    7
 10
24.049352181924348
 20
195.75503787478885
 40
0.1627906593116554
  0
CIRCLE
  8
_1-4_
  6
CONTINUOUS
 62
    7
 10
26.380001789814713
 20
195.77901479360222
 40
0.1627906593116554
  0
CIRCLE
  8
_1-4_
  6
CONTINUOUS
 62
    7
 10
27.931687638566302
 20
195.26057887721709
 40
0.1627906593116554
  0
CIRCLE
  8
_1-4_
  6
CONTINUOUS
 62
    7
 10
30.337897635794974
 20
193.46608342351141
 40
0.1627906593116554
  0
CIRCLE
  8
_1-4_
  6
CONTINUOUS
 62
    7
 10
29.983065837138412
 20
191.48401621225719
 40
0.1627906593116554
  0
CIRCLE
  8
_1-4_
  6
CONTINUOUS
 62
    7
 10
21.415461978396849
 20
194.26116943359375
 40
0.1627906593116554
  0
CIRCLE
  8
_1-4_
  6
CONTINUOUS
 62
    7
 10
19.715276666589688
 20
194.84630275417021
 40
0.1627906593116554
  0
CIRCLE
  8
_1-4_
  6
CONTINUOUS
 62
    7
 10
20.894398560395103
 20
196.27972164669552
 40
0.1627906593116554
  0
CIRCLE
  8
_1-4_
  6
CONTINUOUS
 62
    7
 10
26.395114176982162
 20
195.41531537030195
 40
0.1627906593116554
  0
CIRCLE
  8
_1-4_
  6
CONTINUOUS
 62
    7
 10
27.249641418457031
 20
194.13926820497255
 40
0.1627906593116554
  0
CIRCLE
  8
_1-4_
  6
CONTINUOUS
 62
    7
 10
24.518825943405574
 20
193.22429760082349
 40
0.1627906593116554
  0
CIRCLE
  8
_1-4_
  6
CONTINUOUS
 62
    7
 10
26.843230788772161
 20
191.64501293285474
 40
0.1627906593116554
  0
CIRCLE
  8
_1-4_
  6
CONTINUOUS
 62
    7
 10
28.291749696473829
 20
190.10218852275128
 40
0.1627906593116554
  0
CIRCLE
  8
_1-4_
  6
CONTINUOUS
 62
    7
 10
32.074550937961874
 20
193.75683758709883
 40
0.1627906593116554
  0
CIRCLE
  8
_1-4_
  6
CONTINUOUS
 62
    7
 10
30.989722174567135
 20
195.31476819837417
 40
0.1627906593116554
  0
CIRCLE
  8
_1-4_
  6
CONTINUOUS
 62
    7
 10
21.427816958040808
 20
196.29067085884714
 40
0.1627906593116554
  0
CIRCLE
  8
_1-4_
  6
CONTINUOUS
 62
    7
 10
25.510236894762187
 20
196.24171488993878
 40
0.1627906593116554
  0
CIRCLE
  8
_1-4_
  6
CONTINUOUS
 62
    7
 10
25.155403549606746
 20
194.25963530669341
 40
0.1627906593116554
  0
CIRCLE
  8
_1-4_
  6
CONTINUOUS
 62
    7
 10
19.691165202372787
 20
195.99991669525971
 40
0.1627906593116554
  0
CIRCLE
  8
_1-4_
  6
CONTINUOUS
 62
    7
 10
22.015568501240494
 20
194.42063202729096
 40
0.1627906593116554
  0
CIRCLE
  8
_1-4_
  6
CONTINUOUS
 62
    7
 10
23.464087408942135
 20
192.87781998917865
 40
0.1627906593116554
  0
CIRCLE
  8
_1-4_
  6
CONTINUOUS
 62
    7
 10
17.357122575914531
 20
200.3914786673881
 40
0.1627906593116554
  0
CIRCLE
  8
_1-4_
  6
CONTINUOUS
 62
    7
 10
19.763332573143202
 20
198.59700795766472
 40
0.1627906593116554
  0
CIRCLE
  8
_1-4_
  6
CONTINUOUS
 62
    7
 10
20.372439719535208
 20
197.96653128959039
 40
0.1627906593116554
  0
CIRCLE
  8
_1-4_
  6
CONTINUOUS
 62
    7
 10
18.166312655887083
 20
200.20651739996833
 40
0.1627906593116554
  0
CIRCLE
  8
_1-4_
  6
CONTINUOUS
 62
    7
 10
20.496963810276327
 20
200.23049431878169
 40
0.1627906593116554
  0
CIRCLE
  8
_1-4_
  6
CONTINUOUS
 62
    7
 10
22.048648112529037
 20
199.71205840239654
 40
0.1627906593116554
  0
CIRCLE
  8
_1-4_
  6
CONTINUOUS
 62
    7
 10
24.454859656256588
 20
197.91756294869089
 40
0.1627906593116554
  0
CIRCLE
  8
_1-4_
  6
CONTINUOUS
 62
    7
 10
24.100026311101146
 20
195.93549573743667
 40
0.1627906593116554
  0
CIRCLE
  8
_1-4_
  6
CONTINUOUS
 62
    7
 10
15.532422452359583
 20
198.71266133076438
 40
0.1627906593116554
  0
CIRCLE
  8
_1-4_
  6
CONTINUOUS
 62
    7
 10
13.832237140552422
 20
199.29779465134081
 40
0.1627906593116554
  0
CIRCLE
  8
_1-4_
  6
CONTINUOUS
 62
    7
 10
12.450407131298164
 20
200.9891076990076
 40
0.1627906593116554
  0
CIRCLE
  8
_1-4_
  6
CONTINUOUS
 62
    7
 10
15.011360580856746
 20
200.731201171875
 40
0.1627906593116554
  0
CIRCLE
  8
_1-4_
  6
CONTINUOUS
 62
    7
 10
16.435902569745053
 20
201.51902482316302
 40
0.1627906593116554
  0
CIRCLE
  8
_1-4_
  6
CONTINUOUS
 62
    7
 10
20.512076197443776
 20
199.86679489548143
 40
0.1627906593116554
  0
CIRCLE
  8
_1-4_
  6
CONTINUOUS
 62
    7
 10
21.366600345920858
 20
198.59076010214318
 40
0.1627906593116554
  0
CIRCLE
  8
_1-4_
  6
CONTINUOUS
 62
    7
 10
18.635787963867188
 20
197.67577712600297
 40
0.1627906593116554
  0
CIRCLE
  8
_1-4_
  6
CONTINUOUS
 62
    7
 10
20.960191262734895
 20
196.09649245803422
 40
0.1627906593116554
  0
CIRCLE
  8
_1-4_
  6
CONTINUOUS
 62
    7
 10
22.408710170436564
 20
194.55368041992187
 40
0.1627906593116554
  0
CIRCLE
  8
_1-4_
  6
CONTINUOUS
 62
    7
 10
26.191511411924637
 20
198.20832948426943
 40
0.1627906593116554
  0
CIRCLE
  8
_1-4_
  6
CONTINUOUS
 62
    7
 10
25.106682648529869
 20
199.76626009554477
 40
0.1627906593116554
  0
CIRCLE
  8
_1-4_
  6
CONTINUOUS
 62
    7
 10
17.763533205599401
 20
202.88574631149706
 40
0.1627906593116554
  0
CIRCLE
  8
_1-4_
  6
CONTINUOUS
 62
    7
 10
8.8601774782747782
 20
203.44060536977409
 40
0.1627906593116554
  0
CIRCLE
  8
_1-4_
  6
CONTINUOUS
 62
    7
 10
8.9847015690159253
 20
205.70456839896539
 40
0.1627906593116554
  0
CIRCLE
  8
_1-4_
  6
CONTINUOUS
 62
    7
 10
10.536386644518046
 20
205.18613248258023
 40
0.1627906593116554
  0
CIRCLE
  8
_1-4_
  6
CONTINUOUS
 62
    7
 10
12.942597414996186
 20
203.39163702887458
 40
0.1627906593116554
  0
CIRCLE
  8
_1-4_
  6
CONTINUOUS
 62
    7
 10
12.587764843090156
 20
201.40956981762037
 40
0.1627906593116554
  0
CIRCLE
  8
_1-4_
  6
CONTINUOUS
 62
    7
 10
8.9998139561833455
 20
205.34086897566513
 40
0.1627906593116554
  0
CIRCLE
  8
_1-4_
  6
CONTINUOUS
 62
    7
 10
9.8543396511593357
 20
204.06482181033573
 40
0.1627906593116554
  0
CIRCLE
  8
_1-4_
  6
CONTINUOUS
 62
    7
 10
9.4479290214744651
 20
201.57056653821792
 40
0.1627906593116554
  0
CIRCLE
  8
_1-4_
  6
CONTINUOUS
 62
    7
 10
10.896448702425573
 20
200.02774212811445
 40
0.1627906593116554
  0
CIRCLE
  8
_1-4_
  6
CONTINUOUS
 62
    7
 10
14.679248397414739
 20
203.68239119246201
 40
0.1627906593116554
  0
CIRCLE
  8
_1-4_
  6
CONTINUOUS
 62
    7
 10
13.594421180518907
 20
205.24032180373734
 40
0.1627906593116554
  0
CIRCLE
  8
_1-4_
  6
CONTINUOUS
 62
    7
 10
183.2069561932538
 20
126.14895382442991
 40
0.1627906593116554
  0
CIRCLE
  8
_1-4_
  6
CONTINUOUS
 62
    7
 10
185.61316000448693
 20
124.35448311470651
 40
0.1627906593116554
  0
CIRCLE
  8
_1-4_
  6
CONTINUOUS
 62
    7
 10
186.22227024387669
 20
123.72400644663219
 40
0.1627906593116554
  0
CIRCLE
  8
_1-4_
  6
CONTINUOUS
 62
    7
 10
184.01614627322635
 20
125.96399255701014
 40
0.1627906593116554
  0
CIRCLE
  8
_1-4_
  6
CONTINUOUS
 62
    7
 10
186.34679433461784
 20
125.98796947582349
 40
0.1627906593116554
  0
CIRCLE
  8
_1-4_
  6
CONTINUOUS
 62
    7
 10
187.89847709037164
 20
125.46953355943835
 40
0.1627906593116554
  0
CIRCLE
  8
_1-4_
  6
CONTINUOUS
 62
    7
 10
190.30469327359586
 20
123.6750381057327
 40
0.1627906593116554
  0
CIRCLE
  8
_1-4_
  6
CONTINUOUS
 62
    7
 10
189.94985219594597
 20
121.69297089447846
 40
0.1627906593116554
  0
CIRCLE
  8
_1-4_
  6
CONTINUOUS
 62
    7
 10
181.38226070919552
 20
124.47013648780617
 40
0.1627906593116554
  0
CIRCLE
  8
_1-4_
  6
CONTINUOUS
 62
    7
 10
179.68206457189612
 20
125.05525743639147
 40
0.1627906593116554
  0
CIRCLE
  8
_1-4_
  6
CONTINUOUS
 62
    7
 10
178.30023688239021
 20
126.74658285604941
 40
0.1627906593116554
  0
CIRCLE
  8
_1-4_
  6
CONTINUOUS
 62
    7
 10
180.86118955869932
 20
126.48867632891681
 40
0.1627906593116554
  0
CIRCLE
  8
_1-4_
  6
CONTINUOUS
 62
    7
 10
182.2857377335832
 20
127.27649998020482
 40
0.1627906593116554
  0
CIRCLE
  8
_1-4_
  6
CONTINUOUS
 62
    7
 10
186.36191290778083
 20
125.62427005252323
 40
0.1627906593116554
  0
CIRCLE
  8
_1-4_
  6
CONTINUOUS
 62
    7
 10
187.21643396326016
 20
124.34822288719384
 40
0.1627906593116554
  0
CIRCLE
  8
_1-4_
  6
CONTINUOUS
 62
    7
 10
184.48561384871201
 20
123.43325228304477
 40
0.1627906593116554
  0
CIRCLE
  8
_1-4_
  6
CONTINUOUS
 62
    7
 10
186.81002642657307
 20
121.85396761507602
 40
0.1627906593116554
  0
CIRCLE
  8
_1-4_
  6
CONTINUOUS
 62
    7
 10
188.25853914827914
 20
120.31115557696369
 40
0.1627906593116554
  0
CIRCLE
  8
_1-4_
  6
CONTINUOUS
 62
    7
 10
192.04133729676943
 20
123.9657922693201
 40
0.1627906593116554
  0
CIRCLE
  8
_1-4_
  6
CONTINUOUS
 62
    7
 10
190.95651162637247
 20
125.52372288059544
 40
0.1627906593116554
  0
CIRCLE
  8
_1-4_
  6
CONTINUOUS
 62
    7
 10
183.61336372994089
 20
128.64320909654774
 40
0.1627906593116554
  0
CIRCLE
  8
_1-4_
  6
CONTINUOUS
 62
    7
 10
171.69469472524284
 20
131.62302790461359
 40
0.1627906593116554
  0
CIRCLE
  8
_1-4_
  6
CONTINUOUS
 62
    7
 10
174.10089853647594
 20
129.82854482289909
 40
0.1627906593116554
  0
CIRCLE
  8
_1-4_
  6
CONTINUOUS
 62
    7
 10
174.71000877586573
 20
129.19808052681589
 40
0.1627906593116554
  0
CIRCLE
  8
_1-4_
  6
CONTINUOUS
 62
    7
 10
172.50388480521539
 20
131.43805426520271
 40
0.1627906593116554
  0
CIRCLE
  8
_1-4_
  6
CONTINUOUS
 62
    7
 10
174.83453286660685
 20
131.46204355600719
 40
0.1627906593116554
  0
CIRCLE
  8
_1-4_
  6
CONTINUOUS
 62
    7
 10
176.38621562236065
 20
130.94360763962206
 40
0.1627906593116554
  0
CIRCLE
  8
_1-4_
  6
CONTINUOUS
 62
    7
 10
178.7924318055849
 20
129.14911218591638
 40
0.1627906593116554
  0
CIRCLE
  8
_1-4_
  6
CONTINUOUS
 62
    7
 10
178.43759072793497
 20
127.16704497466218
 40
0.1627906593116554
  0
CIRCLE
  8
_1-4_
  6
CONTINUOUS
 62
    7
 10
169.86998686919341
 20
129.94419819599875
 40
0.1627906593116554
  0
CIRCLE
  8
_1-4_
  6
CONTINUOUS
 62
    7
 10
168.16980310388516
 20
130.52933151657518
 40
0.1627906593116554
  0
CIRCLE
  8
_1-4_
  6
CONTINUOUS
 62
    7
 10
169.34892809068836
 20
131.96273803710937
 40
0.1627906593116554
  0
CIRCLE
  8
_1-4_
  6
CONTINUOUS
 62
    7
 10
174.84965143976987
 20
131.09834413270693
 40
0.1627906593116554
  0
CIRCLE
  8
_1-4_
  6
CONTINUOUS
 62
    7
 10
175.70417249524917
 20
129.82229696737755
 40
0.1627906593116554
  0
CIRCLE
  8
_1-4_
  6
CONTINUOUS
 62
    7
 10
172.97335238070102
 20
128.90732636322846
 40
0.1627906593116554
  0
CIRCLE
  8
_1-4_
  6
CONTINUOUS
 62
    7
 10
175.29776495856208
 20
127.32804169525971
 40
0.1627906593116554
  0
CIRCLE
  8
_1-4_
  6
CONTINUOUS
 62
    7
 10
176.74627768026818
 20
125.78521728515625
 40
0.1627906593116554
  0
CIRCLE
  8
_1-4_
  6
CONTINUOUS
 62
    7
 10
180.52907582875847
 20
129.4398663495038
 40
0.1627906593116554
  0
CIRCLE
  8
_1-4_
  6
CONTINUOUS
 62
    7
 10
179.44425015836148
 20
130.99779696077914
 40
0.1627906593116554
  0
CIRCLE
  8
_1-4_
  6
CONTINUOUS
 62
    7
 10
169.88234648833404
 20
131.97369962125211
 40
0.1627906593116554
  0
CIRCLE
  8
_1-4_
  6
CONTINUOUS
 62
    7
 10
173.96476951805323
 20
131.92473128035263
 40
0.1627906593116554
  0
CIRCLE
  8
_1-4_
  6
CONTINUOUS
 62
    7
 10
173.60994081239443
 20
129.94266406909841
 40
0.1627906593116554
  0
CIRCLE
  8
_1-4_
  6
CONTINUOUS
 62
    7
 10
168.14569009316935
 20
131.68294545766472
 40
0.1627906593116554
  0
CIRCLE
  8
_1-4_
  6
CONTINUOUS
 62
    7
 10
170.47010267103042
 20
130.10366078969597
 40
0.1627906593116554
  0
CIRCLE
  8
_1-4_
  6
CONTINUOUS
 62
    7
 10
171.91861539273648
 20
128.56084875158362
 40
0.1627906593116554
  0
CIRCLE
  8
_1-4_
  6
CONTINUOUS
 62
    7
 10
159.43551140862544
 20
135.51346237595018
 40
0.1627906593116554
  0
CIRCLE
  8
_1-4_
  6
CONTINUOUS
 62
    7
 10
161.84171521985854
 20
133.71899166622677
 40
0.1627906593116554
  0
CIRCLE
  8
_1-4_
  6
CONTINUOUS
 62
    7
 10
162.45082545924831
 20
133.08851499815245
 40
0.1627906593116554
  0
CIRCLE
  8
_1-4_
  6
CONTINUOUS
 62
    7
 10
160.24470148859797
 20
135.32850110853042
 40
0.1627906593116554
  0
CIRCLE
  8
_1-4_
  6
CONTINUOUS
 62
    7
 10
166.17840741131758
 20
131.05747944599875
 40
0.1627906593116554
  0
CIRCLE
  8
_1-4_
  6
CONTINUOUS
 62
    7
 10
157.61080355257602
 20
133.83464503932643
 40
0.1627906593116554
  0
CIRCLE
  8
_1-4_
  6
CONTINUOUS
 62
    7
 10
155.91061978726773
 20
134.41976598791175
 40
0.1627906593116554
  0
CIRCLE
  8
_1-4_
  6
CONTINUOUS
 62
    7
 10
154.52879209776182
 20
136.11109140756969
 40
0.1627906593116554
  0
CIRCLE
  8
_1-4_
  6
CONTINUOUS
 62
    7
 10
157.08974477407097
 20
135.85318488043708
 40
0.1627906593116554
  0
CIRCLE
  8
_1-4_
  6
CONTINUOUS
 62
    7
 10
163.44498917863177
 20
133.71273143871412
 40
0.1627906593116554
  0
CIRCLE
  8
_1-4_
  6
CONTINUOUS
 62
    7
 10
160.71416906408362
 20
132.79776083456505
 40
0.1627906593116554
  0
CIRCLE
  8
_1-4_
  6
CONTINUOUS
 62
    7
 10
163.03858164194469
 20
131.2184761665963
 40
0.1627906593116554
  0
CIRCLE
  8
_1-4_
  6
CONTINUOUS
 62
    7
 10
164.48709436365078
 20
129.67566412848396
 40
0.1627906593116554
  0
CIRCLE
  8
_1-4_
  6
CONTINUOUS
 62
    7
 10
147.92324994061445
 20
140.98753645613388
 40
0.1627906593116554
  0
CIRCLE
  8
_1-4_
  6
CONTINUOUS
 62
    7
 10
150.32945375184755
 20
139.19305337441935
 40
0.1627906593116554
  0
CIRCLE
  8
_1-4_
  6
CONTINUOUS
 62
    7
 10
150.93856399123734
 20
138.56258907833615
 40
0.1627906593116554
  0
CIRCLE
  8
_1-4_
  6
CONTINUOUS
 62
    7
 10
148.73244002058701
 20
140.80256281672297
 40
0.1627906593116554
  0
CIRCLE
  8
_1-4_
  6
CONTINUOUS
 62
    7
 10
151.06308808197846
 20
140.82655210752745
 40
0.1627906593116554
  0
CIRCLE
  8
_1-4_
  6
CONTINUOUS
 62
    7
 10
154.66614594330659
 20
136.53155352618245
 40
0.1627906593116554
  0
CIRCLE
  8
_1-4_
  6
CONTINUOUS
 62
    7
 10
146.09854208456505
 20
139.30870674751901
 40
0.1627906593116554
  0
CIRCLE
  8
_1-4_
  6
CONTINUOUS
 62
    7
 10
144.39835831925677
 20
139.89384006809544
 40
0.1627906593116554
  0
CIRCLE
  8
_1-4_
  6
CONTINUOUS
 62
    7
 10
145.57748330605997
 20
141.32724658862966
 40
0.1627906593116554
  0
CIRCLE
  8
_1-4_
  6
CONTINUOUS
 62
    7
 10
151.07819428315034
 20
140.46285268422722
 40
0.1627906593116554
  0
CIRCLE
  8
_1-4_
  6
CONTINUOUS
 62
    7
 10
151.93272771062078
 20
139.18680551889781
 40
0.1627906593116554
  0
CIRCLE
  8
_1-4_
  6
CONTINUOUS
 62
    7
 10
149.20190759607263
 20
138.27183491474875
 40
0.1627906593116554
  0
CIRCLE
  8
_1-4_
  6
CONTINUOUS
 62
    7
 10
151.5263201739337
 20
136.69255024678
 40
0.1627906593116554
  0
CIRCLE
  8
_1-4_
  6
CONTINUOUS
 62
    7
 10
152.97483289563979
 20
135.14972583667654
 40
0.1627906593116554
  0
CIRCLE
  8
_1-4_
  6
CONTINUOUS
 62
    7
 10
146.11090170370568
 20
141.3382081727724
 40
0.1627906593116554
  0
CIRCLE
  8
_1-4_
  6
CONTINUOUS
 62
    7
 10
150.19332473342484
 20
141.28923983187289
 40
0.1627906593116554
  0
CIRCLE
  8
_1-4_
  6
CONTINUOUS
 62
    7
 10
149.83848365577492
 20
139.30717262061867
 40
0.1627906593116554
  0
CIRCLE
  8
_1-4_
  6
CONTINUOUS
 62
    7
 10
144.37424530854096
 20
141.04745400918497
 40
0.1627906593116554
  0
CIRCLE
  8
_1-4_
  6
CONTINUOUS
 62
    7
 10
146.69865788640203
 20
139.46816934121622
 40
0.1627906593116554
  0
CIRCLE
  8
_1-4_
  6
CONTINUOUS
 62
    7
 10
148.14717060810813
 20
137.92535730310388
 40
0.1627906593116554
  0
CIRCLE
  8
_1-4_
  6
CONTINUOUS
 62
    7
 10
148.39019362990922
 20
144.2776819177576
 40
0.1627906593116554
  0
CIRCLE
  8
_1-4_
  6
CONTINUOUS
 62
    7
 10
150.79639744114232
 20
142.48321120803422
 40
0.1627906593116554
  0
CIRCLE
  8
_1-4_
  6
CONTINUOUS
 62
    7
 10
151.40550768053211
 20
141.8527345399599
 40
0.1627906593116554
  0
CIRCLE
  8
_1-4_
  6
CONTINUOUS
 62
    7
 10
149.19938370988177
 20
144.09272065033784
 40
0.1627906593116554
  0
CIRCLE
  8
_1-4_
  6
CONTINUOUS
 62
    7
 10
151.53003177127323
 20
144.1166975691512
 40
0.1627906593116554
  0
CIRCLE
  8
_1-4_
  6
CONTINUOUS
 62
    7
 10
146.56548577385982
 20
142.59886458113388
 40
0.1627906593116554
  0
CIRCLE
  8
_1-4_
  6
CONTINUOUS
 62
    7
 10
144.86530200855154
 20
143.18398552971917
 40
0.1627906593116554
  0
CIRCLE
  8
_1-4_
  6
CONTINUOUS
 62
    7
 10
143.48347431904563
 20
144.87531094937711
 40
0.1627906593116554
  0
CIRCLE
  8
_1-4_
  6
CONTINUOUS
 62
    7
 10
146.04442699535474
 20
144.6174044222445
 40
0.1627906593116554
  0
CIRCLE
  8
_1-4_
  6
CONTINUOUS
 62
    7
 10
147.46897517023859
 20
145.40522807353253
 40
0.1627906593116554
  0
CIRCLE
  8
_1-4_
  6
CONTINUOUS
 62
    7
 10
151.5451379724451
 20
143.75299814585094
 40
0.1627906593116554
  0
CIRCLE
  8
_1-4_
  6
CONTINUOUS
 62
    7
 10
149.6688512853674
 20
141.56198037637247
 40
0.1627906593116554
  0
CIRCLE
  8
_1-4_
  6
CONTINUOUS
 62
    7
 10
153.44177658493456
 20
138.43988367029138
 40
0.1627906593116554
  0
CIRCLE
  8
_1-4_
  6
CONTINUOUS
 62
    7
 10
136.87793216189823
 20
149.7517559979413
 40
0.1627906593116554
  0
CIRCLE
  8
_1-4_
  6
CONTINUOUS
 62
    7
 10
139.28413597313136
 20
147.95727291622677
 40
0.1627906593116554
  0
CIRCLE
  8
_1-4_
  6
CONTINUOUS
 62
    7
 10
139.89324621252112
 20
147.32680862014359
 40
0.1627906593116554
  0
CIRCLE
  8
_1-4_
  6
CONTINUOUS
 62
    7
 10
137.68712224187078
 20
149.56678235853042
 40
0.1627906593116554
  0
CIRCLE
  8
_1-4_
  6
CONTINUOUS
 62
    7
 10
140.01777030326227
 20
149.5907716493349
 40
0.1627906593116554
  0
CIRCLE
  8
_1-4_
  6
CONTINUOUS
 62
    7
 10
143.97566924224029
 20
147.27784027924409
 40
0.1627906593116554
  0
CIRCLE
  8
_1-4_
  6
CONTINUOUS
 62
    7
 10
143.62082816459039
 20
145.29577306798987
 40
0.1627906593116554
  0
CIRCLE
  8
_1-4_
  6
CONTINUOUS
 62
    7
 10
135.05322430584883
 20
148.07292628932643
 40
0.1627906593116554
  0
CIRCLE
  8
_1-4_
  6
CONTINUOUS
 62
    7
 10
133.35304054054055
 20
148.65805960990289
 40
0.1627906593116554
  0
CIRCLE
  8
_1-4_
  6
CONTINUOUS
 62
    7
 10
134.53216552734375
 20
150.09146613043708
 40
0.1627906593116554
  0
CIRCLE
  8
_1-4_
  6
CONTINUOUS
 62
    7
 10
140.03287650443414
 20
149.22707222603464
 40
0.1627906593116554
  0
CIRCLE
  8
_1-4_
  6
CONTINUOUS
 62
    7
 10
140.88740993190456
 20
147.95102506070523
 40
0.1627906593116554
  0
CIRCLE
  8
_1-4_
  6
CONTINUOUS
 62
    7
 10
138.15658981735643
 20
147.03605445655617
 40
0.1627906593116554
  0
CIRCLE
  8
_1-4_
  6
CONTINUOUS
 62
    7
 10
140.4810023952175
 20
145.45676978858742
 40
0.1627906593116554
  0
CIRCLE
  8
_1-4_
  6
CONTINUOUS
 62
    7
 10
141.92951511692357
 20
143.91394537848396
 40
0.1627906593116554
  0
CIRCLE
  8
_1-4_
  6
CONTINUOUS
 62
    7
 10
135.06558392498945
 20
150.10242771457982
 40
0.1627906593116554
  0
CIRCLE
  8
_1-4_
  6
CONTINUOUS
 62
    7
 10
138.7931658770587
 20
148.07139216242609
 40
0.1627906593116554
  0
CIRCLE
  8
_1-4_
  6
CONTINUOUS
 62
    7
 10
133.32892752982477
 20
149.8116735509924
 40
0.1627906593116554
  0
CIRCLE
  8
_1-4_
  6
CONTINUOUS
 62
    7
 10
135.65334010768581
 20
148.23238888302365
 40
0.1627906593116554
  0
CIRCLE
  8
_1-4_
  6
CONTINUOUS
 62
    7
 10
137.1018528293919
 20
146.68957684491133
 40
0.1627906593116554
  0
CIRCLE
  8
_1-4_
  6
CONTINUOUS
 62
    7
 10
122.09753500448691
 20
154.84276848870357
 40
0.1627906593116554
  0
CIRCLE
  8
_1-4_
  6
CONTINUOUS
 62
    7
 10
124.50373881572003
 20
153.04829777898016
 40
0.1627906593116554
  0
CIRCLE
  8
_1-4_
  6
CONTINUOUS
 62
    7
 10
125.11284905510981
 20
152.41782111090583
 40
0.1627906593116554
  0
CIRCLE
  8
_1-4_
  6
CONTINUOUS
 62
    7
 10
122.90672508445947
 20
154.6578072212838
 40
0.1627906593116554
  0
CIRCLE
  8
_1-4_
  6
CONTINUOUS
 62
    7
 10
125.23737314585094
 20
154.68178414009714
 40
0.1627906593116554
  0
CIRCLE
  8
_1-4_
  6
CONTINUOUS
 62
    7
 10
126.78905590160474
 20
154.16334822371201
 40
0.1627906593116554
  0
CIRCLE
  8
_1-4_
  6
CONTINUOUS
 62
    7
 10
129.19527208482899
 20
152.36885277000636
 40
0.1627906593116554
  0
CIRCLE
  8
_1-4_
  6
CONTINUOUS
 62
    7
 10
128.84043100717906
 20
150.38678555875211
 40
0.1627906593116554
  0
CIRCLE
  8
_1-4_
  6
CONTINUOUS
 62
    7
 10
120.2728271484375
 20
153.16395115207982
 40
0.1627906593116554
  0
CIRCLE
  8
_1-4_
  6
CONTINUOUS
 62
    7
 10
118.57264338312923
 20
153.74907210066513
 40
0.1627906593116554
  0
CIRCLE
  8
_1-4_
  6
CONTINUOUS
 62
    7
 10
117.19081569362332
 20
155.44039752032307
 40
0.1627906593116554
  0
CIRCLE
  8
_1-4_
  6
CONTINUOUS
 62
    7
 10
119.75176836993244
 20
155.18249099319047
 40
0.1627906593116554
  0
CIRCLE
  8
_1-4_
  6
CONTINUOUS
 62
    7
 10
121.1763165448163
 20
155.97031464447846
 40
0.1627906593116554
  0
CIRCLE
  8
_1-4_
  6
CONTINUOUS
 62
    7
 10
125.25247934702281
 20
154.31808471679687
 40
0.1627906593116554
  0
CIRCLE
  8
_1-4_
  6
CONTINUOUS
 62
    7
 10
126.10701277449326
 20
153.0420375514675
 40
0.1627906593116554
  0
CIRCLE
  8
_1-4_
  6
CONTINUOUS
 62
    7
 10
123.3761926599451
 20
152.12706694731841
 40
0.1627906593116554
  0
CIRCLE
  8
_1-4_
  6
CONTINUOUS
 62
    7
 10
125.70059286581504
 20
150.54778227934966
 40
0.1627906593116554
  0
CIRCLE
  8
_1-4_
  6
CONTINUOUS
 62
    7
 10
127.14911795951225
 20
149.00497024123734
 40
0.1627906593116554
  0
CIRCLE
  8
_1-4_
  6
CONTINUOUS
 62
    7
 10
130.93191610800255
 20
152.65960693359375
 40
0.1627906593116554
  0
CIRCLE
  8
_1-4_
  6
CONTINUOUS
 62
    7
 10
122.503942541174
 20
157.3370361328125
 40
0.1627906593116554
  0
CIRCLE
  8
_1-4_
  6
CONTINUOUS
 62
    7
 10
110.58527353647594
 20
160.31684256888727
 40
0.1627906593116554
  0
CIRCLE
  8
_1-4_
  6
CONTINUOUS
 62
    7
 10
112.99147734770904
 20
158.52235948717274
 40
0.1627906593116554
  0
CIRCLE
  8
_1-4_
  6
CONTINUOUS
 62
    7
 10
113.60058758709883
 20
157.89189519108953
 40
0.1627906593116554
  0
CIRCLE
  8
_1-4_
  6
CONTINUOUS
 62
    7
 10
111.39446361644849
 20
160.13186892947635
 40
0.1627906593116554
  0
CIRCLE
  8
_1-4_
  6
CONTINUOUS
 62
    7
 10
113.72511167783996
 20
160.15585822028083
 40
0.1627906593116554
  0
CIRCLE
  8
_1-4_
  6
CONTINUOUS
 62
    7
 10
115.27679443359375
 20
159.6374223038957
 40
0.1627906593116554
  0
CIRCLE
  8
_1-4_
  6
CONTINUOUS
 62
    7
 10
117.683010616818
 20
157.84292685019005
 40
0.1627906593116554
  0
CIRCLE
  8
_1-4_
  6
CONTINUOUS
 62
    7
 10
117.32816953916809
 20
155.86085963893581
 40
0.1627906593116554
  0
CIRCLE
  8
_1-4_
  6
CONTINUOUS
 62
    7
 10
108.76056568042652
 20
158.6380128602724
 40
0.1627906593116554
  0
CIRCLE
  8
_1-4_
  6
CONTINUOUS
 62
    7
 10
107.06038191511824
 20
159.22314618084883
 40
0.1627906593116554
  0
CIRCLE
  8
_1-4_
  6
CONTINUOUS
 62
    7
 10
108.23950690192146
 20
160.65656507337417
 40
0.1627906593116554
  0
CIRCLE
  8
_1-4_
  6
CONTINUOUS
 62
    7
 10
113.74021787901184
 20
159.79215879698057
 40
0.1627906593116554
  0
CIRCLE
  8
_1-4_
  6
CONTINUOUS
 62
    7
 10
114.59475130648227
 20
158.5161116316512
 40
0.1627906593116554
  0
CIRCLE
  8
_1-4_
  6
CONTINUOUS
 62
    7
 10
111.86393119193413
 20
157.60114102750211
 40
0.1627906593116554
  0
CIRCLE
  8
_1-4_
  6
CONTINUOUS
 62
    7
 10
114.18833139780406
 20
156.02185635953336
 40
0.1627906593116554
  0
CIRCLE
  8
_1-4_
  6
CONTINUOUS
 62
    7
 10
115.63685649150128
 20
154.4790319494299
 40
0.1627906593116554
  0
CIRCLE
  8
_1-4_
  6
CONTINUOUS
 62
    7
 10
119.41965463999156
 20
158.13368101377745
 40
0.1627906593116554
  0
CIRCLE
  8
_1-4_
  6
CONTINUOUS
 62
    7
 10
108.77292529956715
 20
160.66751428552578
 40
0.1627906593116554
  0
CIRCLE
  8
_1-4_
  6
CONTINUOUS
 62
    7
 10
112.85534832928633
 20
160.6185583166174
 40
0.1627906593116554
  0
CIRCLE
  8
_1-4_
  6
CONTINUOUS
 62
    7
 10
112.50050725163641
 20
158.63647873337206
 40
0.1627906593116554
  0
CIRCLE
  8
_1-4_
  6
CONTINUOUS
 62
    7
 10
107.03626890440246
 20
160.37676012193836
 40
0.1627906593116554
  0
CIRCLE
  8
_1-4_
  6
CONTINUOUS
 62
    7
 10
109.36068148226352
 20
158.79747545396961
 40
0.1627906593116554
  0
CIRCLE
  8
_1-4_
  6
CONTINUOUS
 62
    7
 10
110.8091942039696
 20
157.25466341585727
 40
0.1627906593116554
  0
CIRCLE
  8
_1-4_
  6
CONTINUOUS
 62
    7
 10
69.448842229069896
 20
178.15665992530617
 40
0.1627906593116554
  0
CIRCLE
  8
_1-4_
  6
CONTINUOUS
 62
    7
 10
71.855052226298568
 20
176.36217684359164
 40
0.1627906593116554
  0
CIRCLE
  8
_1-4_
  6
CONTINUOUS
 62
    7
 10
72.464156279692787
 20
175.73171254750847
 40
0.1627906593116554
  0
CIRCLE
  8
_1-4_
  6
CONTINUOUS
 62
    7
 10
70.258026123046875
 20
177.97169865788641
 40
0.1627906593116554
  0
CIRCLE
  8
_1-4_
  6
CONTINUOUS
 62
    7
 10
72.588680370433906
 20
177.99567557669977
 40
0.1627906593116554
  0
CIRCLE
  8
_1-4_
  6
CONTINUOUS
 62
    7
 10
74.140363126187708
 20
177.47723966031461
 40
0.1627906593116554
  0
CIRCLE
  8
_1-4_
  6
CONTINUOUS
 62
    7
 10
76.546573123416408
 20
175.68274420660896
 40
0.1627906593116554
  0
CIRCLE
  8
_1-4_
  6
CONTINUOUS
 62
    7
 10
76.191744417757604
 20
173.70067699535474
 40
0.1627906593116554
  0
CIRCLE
  8
_1-4_
  6
CONTINUOUS
 62
    7
 10
67.624140559016041
 20
176.47784258868245
 40
0.1627906593116554
  0
CIRCLE
  8
_1-4_
  6
CONTINUOUS
 62
    7
 10
65.923950607712214
 20
177.06296353726773
 40
0.1627906593116554
  0
CIRCLE
  8
_1-4_
  6
CONTINUOUS
 62
    7
 10
64.542122918206303
 20
178.75428895692568
 40
0.1627906593116554
  0
CIRCLE
  8
_1-4_
  6
CONTINUOUS
 62
    7
 10
67.103075594515417
 20
178.49638242979307
 40
0.1627906593116554
  0
CIRCLE
  8
_1-4_
  6
CONTINUOUS
 62
    7
 10
68.527617583403725
 20
179.28420608108109
 40
0.1627906593116554
  0
CIRCLE
  8
_1-4_
  6
CONTINUOUS
 62
    7
 10
72.603792757601354
 20
177.63197615339951
 40
0.1627906593116554
  0
CIRCLE
  8
_1-4_
  6
CONTINUOUS
 62
    7
 10
73.458319999076224
 20
176.3559289880701
 40
0.1627906593116554
  0
CIRCLE
  8
_1-4_
  6
CONTINUOUS
 62
    7
 10
70.727506070523646
 20
175.44095838392104
 40
0.1627906593116554
  0
CIRCLE
  8
_1-4_
  6
CONTINUOUS
 62
    7
 10
73.051906276393595
 20
173.86167371595229
 40
0.1627906593116554
  0
CIRCLE
  8
_1-4_
  6
CONTINUOUS
 62
    7
 10
74.500425184095235
 20
172.31886167783995
 40
0.1627906593116554
  0
CIRCLE
  8
_1-4_
  6
CONTINUOUS
 62
    7
 10
78.283229518581095
 20
175.97349837019638
 40
0.1627906593116554
  0
CIRCLE
  8
_1-4_
  6
CONTINUOUS
 62
    7
 10
77.19839766218854
 20
177.53142898147172
 40
0.1627906593116554
  0
CIRCLE
  8
_1-4_
  6
CONTINUOUS
 62
    7
 10
69.85524976575698
 20
180.65091519742398
 40
0.1627906593116554
  0
CIRCLE
  8
_1-4_
  6
CONTINUOUS
 62
    7
 10
57.936574575063332
 20
183.63073400548987
 40
0.1627906593116554
  0
CIRCLE
  8
_1-4_
  6
CONTINUOUS
 62
    7
 10
60.342790758287578
 20
181.83625092377534
 40
0.1627906593116554
  0
CIRCLE
  8
_1-4_
  6
CONTINUOUS
 62
    7
 10
60.951894811681797
 20
181.20578662769216
 40
0.1627906593116554
  0
CIRCLE
  8
_1-4_
  6
CONTINUOUS
 62
    7
 10
58.745764655035885
 20
183.44576036607899
 40
0.1627906593116554
  0
CIRCLE
  8
_1-4_
  6
CONTINUOUS
 62
    7
 10
61.076418902422944
 20
183.46973728489232
 40
0.1627906593116554
  0
CIRCLE
  8
_1-4_
  6
CONTINUOUS
 62
    7
 10
62.628101658176718
 20
182.95131374049831
 40
0.1627906593116554
  0
CIRCLE
  8
_1-4_
  6
CONTINUOUS
 62
    7
 10
65.034311655405418
 20
181.15681828679266
 40
0.1627906593116554
  0
CIRCLE
  8
_1-4_
  6
CONTINUOUS
 62
    7
 10
64.679482949746614
 20
179.17473870354732
 40
0.1627906593116554
  0
CIRCLE
  8
_1-4_
  6
CONTINUOUS
 62
    7
 10
56.111879091005079
 20
181.951904296875
 40
0.1627906593116554
  0
CIRCLE
  8
_1-4_
  6
CONTINUOUS
 62
    7
 10
54.411689139701224
 20
182.53703761745143
 40
0.1627906593116554
  0
CIRCLE
  8
_1-4_
  6
CONTINUOUS
 62
    7
 10
55.590814126504426
 20
183.97044413798565
 40
0.1627906593116554
  0
CIRCLE
  8
_1-4_
  6
CONTINUOUS
 62
    7
 10
61.091531289590364
 20
183.1060502335832
 40
0.1627906593116554
  0
CIRCLE
  8
_1-4_
  6
CONTINUOUS
 62
    7
 10
61.946058531065262
 20
181.8300030682538
 40
0.1627906593116554
  0
CIRCLE
  8
_1-4_
  6
CONTINUOUS
 62
    7
 10
59.215244602512655
 20
180.91502009211362
 40
0.1627906593116554
  0
CIRCLE
  8
_1-4_
  6
CONTINUOUS
 62
    7
 10
61.539644808382604
 20
179.33574779613599
 40
0.1627906593116554
  0
CIRCLE
  8
_1-4_
  6
CONTINUOUS
 62
    7
 10
62.988163716084244
 20
177.79292338603253
 40
0.1627906593116554
  0
CIRCLE
  8
_1-4_
  6
CONTINUOUS
 62
    7
 10
66.770968050570104
 20
181.44757245038008
 40
0.1627906593116554
  0
CIRCLE
  8
_1-4_
  6
CONTINUOUS
 62
    7
 10
65.686136194177578
 20
183.00550306165542
 40
0.1627906593116554
  0
CIRCLE
  8
_1-4_
  6
CONTINUOUS
 62
    7
 10
56.124232524150131
 20
183.98140572212839
 40
0.1627906593116554
  0
CIRCLE
  8
_1-4_
  6
CONTINUOUS
 62
    7
 10
60.206649367873752
 20
183.93243738122891
 40
0.1627906593116554
  0
CIRCLE
  8
_1-4_
  6
CONTINUOUS
 62
    7
 10
59.851820662214948
 20
181.95037016997466
 40
0.1627906593116554
  0
CIRCLE
  8
_1-4_
  6
CONTINUOUS
 62
    7
 10
54.387582314980989
 20
183.69065155854096
 40
0.1627906593116554
  0
CIRCLE
  8
_1-4_
  6
CONTINUOUS
 62
    7
 10
56.711982520850938
 20
182.11136689057221
 40
0.1627906593116554
  0
CIRCLE
  8
_1-4_
  6
CONTINUOUS
 62
    7
 10
58.160501428552578
 20
180.5685548524599
 40
0.1627906593116554
  0
TEXT
  8
_0-0_
 62
    7
 10
141.89189395389042
 20
14.594594594594582
 40
2.5
 41
1
 50
0
  1
縮尺
  0
TEXT
  8
_0-0_
 62
    7
 10
377.10214563318203
 20
22.865493362014362
 40
2.5
 41
1
 50
0
  1
ＮＯ
  0
TEXT
  8
_0-0_
 62
    7
 10
14.594594336844779
 20
24.324324324324323
 40
2.5
 41
1
 50
0
  1
和形
  0
TEXT
  8
_0-0_
 62
    7
 10
383.23801896378802
 20
18.523427086907475
 40
3
 41
1
 50
0
  1
Ｊ
  0
TEXT
  8
_1-0_
 62
    7
 10
169.90681828679266
 20
13.3181144095756
 40
2.5
 41
1
 50
0
  1
1/5
  0
TEXT
  8
_1-5_
 62
    7
 10
303.11177846547719
 20
249.23668113914698
 40
2.5
 41
1
 50
0
  1
瓦桟　
  0
TEXT
  8
_1-5_
 62
    7
 10
303.11333733635979
 20
242.23668278874578
 40
2.5
 41
1
 50
0
  1
流し桟
  0
TEXT
  8
_1-5_
 62
    7
 10
303.11334146035688
 20
235.23668443834461
 40
2.5
 41
1
 50
0
  1
下葺き材
  0
TEXT
  8
_1-3_
 62
    7
 10
229.1908420817729
 20
80.753880513801164
 40
2.5
 41
1
 50
24.227555699644494
  1
150
  0
TEXT
  8
_1-3_
 62
    7
 10
157.1412239361058
 20
87.770480905998113
 40
2.5
 41
1
 50
-24.227719460851628
  1
150
  0
TEXT
  8
_1-3_
 62
    7
 10
305.84472243850297
 20
255.3404524519637
 40
2.5
 41
1
 50
0
  1
桟瓦
  0
TEXT
  8
_1-3_
 62
    7
 10
39.721903414339636
 20
15.395235628695104
 40
2.5
 41
1
 50
0
  1
谷　　1
  0
TEXT
  8
_1-3_
 62
    7
 10
25.556194717819636
 20
20.211577544341225
 40
2.5
 41
1
 50
0
  1
ＲＣ
  0
TEXT
  8
_1-3_
 62
    7
 10
114.28205747862121
 20
44.310499655233855
 40
2.5
 41
1
 50
0
  1
谷巾については専門業者と相談
  0
TEXT
  8
_1-3_
 62
    7
 10
303.68465114284209
 20
228.73787544869089
 40
2.5
 41
1
 50
0
  1
パーライト系モルタル　　ｔ＝50
  0
TEXT
  8
_1-3_
 62
    7
 10
114.42206717826225
 20
48.859578725453972
 40
2.5
 41
1
 50
0
  1
谷底部分には捨て貼りをする
  0
TEXT
  8
_1-a_
 62
    7
 10
225.86718205362814
 20
111.04376915886752
 40
2.5
 41
1
 50
24.227641889855295
  1
250
  0
TEXT
  8
_1-a_
 62
    7
 10
206.95286667899097
 20
102.07670330428223
 40
2.5
 41
1
 50
24.227763094702041
  1
谷底部分捨て貼り
  0
TEXT
  8
_1-a_
 62
    7
 10
149.73056208406823
 20
115.65577357782033
 40
2.5
 41
1
 50
-24.227719460851628
  1
250
  0
TEXT
  8
_1-a_
 62
    7
 10
155.51560718775474
 20
113.00507401595905
 40
2.5
 41
1
 50
-24.22774693402237
  1
谷底部分捨て貼り
  0
POINT
  8
_1-3_
 62
    7
 10
217.54800332559122
 20
74.966311068148229
  0
POINT
  8
_1-3_
 62
    7
 10
244.66374577702703
 20
87.168391459697006
  0
POINT
  8
_1-3_
 62
    7
 10
172.25536861935177
 20
80.420825030352617
  0
POINT
  8
_1-a_
 62
    7
 10
250.58025463207349
 20
121.61636352539062
  0
POINT
  8
_1-a_
 62
    7
 10
204.98418447133659
 20
101.09812143686656
  0
POINT
  8
_1-a_
 62
    7
 10
136.49419011296453
 20
121.19183102169553
  0
POINT
  8
_1-a_
 62
    7
 10
181.96646613043708
 20
100.72930000923776
  0
TEXT
  8
_1-3_
 62
    7
 10
392.38861496384084
 20
14.835650469805756
 40
2.5
 41
1
 50
0
  1
27
  0
TEXT
  8
_1-3_
 62
    7
 10
80.989344363452517
 20
219.11178520838553
 40
2.5
 41
1
 50
0
  1
ステンレス　（ＳＵＳ３０４）又は、
  0
TEXT
  8
_1-3_
 62
    7
 10
72.078322522427726
 20
218.99754133862876
 40
2.5
 41
1
 50
0
  1
谷樋
  0
TEXT
  8
_1-3_
 62
    7
 10
80.989344363452517
 20
215.68446911568367
 40
2.5
 41
1
 50
0
  1
銅板ｔ=0.4以上もしくは、耐久性の有する材料を使用すること
  0
LINE
  8
_1-3_
  6
CONTINUOUS
 62
    7
 10
155.85795222101984
 20
220.54054054054055
 11
141.82786787052831
 21
220.54054054054055
  0
TEXT
  8
_1-3_
 62
    7
 10
314.88369764042017
 20
245.98260323062465
 40
2.5
 41
1
 50
0
  1
※　地域により瓦桟木の大きさは、異なります
  0
TEXT
  8
_1-3_
 62
    7
 10
314.65281734707992
 20
249.16975515155036
 40
2.5
 41
1
 50
0
  1
15×21以上　（防腐処理）
  0
TEXT
  8
_1-3_
 62
    7
 10
317.80339009053
 20
235.10851061021961
 40
2.5
 41
1
 50
0
  1
アスファルトルーフィング９４０
  0
LINE
  8
_1-3_
  6
CONTINUOUS
 62
    3
 10
281.48749202716573
 20
81.690360340883103
 11
308.62114912176031
 21
69.48020722512085
  0
LINE
  8
_1-3_
  6
CONTINUOUS
 62
    3
 10
308.62114912176031
 20
69.48020722512085
 11
335.86548604901964
 21
81.740157605188415
  0
LINE
  8
_1-3_
  6
CONTINUOUS
 62
    3
 10
333.67658389002469
 20
86.604329638549899
 11
333.62177596931099
 21
86.726119519250915
  0
LINE
  8
_1-3_
  6
CONTINUOUS
 62
    3
 10
279.66659474438489
 20
88.359197604660551
 11
284.08067082075831
 21
88.359197604660551
  0
LINE
  8
_1-3_
  6
CONTINUOUS
 62
    3
 10
338.11540686827641
 20
88.532838500194771
 11
333.33042805858406
 21
88.532838500194771
  0
LINE
  8
_1-3_
  6
CONTINUOUS
 62
    3
 10
283.74974687569591
 20
86.717521325511711
 11
279.66659474438489
 21
88.359197604660551
  0
LINE
  8
_1-3_
  6
CONTINUOUS
 62
    3
 10
281.48749202716573
 20
81.690360340883103
 11
283.74974687569591
 21
86.717521325511711
  0
LINE
  8
_1-3_
  6
CONTINUOUS
 62
    3
 10
335.86548604901964
 20
81.740157605188415
 11
333.62177753998378
 21
86.726120150759016
  0
LINE
  8
_1-3_
  6
CONTINUOUS
 62
    3
 10
333.62177753998378
 20
86.726120150759016
 11
338.11540686827641
 21
88.532838500194771
  0
CIRCLE
  8
_1-3_
  6
CONTINUOUS
 62
    7
 10
283.80122720908497
 20
87.941101535572045
 40
5.6067642044343984
  0
LINE
  8
_1-3_
  6
CONTINUOUS
 62
    7
 10
289.37563038072619
 20
108.09337132441539
 11
293.2192243907096
 21
108.09337132441539
  0
LINE
  8
_1-3_
  6
CONTINUOUS
 62
    7
 10
285.08944209808993
 20
93.397868641090923
 11
289.37563038072619
 21
108.09337132441539
  0
LINE
  8
_1-3_
  6
CONTINUOUS
 62
    7
 10
285.08944209808993
 20
93.397868641090923
 11
285.08944209808993
 21
97.174215508124718
  0
TEXT
  8
_1-3_
 62
    7
 10
293.73840899983304
 20
106.96953722650314
 40
2.5
 41
1
 50
0
  1
ハぜを必ず付けること
  0
TEXT
  8
_1-3_
 62
    7
 10
304.7500064206597
 20
63.367913753699895
 40
3
 41
1
 50
0
  1
谷樋
  0
TEXT
  8
_1-3_
 62
    7
 10
114.14209932894322
 20
53.29992345861487
 40
2.5
 41
1
 50
0
  1
谷部分の下葺き材（アスファルトルーフィング）は、両方向へそれぞれ250ｍｍ以上重ね合わせること。
  0
ENDSEC
  0
EOF
