  0
SECTION
  2
HEADER
  9
$ACADVER
  1
AC1009
  9
$INSBASE
 10
0
 20
0
 30
0
  9
$EXTMIN
 10
0
 20
0
  9
$EXTMAX
 10
420
 20
297
  9
$LIMMIN
 10
0
 20
0
  9
$LIMMAX
 10
420
 20
297
  9
$LTSCALE
 40
1
  0
ENDSEC
  0
SECTION
  2
TABLES
  0
TABLE
  2
LTYPE
 70
     9
  0
LTYPE
  2
CONTINUOUS
 70
    64
  3
実線
 72
    65
 73
     0
 40
0.0
  0
LTYPE
  2
DASHED1
 70
    64
  3
--  --  --  --  --  --  --  --  
 72
    65
 73
     2
 40
2.5
 49
1.25
 49
-1.25
  0
LTYPE
  2
DASHED2
 70
    64
  3
----    ----    ----    ----    
 72
    65
 73
     2
 40
5.0
 49
2.5
 49
-2.5
  0
LTYPE
  2
DASHED3
 70
    64
  3
------  ------  ------  ------  
 72
    65
 73
     2
 40
5.0
 49
3.75
 49
-1.25
  0
LTYPE
  2
CENTER1
 70
    64
  3
----- - ----- - ----- - ----- - 
 72
    65
 73
     4
 40
10.0
 49
6.25
 49
-1.25
 49
1.25
 49
-1.25
  0
LTYPE
  2
CENTER2
 70
    64
  3
----------  --  ----------  --  
 72
    65
 73
     4
 40
20.0
 49
12.5
 49
-2.5
 49
2.5
 49
-2.5
  0
LTYPE
  2
PHANTOM1
 70
    64
  3
--- - - --- - - --- - - --- - - 
 72
    65
 73
     6
 40
10.0
 49
3.25
 49
-1.25
 49
1.25
 49
-1.25
 49
1.25
 49
-1.25
  0
LTYPE
  2
PHANTOM2
 70
    64
  3
--------  -  -  --------  -  -  
 72
    65
 73
     6
 40
20.0
 49
10.0
 49
-2.5
 49
1.25
 49
-2.5
 49
1.25
 49
-2.5
  0
LTYPE
  2
DOT
 70
    64
  3
-   -   -   -   -   -   -   -   
 72
    65
 73
     2
 40
2.5
 49
0.625
 49
-1.875
  0
LTYPE
  2
DUMMY
 70
    64
  3
ダミー
 72
    65
 73
     0
 40
0.0
  0
LTYPE
  2
RAND1
 70
    64
  3
ランダム線1
 72
    65
 73
     4
 40
10.0
 49
1.0
 49
-2.0
 49
3.0
 49
-4.0
  0
LTYPE
  2
RAND2
 70
    64
  3
ランダム線2
 72
    65
 73
     4
 40
14.0
 49
2.0
 49
-3.0
 49
4.0
 49
-5.0
  0
LTYPE
  2
RAND3
 70
    64
  3
ランダム線3
 72
    65
 73
     4
 40
18.0
 49
3.0
 49
-4.0
 49
5.0
 49
-6.0
  0
LTYPE
  2
RAND4
 70
    64
  3
ランダム線4
 72
    65
 73
     4
 40
22.0
 49
4.0
 49
-5.0
 49
6.0
 49
-7.0
  0
LTYPE
  2
RAND5
 70
    64
  3
ランダム線5
 72
    65
 73
     4
 40
26.0
 49
5.0
 49
-6.0
 49
7.0
 49
-8.0
  0
LTYPE
  2
LONG1
 70
    64
  3
----------  --  ----------  --  
 72
    65
 73
     4
 40
40.0
 49
32.5
 49
-2.5
 49
2.5
 49
-2.5
  0
LTYPE
  2
LONG2
 70
    64
  3
--------  -  -  --------  -  -  
 72
    65
 73
     6
 40
40.0
 49
30.0
 49
-2.5
 49
1.25
 49
-2.5
 49
1.25
 49
-2.5
  0
LTYPE
  2
LONG3
 70
    64
  3
+++++++++++++++..+++++++++++++++
 72
    65
 73
     2
 40
40.0
 49
37.5
 49
-2.5
  0
LTYPE
  2
LONG4
 70
    64
  3
+++++++++++++++..+++++++++++++++
 72
    65
 73
     2
 40
80.0
 49
75.0
 49
-5.0
  0
LTYPE
  2
LONG5
 70
    64
  3
----------  --  ----------  --  
 72
    65
 73
     4
 40
60.0
 49
37.5
 49
-7.5
 49
7.5
 49
-7.5
  0
LTYPE
  2
dashed
 70
   64
  3
-------   -------------   ------
 72
   65
 73
    2
 40
7.5
 49
6
 49
-1.5
  0
LTYPE
  2
dashed_spaced
 70
   64
  3
----        --------        ----
 72
   65
 73
    2
 40
12
 49
6
 49
-6
  0
LTYPE
  2
long_dashed_dotted
 70
   64
  3
------------- --- --------------
 72
   65
 73
    4
 40
15.25
 49
12
 49
-1.5
 49
0.25
 49
-1.5
  0
LTYPE
  2
long_dashed_double-dotted
 70
   64
  3
----------- --- --- ------------
 72
   65
 73
    6
 40
17
 49
12
 49
-1.5
 49
0.25
 49
-1.5
 49
0.25
 49
-1.5
  0
LTYPE
  2
long_dashed_triplicate-dotted
 70
   64
  3
--------- --- --- --- ----------
 72
   65
 73
    8
 40
18.75
 49
12
 49
-1.5
 49
0.25
 49
-1.5
 49
0.25
 49
-1.5
 49
0.25
 49
-1.5
  0
LTYPE
  2
dotted
 70
   64
  3
   -       -       -       -    
 72
   65
 73
    2
 40
1.75
 49
0.25
 49
-1.5
  0
LTYPE
  2
chain
 70
   64
  3
-------------- -- --------------
 72
   65
 73
    4
 40
18.5
 49
12
 49
-1.5
 49
3.5
 49
-1.5
  0
LTYPE
  2
chain_double_dash
 70
   64
  3
------------ -- -- -------------
 72
   65
 73
    6
 40
23.5
 49
12
 49
-1.5
 49
3.5
 49
-1.5
 49
3.5
 49
-1.5
  0
LTYPE
  2
dashed_dotted
 70
   64
  3
-----------     -     ----------
 72
   65
 73
    4
 40
9.25
 49
6
 49
-1.5
 49
0.25
 49
-1.5
  0
LTYPE
  2
double-dashed_dotted
 70
   64
  3
------   -----------   -   -----
 72
   65
 73
    6
 40
16.75
 49
6
 49
-1.5
 49
6
 49
-1.5
 49
0.25
 49
-1.5
  0
LTYPE
  2
dashed_double-dotted
 70
   64
  3
---------    -    -    ---------
 72
   65
 73
    6
 40
11
 49
6
 49
-1.5
 49
0.25
 49
-1.5
 49
0.25
 49
-1.5
  0
LTYPE
  2
double-dashed_double-dotted
 70
   64
  3
-----   ---------   -   -   ----
 72
   65
 73
    8
 40
18.5
 49
6
 49
-1.5
 49
6
 49
-1.5
 49
0.25
 49
-1.5
 49
0.25
 49
-1.5
  0
LTYPE
  2
dashed_triplicate-dotted
 70
   64
  3
-------    -    -    -    ------
 72
   65
 73
    8
 40
12.75
 49
6
 49
-1.5
 49
0.25
 49
-1.5
 49
0.25
 49
-1.5
 49
0.25
 49
-1.5
  0
LTYPE
  2
double-dashed_triplicate-dotted
 70
   64
  3
-----  ---------  -  -  -  -----
 72
   65
 73
   10
 40
20.25
 49
6
 49
-1.5
 49
6
 49
-1.5
 49
0.25
 49
-1.5
 49
0.25
 49
-1.5
 49
0.25
 49
-1.5
  0
LTYPE
  2
undefined
 70
   64
  3
--------------------------------
 72
   65
 73
    0
 40
0
  0
ENDTAB
  0
TABLE
  2
STYLE
  5
3
100
AcDbSymbolTable
 70
     1
  0
STYLE
  5
10
100
AcDbSymbolTableRecord
100
AcDbTextStyleTableRecord
  2
STANDARD
 70
     0
 40
0.0
 41
1.0
 50
0.0
 71
     0
 42
0.2
  3
txt
  4
bigfont.shx
  0
STYLE
  5
26
100
AcDbSymbolTableRecord
100
AcDbTextStyleTableRecord
  2
TATEGAKI
 70
    68
 40
0.0
 41
1.0
 50
0.0
 71
     0
 42
1.0
  3
txt
  4
bigfont.shx
  0
ENDTAB
  0
TABLE
  2
LAYER
 70
   10
  0
LAYER
  2
_0-0_
 70
   64
 62
    7
  6
CONTINUOUS
  0
LAYER
  2
_1-0_
 70
   64
 62
    7
  6
CONTINUOUS
  0
LAYER
  2
_1-1_
 70
   64
 62
    7
  6
CONTINUOUS
  0
LAYER
  2
_1-2_
 70
   64
 62
    7
  6
CONTINUOUS
  0
LAYER
  2
_1-3_
 70
   64
 62
    7
  6
CONTINUOUS
  0
LAYER
  2
_1-4_
 70
   64
 62
    7
  6
CONTINUOUS
  0
LAYER
  2
_1-5_
 70
   64
 62
    7
  6
CONTINUOUS
  0
LAYER
  2
_1-b_
 70
   64
 62
    7
  6
CONTINUOUS
  0
LAYER
  2
_1-c_
 70
   64
 62
    7
  6
CONTINUOUS
  0
LAYER
  2
ADD_LINE
 70
   64
 62
    7
  6
CONTINUOUS
  0
ENDTAB
  0
ENDSEC
  0
SECTION
  2
BLOCKS
  0
ENDSEC
  0
SECTION
  2
ENTITIES
  0
LINE
  8
_1-2_
  6
CONTINUOUS
 62
    3
 10
172.28226532807221
 20
173.06572166649073
 11
172.69680126293287
 21
171.93958591770482
  0
LINE
  8
_0-0_
  6
CONTINUOUS
 62
    5
 10
6.7567526327597136
 20
280.13513513513516
 11
406.75677325274495
 21
280.13513513513516
  0
LINE
  8
_0-0_
  6
CONTINUOUS
 62
    5
 10
406.75677325274495
 20
10.13513513513513
 11
6.7567526327597136
 21
10.13513513513513
  0
LINE
  8
_0-0_
  6
CONTINUOUS
 62
    5
 10
406.75677325274495
 20
30.135133073136615
 11
6.7567402607685949
 21
30.135133073136615
  0
LINE
  8
_0-0_
  6
CONTINUOUS
 62
    5
 10
371.75678150073907
 20
10.13513513513513
 11
371.75678150073907
 21
30.135133073136615
  0
LINE
  8
_0-0_
  6
CONTINUOUS
 62
    5
 10
137.02703939901818
 20
30.135133073136615
 11
137.02703939901818
 21
10.13513513513513
  0
LINE
  8
_0-0_
  6
CONTINUOUS
 62
    5
 10
214.86486486486487
 20
30.135133073136615
 11
214.86486486486487
 21
10.13513513513513
  0
LINE
  8
_0-0_
  6
CONTINUOUS
 62
    5
 10
137.02703939901818
 20
20.135134104135886
 11
214.86486486486487
 21
20.135134104135886
  0
LINE
  8
_0-0_
  6
CONTINUOUS
 62
    5
 10
396.48648648648651
 20
25.945945945945951
 11
383.91891891891896
 21
13.378379924877265
  0
LINE
  8
ADD_LINE
  6
DOT
 62
    5
 10
224.59459459459461
 20
33.243243243243242
 11
224.59459459459461
 21
4.8648644782401504
  0
LINE
  8
_1-1_
  6
CONTINUOUS
 62
    7
 10
40.483542777396536
 20
109.3699852195946
 11
44.860765611803203
 21
111.33974229967272
  0
LINE
  8
_1-1_
  6
CONTINUOUS
 62
    7
 10
44.860765611803203
 20
111.33974229967272
 11
46.091865333350938
 21
108.60397338867187
  0
LINE
  8
_1-1_
  6
CONTINUOUS
 62
    7
 10
46.091865333350938
 20
108.60397338867187
 11
41.714642498944272
 21
106.63421630859375
  0
LINE
  8
_1-1_
  6
CONTINUOUS
 62
    7
 10
84.574956120671459
 20
125.9213586755701
 11
83.343844027132604
 21
128.65712758657097
  0
LINE
  8
_1-1_
  6
CONTINUOUS
 62
    7
 10
83.343844027132604
 20
128.65712758657097
 11
87.721079233530403
 21
130.62688466664909
  0
LINE
  8
_1-1_
  6
CONTINUOUS
 62
    7
 10
87.721079233530403
 20
130.62688466664909
 11
88.952166583086992
 21
127.89111575564823
  0
LINE
  8
_1-1_
  6
CONTINUOUS
 62
    7
 10
88.952166583086992
 20
127.89111575564823
 11
84.574956120671459
 21
125.9213586755701
  0
LINE
  8
_1-1_
  6
CONTINUOUS
 62
    7
 10
127.43526974239866
 20
145.20850104254646
 11
126.20415764885981
 21
147.94426995354732
  0
LINE
  8
_1-1_
  6
CONTINUOUS
 62
    7
 10
126.20415764885981
 20
147.94426995354732
 11
130.5813928552576
 21
149.91402703362544
  0
LINE
  8
_1-1_
  6
CONTINUOUS
 62
    7
 10
130.5813928552576
 20
149.91402703362544
 11
131.81248020481419
 21
147.17825812262458
  0
LINE
  8
_1-1_
  6
CONTINUOUS
 62
    7
 10
131.81248020481419
 20
147.17825812262458
 11
127.43526974239866
 21
145.20850104254646
  0
LINE
  8
_1-1_
  6
CONTINUOUS
 62
    7
 10
170.29558336412586
 20
164.49566815350508
 11
169.06447127058701
 21
167.23141232052365
  0
LINE
  8
_1-1_
  6
CONTINUOUS
 62
    7
 10
169.06447127058701
 20
167.23141232052365
 11
173.44170647698482
 21
169.20118177259292
  0
LINE
  8
_1-1_
  6
CONTINUOUS
 62
    7
 10
174.67279382654141
 20
166.46541286159206
 11
170.29558336412586
 21
164.49566815350508
  0
LINE
  8
_1-1_
  6
CONTINUOUS
 62
    7
 10
169.06447127058701
 20
167.23141232052365
 11
174.67281857052365
 21
166.46538811760982
  0
LINE
  8
_1-1_
  6
CONTINUOUS
 62
    7
 10
126.20415764885981
 20
147.94426995354732
 11
131.81248020481419
 21
147.17825812262458
  0
LINE
  8
_1-1_
  6
CONTINUOUS
 62
    7
 10
83.343844027132604
 20
128.65712758657097
 11
88.952166583086992
 21
127.89111575564823
  0
LINE
  8
_1-b_
  6
CONTINUOUS
 62
    3
 10
45.038612984322214
 20
111.43415296399917
 11
45.729452597128386
 21
109.557260049356
  0
LINE
  8
_1-1_
  6
CONTINUOUS
 62
    7
 10
40.483555149387655
 20
109.36999759158573
 11
44.86077798379435
 21
111.33975467166385
  0
LINE
  8
_1-1_
  6
CONTINUOUS
 62
    7
 10
84.574956120671459
 20
125.9213586755701
 11
83.34386877111487
 21
128.65712758657097
  0
LINE
  8
_1-1_
  6
CONTINUOUS
 62
    7
 10
83.34386877111487
 20
128.65712758657097
 11
87.721079233530403
 21
130.62688466664909
  0
LINE
  8
_1-1_
  6
CONTINUOUS
 62
    7
 10
87.721079233530403
 20
130.62688466664909
 11
88.952191327069258
 21
127.89111575564823
  0
LINE
  8
_1-1_
  6
CONTINUOUS
 62
    7
 10
88.952191327069258
 20
127.89111575564823
 11
84.574956120671459
 21
125.9213586755701
  0
LINE
  8
_1-1_
  6
CONTINUOUS
 62
    7
 10
83.34386877111487
 20
128.65712758657097
 11
88.952191327069258
 21
127.89111575564823
  0
LINE
  8
_1-b_
  6
CONTINUOUS
 62
    3
 10
88.589766218855573
 20
128.84440241633234
 11
90.278963656038854
 21
129.46614445866766
  0
LINE
  8
_1-b_
  6
CONTINUOUS
 62
    3
 10
87.898938978040547
 20
130.72129533097552
 11
88.589766218855573
 21
128.84440241633234
  0
LINE
  8
_1-b_
  6
CONTINUOUS
 62
    3
 10
32.921076594172291
 20
113.46918466928844
 11
87.119454048775339
 21
133.4180429819468
  0
LINE
  8
_1-1_
  6
CONTINUOUS
 62
    7
 10
83.34386877111487
 20
128.65713995856208
 11
87.721079233530403
 21
130.62689703864021
  0
LINE
  8
_1-1_
  6
CONTINUOUS
 62
    7
 10
127.43526974239866
 20
145.20850104254646
 11
126.20415764885981
 21
147.94426995354732
  0
LINE
  8
_1-1_
  6
CONTINUOUS
 62
    7
 10
126.20415764885981
 20
147.94426995354732
 11
130.5813928552576
 21
149.91402703362544
  0
LINE
  8
_1-1_
  6
CONTINUOUS
 62
    7
 10
130.5813928552576
 20
149.91402703362544
 11
131.81248020481419
 21
147.17825812262458
  0
LINE
  8
_1-1_
  6
CONTINUOUS
 62
    7
 10
131.81248020481419
 20
147.17825812262458
 11
127.43526974239866
 21
145.20850104254646
  0
LINE
  8
_1-1_
  6
CONTINUOUS
 62
    7
 10
126.20415764885981
 20
147.94426995354732
 11
131.81248020481419
 21
147.17825812262458
  0
LINE
  8
_1-b_
  6
CONTINUOUS
 62
    3
 10
131.45007984058279
 20
148.1315447833087
 11
133.13930202174831
 21
148.75328682564401
  0
LINE
  8
_1-b_
  6
CONTINUOUS
 62
    3
 10
130.75922785578547
 20
150.00843769795188
 11
131.45007984058279
 21
148.1315447833087
  0
LINE
  8
_1-b_
  6
CONTINUOUS
 62
    3
 10
75.781390215899478
 20
132.75632703626479
 11
129.97976767050255
 21
152.70518534892315
  0
LINE
  8
_1-b_
  6
CONTINUOUS
 62
    3
 10
74.832532728040547
 20
130.70213111671242
 11
75.249864732896981
 21
129.56828761745143
  0
LINE
  8
_1-1_
  6
CONTINUOUS
 62
    7
 10
126.20415764885981
 20
147.94426995354732
 11
130.5813928552576
 21
149.91402703362544
  0
LINE
  8
_1-1_
  6
CONTINUOUS
 62
    7
 10
130.5813928552576
 20
149.91402703362544
 11
131.81248020481419
 21
147.17825812262458
  0
LINE
  8
_1-1_
  6
CONTINUOUS
 62
    7
 10
170.29558336412586
 20
164.49564340952281
 11
169.06447127058701
 21
167.23141232052365
  0
LINE
  8
_1-1_
  6
CONTINUOUS
 62
    7
 10
169.06447127058701
 20
167.23141232052365
 11
173.44170647698482
 21
169.20118177259292
  0
LINE
  8
_1-1_
  6
CONTINUOUS
 62
    7
 10
174.67279382654141
 20
166.46538811760982
 11
170.29558336412586
 21
164.49564340952281
  0
LINE
  8
_1-1_
  6
CONTINUOUS
 62
    7
 10
169.06447127058701
 20
167.23141232052365
 11
174.67279382654141
 21
166.46538811760982
  0
LINE
  8
_1-1_
  6
CONTINUOUS
 62
    7
 10
126.20415764885981
 20
147.94426995354732
 11
131.81248020481419
 21
147.17825812262458
  0
LINE
  8
_1-1_
  6
CONTINUOUS
 62
    7
 10
126.20418239284207
 20
147.94426995354732
 11
130.5813928552576
 21
149.91402703362544
  0
LINE
  8
_1-1_
  6
CONTINUOUS
 62
    7
 10
130.5813928552576
 20
149.91402703362544
 11
131.81250494879646
 21
147.17825812262458
  0
LINE
  8
_1-1_
  6
CONTINUOUS
 62
    7
 10
126.20418239284207
 20
147.94426995354732
 11
131.81250494879646
 21
147.17825812262458
  0
LINE
  8
_1-b_
  6
CONTINUOUS
 62
    3
 10
131.45007984058279
 20
148.1315447833087
 11
133.13927727776604
 21
148.75328682564401
  0
LINE
  8
_1-b_
  6
CONTINUOUS
 62
    3
 10
130.75925259976773
 20
150.00843769795188
 11
131.45007984058279
 21
148.1315447833087
  0
LINE
  8
ADD_LINE
  6
DOT
 62
    3
 10
130.5813928552576
 20
149.91403940561656
 11
130.5813928552576
 21
150.3728299527555
  0
LINE
  8
ADD_LINE
  6
DOT
 62
    3
 10
130.5813928552576
 20
149.91403940561656
 11
130.5813928552576
 21
149.53100256017737
  0
LINE
  8
_1-1_
  6
CONTINUOUS
 62
    7
 10
126.20418239284207
 20
147.94428232553844
 11
130.5813928552576
 21
149.91403940561656
  0
LINE
  8
_1-1_
  6
CONTINUOUS
 62
    7
 10
170.29558336412586
 20
164.49564340952281
 11
169.06447127058701
 21
167.23141232052365
  0
LINE
  8
_1-1_
  6
CONTINUOUS
 62
    7
 10
169.06447127058701
 20
167.23141232052365
 11
173.44170647698482
 21
169.20118177259292
  0
LINE
  8
_1-1_
  6
CONTINUOUS
 62
    7
 10
173.44170647698482
 20
169.20118177259292
 11
174.67279382654141
 21
166.46538811760982
  0
LINE
  8
_1-1_
  6
CONTINUOUS
 62
    7
 10
174.67279382654141
 20
166.46538811760982
 11
170.29558336412586
 21
164.49564340952281
  0
LINE
  8
_1-1_
  6
CONTINUOUS
 62
    7
 10
169.06447127058701
 20
167.23141232052365
 11
174.67279382654141
 21
166.46538811760982
  0
LINE
  8
_1-b_
  6
CONTINUOUS
 62
    3
 10
174.31039346230997
 20
167.41867477829393
 11
175.99961564347552
 21
168.04044156461148
  0
LINE
  8
_1-b_
  6
CONTINUOUS
 62
    3
 10
129.80866303315034
 20
153.17005054370779
 11
129.97976767050255
 21
152.70518534892315
  0
LINE
  8
_1-b_
  6
CONTINUOUS
 62
    3
 10
131.3101526208826
 20
153.72273213154563
 11
133.13927727776604
 21
148.75328682564401
  0
LINE
  8
_1-b_
  6
CONTINUOUS
 62
    3
 10
129.80866303315034
 20
153.17005054370779
 11
129.97976767050255
 21
152.70518534892315
  0
LINE
  8
_1-b_
  6
CONTINUOUS
 62
    3
 10
131.31017736486487
 20
153.72273213154563
 11
133.13930202174831
 21
148.75328682564401
  0
LINE
  8
_1-b_
  6
CONTINUOUS
 62
    3
 10
86.948349411423152
 20
133.88292054872255
 11
87.119454048775339
 21
133.4180429819468
  0
LINE
  8
_1-b_
  6
CONTINUOUS
 62
    3
 10
88.449838999155403
 20
134.43557739257812
 11
90.278963656038854
 21
129.46614445866766
  0
LINE
  8
_1-b_
  6
CONTINUOUS
 62
    3
 10
44.088023417704818
 20
114.59577818174621
 11
44.259140427048152
 21
114.13090061497044
  0
LINE
  8
_1-b_
  6
CONTINUOUS
 62
    3
 10
45.589550121410468
 20
115.14843502560178
 11
47.418662406302786
 21
110.1790020916913
  0
LINE
  8
_1-c_
  6
CONTINUOUS
 62
    7
 10
115.20585343644426
 20
156.74610034839529
 11
117.69284634976775
 21
149.98927348368878
  0
LINE
  8
_1-c_
  6
CONTINUOUS
 62
    7
 10
116.15468618032095
 20
158.80029626794763
 11
158.65069415118245
 21
174.44185824007602
  0
LINE
  8
_1-c_
  6
CONTINUOUS
 62
    7
 10
73.294384930584897
 20
139.51316627296242
 11
115.79144452069258
 21
155.15511177681589
  0
LINE
  8
_1-4_
  6
CONTINUOUS
 62
    7
 10
106.21621621621622
 20
149.18918918918919
 11
91.144483411634297
 21
175.29417708113388
  0
LINE
  8
_1-4_
  6
CONTINUOUS
 62
    7
 10
91.144483411634297
 20
175.29417708113388
 11
83.513513513513516
 21
175.29417708113388
  0
LINE
  8
_1-b_
  6
CONTINUOUS
 62
    3
 10
33.243243243243228
 20
107.0926233240076
 11
45.038612984322214
 21
111.43415296399917
  0
LINE
  8
_1-b_
  6
CONTINUOUS
 62
    3
 10
33.243243243243228
 20
110.0762650773332
 11
44.259140427048152
 21
114.13090061497044
  0
LINE
  8
_1-b_
  6
CONTINUOUS
 62
    3
 10
33.243243243243228
 20
110.6041160789696
 11
87.898938978040547
 21
130.72129533097552
  0
LINE
  8
_1-c_
  6
CONTINUOUS
 62
    7
 10
33.243243243243228
 20
121.26000069283151
 11
72.931143270956511
 21
135.86796940983953
  0
LINE
  8
_1-1_
  6
DASHED1
 62
    3
 10
33.243243243243228
 20
101.9448233939506
 11
181.99290507548565
 21
168.88218235325169
  0
LINE
  8
_1-1_
  6
CONTINUOUS
 62
    7
 10
323.50227974556589
 20
109.3699852195946
 11
319.12504453916807
 21
111.33974229967272
  0
LINE
  8
_1-1_
  6
CONTINUOUS
 62
    7
 10
319.12504453916807
 20
111.33974229967272
 11
317.89395718961151
 21
108.60397338867187
  0
LINE
  8
_1-1_
  6
CONTINUOUS
 62
    7
 10
317.89395718961151
 20
108.60397338867187
 11
322.27116765202703
 21
106.63421630859375
  0
LINE
  8
_1-1_
  6
CONTINUOUS
 62
    7
 10
279.41085403029984
 20
125.9213586755701
 11
280.6419661238387
 21
128.65712758657097
  0
LINE
  8
_1-1_
  6
CONTINUOUS
 62
    7
 10
280.6419661238387
 20
128.65712758657097
 11
276.26473091744089
 21
130.62688466664909
  0
LINE
  8
_1-1_
  6
CONTINUOUS
 62
    7
 10
276.26473091744089
 20
130.62688466664909
 11
275.03364356788433
 21
127.89111575564823
  0
LINE
  8
_1-1_
  6
CONTINUOUS
 62
    7
 10
275.03364356788433
 20
127.89111575564823
 11
279.41085403029984
 21
125.9213586755701
  0
LINE
  8
_1-1_
  6
CONTINUOUS
 62
    7
 10
236.55054040857266
 20
145.20850104254646
 11
237.78165250211151
 21
147.94426995354732
  0
LINE
  8
_1-1_
  6
CONTINUOUS
 62
    7
 10
237.78165250211151
 20
147.94426995354732
 11
233.4044172957137
 21
149.91402703362544
  0
LINE
  8
_1-1_
  6
CONTINUOUS
 62
    7
 10
233.4044172957137
 20
149.91402703362544
 11
232.17332994615711
 21
147.17825812262458
  0
LINE
  8
_1-1_
  6
CONTINUOUS
 62
    7
 10
232.17332994615711
 20
147.17825812262458
 11
236.55054040857266
 21
145.20850104254646
  0
LINE
  8
_1-1_
  6
CONTINUOUS
 62
    7
 10
193.69022678684544
 20
164.49566815350508
 11
194.9213388803843
 21
167.23141232052365
  0
LINE
  8
_1-1_
  6
CONTINUOUS
 62
    7
 10
194.9213388803843
 20
167.23141232052365
 11
190.54410367398648
 21
169.20118177259292
  0
LINE
  8
_1-1_
  6
CONTINUOUS
 62
    7
 10
189.3130163244299
 20
166.46541286159206
 11
193.69022678684544
 21
164.49566815350508
  0
LINE
  8
_1-1_
  6
CONTINUOUS
 62
    7
 10
194.9213388803843
 20
167.23141232052365
 11
189.31299158044766
 21
166.46538811760982
  0
LINE
  8
_1-1_
  6
CONTINUOUS
 62
    7
 10
237.78165250211151
 20
147.94426995354732
 11
232.17332994615711
 21
147.17825812262458
  0
LINE
  8
_1-1_
  6
CONTINUOUS
 62
    7
 10
280.6419661238387
 20
128.65712758657097
 11
275.03364356788433
 21
127.89111575564823
  0
LINE
  8
_1-b_
  6
CONTINUOUS
 62
    3
 10
318.25635755384292
 20
109.557260049356
 11
316.5671353726774
 21
110.1790020916913
  0
LINE
  8
_1-b_
  6
CONTINUOUS
 62
    3
 10
318.94720953864021
 20
111.43415296399917
 11
318.25635755384292
 21
109.557260049356
  0
LINE
  8
_1-1_
  6
CONTINUOUS
 62
    7
 10
323.50225500158365
 20
109.36999759158573
 11
319.12501979518584
 21
111.33975467166385
  0
LINE
  8
_1-1_
  6
CONTINUOUS
 62
    7
 10
279.41085403029984
 20
125.9213586755701
 11
280.64194137985646
 21
128.65712758657097
  0
LINE
  8
_1-1_
  6
CONTINUOUS
 62
    7
 10
280.64194137985646
 20
128.65712758657097
 11
276.26473091744089
 21
130.62688466664909
  0
LINE
  8
_1-1_
  6
CONTINUOUS
 62
    7
 10
276.26473091744089
 20
130.62688466664909
 11
275.03361882390203
 21
127.89111575564823
  0
LINE
  8
_1-1_
  6
CONTINUOUS
 62
    7
 10
275.03361882390203
 20
127.89111575564823
 11
279.41085403029984
 21
125.9213586755701
  0
LINE
  8
_1-1_
  6
CONTINUOUS
 62
    7
 10
280.64194137985646
 20
128.65712758657097
 11
275.03361882390203
 21
127.89111575564823
  0
LINE
  8
_1-b_
  6
CONTINUOUS
 62
    3
 10
275.39604393211573
 20
128.84440241633234
 11
273.70684649493245
 21
129.46614445866766
  0
LINE
  8
_1-b_
  6
CONTINUOUS
 62
    3
 10
276.08687117293078
 20
130.72129533097552
 11
275.39604393211573
 21
128.84440241633234
  0
LINE
  8
_1-b_
  6
CONTINUOUS
 62
    3
 10
331.06473355679901
 20
113.46918466928844
 11
276.86635610219594
 21
133.4180429819468
  0
LINE
  8
_1-1_
  6
CONTINUOUS
 62
    7
 10
280.64194137985646
 20
128.65713995856208
 11
276.26473091744089
 21
130.62689703864021
  0
LINE
  8
_1-1_
  6
CONTINUOUS
 62
    7
 10
236.55054040857266
 20
145.20850104254646
 11
237.78165250211151
 21
147.94426995354732
  0
LINE
  8
_1-1_
  6
CONTINUOUS
 62
    7
 10
237.78165250211151
 20
147.94426995354732
 11
233.4044172957137
 21
149.91402703362544
  0
LINE
  8
_1-1_
  6
CONTINUOUS
 62
    7
 10
233.4044172957137
 20
149.91402703362544
 11
232.17332994615711
 21
147.17825812262458
  0
LINE
  8
_1-1_
  6
CONTINUOUS
 62
    7
 10
232.17332994615711
 20
147.17825812262458
 11
236.55054040857266
 21
145.20850104254646
  0
LINE
  8
_1-1_
  6
CONTINUOUS
 62
    7
 10
237.78165250211151
 20
147.94426995354732
 11
232.17332994615711
 21
147.17825812262458
  0
LINE
  8
_1-b_
  6
CONTINUOUS
 62
    3
 10
232.53573031038852
 20
148.1315447833087
 11
230.846508129223
 21
148.75328682564401
  0
LINE
  8
_1-b_
  6
CONTINUOUS
 62
    3
 10
233.22658229518584
 20
150.00843769795188
 11
232.53573031038852
 21
148.1315447833087
  0
LINE
  8
_1-b_
  6
CONTINUOUS
 62
    3
 10
288.20441993507183
 20
132.75632703626479
 11
234.00604248046875
 21
152.70518534892315
  0
LINE
  8
_1-1_
  6
CONTINUOUS
 62
    7
 10
237.78165250211151
 20
147.94426995354732
 11
233.4044172957137
 21
149.91402703362544
  0
LINE
  8
_1-1_
  6
CONTINUOUS
 62
    7
 10
233.4044172957137
 20
149.91402703362544
 11
232.17332994615711
 21
147.17825812262458
  0
LINE
  8
_1-1_
  6
CONTINUOUS
 62
    7
 10
193.69022678684544
 20
164.49564340952281
 11
194.9213388803843
 21
167.23141232052365
  0
LINE
  8
_1-1_
  6
CONTINUOUS
 62
    7
 10
194.9213388803843
 20
167.23141232052365
 11
190.54410367398648
 21
169.20118177259292
  0
LINE
  8
_1-1_
  6
CONTINUOUS
 62
    7
 10
189.3130163244299
 20
166.46538811760982
 11
193.69022678684544
 21
164.49564340952281
  0
LINE
  8
_1-1_
  6
CONTINUOUS
 62
    7
 10
194.9213388803843
 20
167.23141232052365
 11
189.3130163244299
 21
166.46538811760982
  0
LINE
  8
_1-1_
  6
CONTINUOUS
 62
    7
 10
237.78165250211151
 20
147.94426995354732
 11
232.17332994615711
 21
147.17825812262458
  0
LINE
  8
_1-1_
  6
CONTINUOUS
 62
    7
 10
237.78162775812925
 20
147.94426995354732
 11
233.4044172957137
 21
149.91402703362544
  0
LINE
  8
_1-1_
  6
CONTINUOUS
 62
    7
 10
233.4044172957137
 20
149.91402703362544
 11
232.17330520217484
 21
147.17825812262458
  0
LINE
  8
_1-1_
  6
CONTINUOUS
 62
    7
 10
237.78162775812925
 20
147.94426995354732
 11
232.17330520217484
 21
147.17825812262458
  0
LINE
  8
_1-b_
  6
CONTINUOUS
 62
    3
 10
232.53573031038852
 20
148.1315447833087
 11
230.84653287320526
 21
148.75328682564401
  0
LINE
  8
ADD_LINE
  6
DOT
 62
    3
 10
233.4044172957137
 20
149.91403940561656
 11
233.4044172957137
 21
150.3728299527555
  0
LINE
  8
ADD_LINE
  6
DOT
 62
    3
 10
233.4044172957137
 20
149.91403940561656
 11
233.4044172957137
 21
149.53100256017737
  0
LINE
  8
_1-1_
  6
CONTINUOUS
 62
    7
 10
237.78162775812925
 20
147.94428232553844
 11
233.4044172957137
 21
149.91403940561656
  0
LINE
  8
_1-1_
  6
CONTINUOUS
 62
    7
 10
193.69022678684544
 20
164.49564340952281
 11
194.9213388803843
 21
167.23141232052365
  0
LINE
  8
_1-1_
  6
CONTINUOUS
 62
    7
 10
194.9213388803843
 20
167.23141232052365
 11
190.54410367398648
 21
169.20118177259292
  0
LINE
  8
_1-1_
  6
CONTINUOUS
 62
    7
 10
190.54410367398648
 20
169.20118177259292
 11
189.3130163244299
 21
166.46538811760982
  0
LINE
  8
_1-1_
  6
CONTINUOUS
 62
    7
 10
189.3130163244299
 20
166.46538811760982
 11
193.69022678684544
 21
164.49564340952281
  0
LINE
  8
_1-1_
  6
CONTINUOUS
 62
    7
 10
194.9213388803843
 20
167.23141232052365
 11
189.3130163244299
 21
166.46538811760982
  0
LINE
  8
_1-b_
  6
CONTINUOUS
 62
    3
 10
190.36626867345862
 20
169.29558006492823
 11
189.67541668866133
 21
167.41867477829393
  0
LINE
  8
_1-b_
  6
CONTINUOUS
 62
    3
 10
234.17714711782097
 20
153.17005054370779
 11
234.00604248046875
 21
152.70518534892315
  0
LINE
  8
_1-b_
  6
CONTINUOUS
 62
    3
 10
232.6756575300887
 20
153.72273213154563
 11
230.84653287320526
 21
148.75328682564401
  0
LINE
  8
_1-b_
  6
CONTINUOUS
 62
    3
 10
234.17714711782097
 20
153.17005054370779
 11
234.00604248046875
 21
152.70518534892315
  0
LINE
  8
_1-b_
  6
CONTINUOUS
 62
    3
 10
232.67563278610643
 20
153.72273213154563
 11
230.846508129223
 21
148.75328682564401
  0
LINE
  8
_1-b_
  6
CONTINUOUS
 62
    3
 10
277.03746073954818
 20
133.88292054872255
 11
276.86635610219594
 21
133.4180429819468
  0
LINE
  8
_1-b_
  6
CONTINUOUS
 62
    3
 10
275.53597115181589
 20
134.43557739257812
 11
273.70684649493245
 21
129.46614445866766
  0
LINE
  8
_1-b_
  6
CONTINUOUS
 62
    3
 10
319.89777436127537
 20
114.59577818174621
 11
319.72666972392318
 21
114.13090061497044
  0
LINE
  8
_1-b_
  6
CONTINUOUS
 62
    3
 10
318.39626002956084
 20
115.14843502560178
 11
316.5671353726774
 21
110.1790020916913
  0
LINE
  8
_1-c_
  6
CONTINUOUS
 62
    7
 10
291.64027033625422
 20
137.4589827254012
 11
289.15327742293078
 21
130.70214348870354
  0
LINE
  8
_1-c_
  6
CONTINUOUS
 62
    7
 10
248.77995671452703
 20
156.74610034839529
 11
246.29296380120357
 21
149.98927348368878
  0
LINE
  8
_1-c_
  6
CONTINUOUS
 62
    7
 10
247.83112397065034
 20
158.80029626794763
 11
205.33511599978885
 21
174.44185824007602
  0
LINE
  8
_1-c_
  6
CONTINUOUS
 62
    7
 10
290.69141284839526
 20
139.51316627296242
 11
248.19436563027872
 21
155.15511177681589
  0
LINE
  8
_1-b_
  6
CONTINUOUS
 62
    3
 10
330.74256690772808
 20
107.0926233240076
 11
318.94720953864021
 21
111.43415296399917
  0
LINE
  8
_1-b_
  6
CONTINUOUS
 62
    3
 10
330.74256690772808
 20
110.0762650773332
 11
319.72666972392318
 21
114.13090061497044
  0
LINE
  8
_1-b_
  6
CONTINUOUS
 62
    3
 10
330.74256690772808
 20
110.6041160789696
 11
276.08687117293078
 21
130.72129533097552
  0
LINE
  8
_1-c_
  6
CONTINUOUS
 62
    7
 10
330.74256690772808
 20
121.26000069283151
 11
291.05465450802365
 21
135.86796940983953
  0
LINE
  8
_1-0_
  6
CONTINUOUS
 62
    7
 10
330.74256690772808
 20
101.06755024677999
 11
181.99290507548565
 21
168.00490920608109
  0
LINE
  8
_1-0_
  6
CONTINUOUS
 62
    7
 10
330.74256690772808
 20
102.82209654112121
 11
181.99290507548565
 21
169.75944312843117
  0
LINE
  8
_1-0_
  6
CONTINUOUS
 62
    7
 10
330.74256690772808
 20
102.16414168074324
 11
181.99290507548565
 21
169.10151301203547
  0
LINE
  8
_1-1_
  6
CONTINUOUS
 62
    7
 10
205.33511599978885
 20
174.44185824007602
 11
192.57346900733742
 21
179.13905788112331
  0
LINE
  8
_1-3_
  6
DASHED1
 62
    7
 10
180.99524008261193
 20
168.65257056983742
 11
181.43297350084461
 21
168.84954504064612
  0
LINE
  8
_1-3_
  6
CONTINUOUS
 62
    7
 10
229.29040857263516
 20
135.81551216744089
 11
260.70853568412161
 21
190.23324502480997
  0
LINE
  8
_1-3_
  6
CONTINUOUS
 62
    7
 10
260.70853568412161
 20
190.23324502480997
 11
266.45621634818411
 21
190.23324502480997
  0
LINE
  8
_1-3_
  6
CONTINUOUS
 62
    7
 10
199.78325921135982
 20
186.75024496542443
 11
209.48906151024073
 21
203.56118279534419
  0
LINE
  8
_1-3_
  6
CONTINUOUS
 62
    7
 10
209.48906151024073
 20
203.56118279534419
 11
201.22486836201438
 21
179.54221158414273
  0
LINE
  8
_1-3_
  6
CONTINUOUS
 62
    7
 10
209.48906151024073
 20
203.56118279534419
 11
213.81643759237755
 21
203.56118279534419
  0
LINE
  8
_1-0_
  6
CONTINUOUS
 62
    7
 10
45.554181691762551
 20
73.709904438740509
 11
181.99291744747677
 21
135.107327023068
  0
LINE
  8
_1-0_
  6
DASHED1
 62
    7
 10
181.89290227116766
 20
145.17194180875211
 11
175.26662465688347
 21
145.17194180875211
  0
LINE
  8
_1-0_
  6
DASHED1
 62
    7
 10
180.09290128140836
 20
146.97194279851141
 11
175.26662465688347
 21
146.97194279851141
  0
LINE
  8
_1-0_
  6
CONTINUOUS
 62
    7
 10
33.243243243243228
 20
102.82209654112121
 11
181.99290507548565
 21
169.75944312843117
  0
LINE
  8
_1-0_
  6
CONTINUOUS
 62
    7
 10
33.243243243243228
 20
102.16414168074324
 11
181.99290507548565
 21
169.10151301203547
  0
LINE
  8
_1-0_
  6
CONTINUOUS
 62
    7
 10
33.243243243243228
 20
101.06755024677999
 11
181.99290507548565
 21
168.00490920608109
  0
LINE
  8
_1-0_
  6
CONTINUOUS
 62
    7
 10
181.09290458060602
 20
147.97194609770904
 11
181.09290458060602
 21
148.1985143713049
  0
LINE
  8
_1-0_
  6
DASHED1
 62
    7
 10
181.09290458060602
 20
167.59991207638302
 11
181.09290458060602
 21
148.1985143713049
  0
LINE
  8
_1-0_
  6
DASHED1
 62
    7
 10
182.89290557036529
 20
167.59991207638302
 11
182.89290557036529
 21
146.17194510794977
  0
LINE
  8
_1-2_
  6
CONTINUOUS
 62
    7
 10
166.65996242213893
 20
234.42025674355997
 11
162.16216216216216
 21
234.42025674355997
  0
LINE
  8
_1-0_
  6
CONTINUOUS
 62
    7
 10
254.66516443201016
 20
102.40480783823375
 11
181.99291744747677
 21
135.107327023068
  0
LINE
  8
_1-0_
  6
CONTINUOUS
 62
    7
 10
318.43161918021536
 20
73.709904438740509
 11
255.70780161264781
 21
101.93561863254857
  0
LINE
  8
_1-0_
  6
CONTINUOUS
 62
    7
 10
255.70780161264781
 20
101.93561863254857
 11
254.66516443201016
 21
102.40480783823375
  0
LINE
  8
_1-1_
  6
CONTINUOUS
 62
    7
 10
37.34689042374896
 20
91.94833497743349
 11
181.99290507548565
 21
157.03904435441302
  0
LINE
  8
_1-1_
  6
CONTINUOUS
 62
    7
 10
326.63890116923568
 20
91.94833497743349
 11
181.99290507548565
 21
157.03904435441302
  0
LINE
  8
_1-1_
  6
CONTINUOUS
 62
    7
 10
266.45621634818411
 20
183.04657807221284
 11
256.55931627428208
 21
183.04657807221284
  0
LINE
  8
_1-1_
  6
CONTINUOUS
 62
    7
 10
266.45621634818411
 20
176.07754681561445
 11
252.53572206239443
 21
176.07754681561445
  0
LINE
  8
_1-1_
  6
CONTINUOUS
 62
    7
 10
266.45621634818411
 20
168.90049290012669
 11
248.39204530458193
 21
168.90049290012669
  0
LINE
  8
_1-1_
  6
CONTINUOUS
 62
    7
 10
266.45621634818411
 20
163.59571714658995
 11
245.32933415593328
 21
163.59571714658995
  0
LINE
  8
_1-1_
  6
CONTINUOUS
 62
    7
 10
40.483555149387655
 20
109.36999759158573
 11
41.714657963933178
 21
106.63421630859375
  0
LINE
  8
_1-1_
  6
CONTINUOUS
 62
    7
 10
40.483561335383229
 20
109.3699852195946
 11
46.091865333350938
 21
108.60397338867187
  0
LINE
  8
_1-1_
  6
CONTINUOUS
 62
    3
 10
45.729452597128386
 20
109.557260049356
 11
47.418662406302786
 21
110.1790020916913
  0
LINE
  8
_1-b_
  6
CONTINUOUS
 62
    3
 10
245.87847735430745
 20
148.86313773490289
 11
190.36626867345862
 21
169.29558006492823
  0
LINE
  8
_1-b_
  6
CONTINUOUS
 62
    3
 10
246.29296380120357
 20
149.98927348368878
 11
245.87847735430745
 21
148.86313773490289
  0
LINE
  8
_1-b_
  6
CONTINUOUS
 62
    3
 10
75.247031546927786
 20
129.57599536792654
 11
130.75922785578547
 21
150.00843769795188
  0
LINE
  8
_1-c_
  6
CONTINUOUS
 62
    7
 10
72.345539814717085
 20
137.4589827254012
 11
75.247031546927786
 21
129.57599536792654
  0
LINE
  8
_1-b_
  6
CONTINUOUS
 62
    3
 10
117.69284634976775
 20
149.98927348368878
 11
118.10734516865499
 21
148.86313773490289
  0
LINE
  8
_1-b_
  6
CONTINUOUS
 62
    3
 10
118.10734516865499
 20
148.86313773490289
 11
173.61954147751268
 21
169.29558006492823
  0
LINE
  8
_1-b_
  6
CONTINUOUS
 62
    3
 10
288.73879097603464
 20
129.57599536792654
 11
233.22658229518584
 21
150.00843769795188
  0
LINE
  8
_1-b_
  6
CONTINUOUS
 62
    3
 10
289.15327742293078
 20
130.70213111671242
 11
288.73879097603464
 21
129.57599536792654
  0
LINE
  8
_1-1_
  6
DASHED1
 62
    7
 10
175.26662465688347
 20
146.97194279851141
 11
175.26662465688347
 21
145.17194180875211
  0
LINE
  8
_1-b_
  6
CONTINUOUS
 62
    3
 10
173.61954147751268
 20
169.29558006492823
 11
174.31039346230997
 21
167.41867477829393
  0
LINE
  8
_1-1_
  6
CONTINUOUS
 62
    7
 10
190.54410367398648
 20
169.20118177259292
 11
189.3130163244299
 21
166.46541286159206
  0
LINE
  8
_1-b_
  6
CONTINUOUS
 62
    3
 10
189.67541668866133
 20
167.41867477829393
 11
187.98619450749578
 21
168.04044156461148
  0
LINE
  8
_1-1_
  6
CONTINUOUS
 62
    7
 10
323.50227974556589
 20
109.3699852195946
 11
322.27119239600933
 21
106.63421630859375
  0
LINE
  8
_1-1_
  6
CONTINUOUS
 62
    7
 10
323.50227974556589
 20
109.3699852195946
 11
317.89395718961151
 21
108.60397338867187
  0
LINE
  8
_1-1_
  6
DASHED1
 62
    3
 10
227.5889876082137
 20
148.36394026472763
 11
181.99290507548565
 21
168.88218235325169
  0
LINE
  8
_1-3_
  6
DASHED1
 62
    3
 10
227.42483602987755
 20
147.99917685019005
 11
181.82875349714951
 21
168.51741893871412
  0
LINE
  8
_1-3_
  6
DASHED1
 62
    3
 10
136.56243401604729
 20
147.99983256572003
 11
182.1570566538218
 21
168.51741893871412
  0
LINE
  8
_1-3_
  6
DASHED1
 62
    3
 10
227.42483602987755
 20
147.99917685019005
 11
331.1130338101774
 21
101.33946805386931
  0
LINE
  8
_1-3_
  6
CONTINUOUS
 62
    7
 10
152.96411875131969
 20
111.55163739178633
 11
139.78500366210937
 21
140.83857768290753
  0
LINE
  8
_1-3_
  6
CONTINUOUS
 62
    7
 10
198.39458981075802
 20
131.99535060573268
 11
185.21547472154774
 21
161.28229089685391
  0
LINE
  8
_1-3_
  6
CONTINUOUS
 62
    7
 10
152.96411875131969
 20
111.55163739178633
 11
198.39458981075802
 21
131.99535060573268
  0
LINE
  8
_1-3_
  6
CONTINUOUS
 62
    7
 10
165.96880113756336
 20
132.39580721468539
 11
180.1695086504962
 21
163.9529089025549
  0
LINE
  8
_1-3_
  6
CONTINUOUS
 62
    7
 10
211.23658051361909
 20
112.02529907226562
 11
225.43727565456084
 21
143.58240076013513
  0
LINE
  8
_1-3_
  6
CONTINUOUS
 62
    7
 10
165.96880113756336
 20
132.39580721468539
 11
211.23658051361909
 21
112.02529907226562
  0
LINE
  8
_1-2_
  6
CONTINUOUS
 62
    7
 10
148.0106951739337
 20
141.74705299171242
 11
139.22877131281672
 21
115.86346188107053
  0
LINE
  8
_1-2_
  6
CONTINUOUS
 62
    7
 10
150.00472610061234
 20
142.64435639252534
 11
141.22278986750422
 21
116.76077765387458
  0
LINE
  8
_1-2_
  6
CONTINUOUS
 62
    7
 10
151.99875702729096
 20
143.5416721653294
 11
143.21682079418287
 21
117.6580810546875
  0
LINE
  8
_1-2_
  6
CONTINUOUS
 62
    7
 10
248.77087567303633
 20
126.98895016232053
 11
242.31536865234375
 21
107.96221346468539
  0
LINE
  8
_1-2_
  6
CONTINUOUS
 62
    7
 10
250.23665969436234
 20
126.32934982712204
 11
243.78115267366977
 21
107.30261312948691
  0
LINE
  8
_1-2_
  6
CONTINUOUS
 62
    7
 10
251.70244371568836
 20
125.66974949192357
 11
245.24693669499578
 21
106.64301279428844
  0
LINE
  8
_1-2_
  6
CONTINUOUS
 62
    7
 10
76.949627850506772
 20
109.76956341717695
 11
68.167703989389793
 21
83.885990864521759
  0
LINE
  8
_1-2_
  6
CONTINUOUS
 62
    7
 10
74.955603109823699
 20
108.87226001636402
 11
66.173673062711146
 21
82.988675091717695
  0
LINE
  8
_1-2_
  6
CONTINUOUS
 62
    7
 10
72.961578369140625
 20
107.97494424355997
 11
64.179648322028072
 21
82.091365504909206
  0
LINE
  8
ADD_LINE
  6
DOT
 62
    4
 10
181.99290507548565
 20
174.37434428447003
 11
181.99290507548565
 21
233.40847530880492
  0
LINE
  8
ADD_LINE
  6
DOT
 62
    4
 10
181.99290507548565
 20
174.37434428447003
 11
181.99290507548565
 21
139.79076900997677
  0
LINE
  8
_1-2_
  6
CONTINUOUS
 62
    7
 10
181.79596772065034
 20
200.43652508709883
 11
166.65996242213893
 21
234.42025674355997
  0
LINE
  8
_1-2_
  6
CONTINUOUS
 62
    7
 10
184.21900981181378
 20
199.09903861380914
 11
203.08759534681167
 21
231.78037076383026
  0
LINE
  8
_1-1_
  6
CONTINUOUS
 62
    7
 10
203.08759534681167
 20
231.78037076383026
 11
208.19210567989867
 21
231.78037076383026
  0
LINE
  8
_1-2_
  6
CONTINUOUS
 62
    3
 10
191.32353911528716
 20
172.03342747043919
 11
191.15243447793497
 21
171.56856227565456
  0
LINE
  8
_1-2_
  6
CONTINUOUS
 62
    3
 10
160.02200564822635
 20
203.74504295555323
 11
160.49264856286953
 21
198.36558986354521
  0
LINE
  8
_1-2_
  6
CONTINUOUS
 62
    3
 10
180.13022757865289
 20
209.11805024018159
 11
180.44399364574537
 21
205.53173168285474
  0
LINE
  8
_1-2_
  6
CONTINUOUS
 62
    3
 10
159.08940495671453
 20
197.63005024678
 11
159.56004787135768
 21
192.25058478278083
  0
LINE
  8
_1-2_
  6
CONTINUOUS
 62
    3
 10
179.19762688714107
 20
203.00304515941724
 11
179.51139295423354
 21
199.41673897408151
  0
LINE
  8
_1-2_
  6
CONTINUOUS
 62
    3
 10
166.99290507548565
 20
206.89584268105997
 11
170.14385326488599
 21
207.4958471349768
  0
LINE
  8
_1-2_
  6
CONTINUOUS
 62
    3
 10
193.84195688608531
 20
207.4958471349768
 11
196.99290507548565
 21
206.89584268105997
  0
LINE
  8
_1-2_
  6
CONTINUOUS
 62
    3
 10
158.08538076039909
 20
191.49647480732688
 11
158.55602367504224
 21
186.11700934332771
  0
LINE
  8
_1-2_
  6
CONTINUOUS
 62
    3
 10
178.1936026908256
 20
196.86946971996412
 11
178.50736875791807
 21
193.28316353462839
  0
LINE
  8
_1-2_
  6
CONTINUOUS
 62
    3
 10
153.95921037003802
 20
183.99288692989865
 11
154.42985328468117
 21
178.61342146589951
  0
LINE
  8
_1-2_
  6
CONTINUOUS
 62
    3
 10
174.06743230046453
 20
189.36588184253591
 11
174.38119836755703
 21
185.77957565720018
  0
LINE
  8
_1-2_
  6
CONTINUOUS
 62
    3
 10
149.37647639094172
 20
176.40274460251268
 11
149.8471193055849
 21
171.02327913851352
  0
LINE
  8
_1-2_
  6
CONTINUOUS
 62
    3
 10
169.48469832136826
 20
181.77573951514992
 11
169.79846438846073
 21
178.18943332981419
  0
LINE
  8
_1-2_
  6
CONTINUOUS
 62
    3
 10
203.96380450274495
 20
203.74504295555323
 11
203.4931615881018
 21
198.36558986354521
  0
LINE
  8
_1-2_
  6
CONTINUOUS
 62
    3
 10
183.85558257231841
 20
209.11805024018159
 11
183.54181650522594
 21
205.53173168285474
  0
LINE
  8
_1-2_
  6
CONTINUOUS
 62
    3
 10
204.89640519425677
 20
197.63005024678
 11
204.42576227961362
 21
192.25058478278083
  0
LINE
  8
_1-2_
  6
CONTINUOUS
 62
    3
 10
184.78818326383023
 20
203.00304515941724
 11
184.47441719673776
 21
199.41673897408151
  0
LINE
  8
_1-2_
  6
CONTINUOUS
 62
    3
 10
196.99290507548565
 20
206.89584268105997
 11
193.84195688608531
 21
207.4958471349768
  0
LINE
  8
_1-2_
  6
CONTINUOUS
 62
    3
 10
205.90042939057221
 20
191.49647480732688
 11
205.42978647592906
 21
186.11700934332771
  0
LINE
  8
_1-2_
  6
CONTINUOUS
 62
    3
 10
185.7922074601457
 20
196.86946971996412
 11
185.47844139305323
 21
193.28316353462839
  0
LINE
  8
_1-2_
  6
CONTINUOUS
 62
    3
 10
210.02659978093328
 20
183.99288692989865
 11
209.55596923828125
 21
178.61342146589951
  0
LINE
  8
_1-2_
  6
CONTINUOUS
 62
    3
 10
189.91837785050677
 20
189.36588184253591
 11
189.60461178341427
 21
185.77957565720018
  0
LINE
  8
_1-2_
  6
CONTINUOUS
 62
    3
 10
214.60933376002959
 20
176.40274460251268
 11
214.13870321737755
 21
171.02327913851352
  0
LINE
  8
_1-2_
  6
CONTINUOUS
 62
    3
 10
194.50111182960305
 20
181.77573951514992
 11
194.18734576251057
 21
178.18943332981419
  0
LINE
  8
_1-1_
  6
CONTINUOUS
 62
    3
 10
172.28226532807221
 20
173.06572166649073
 11
173.92709680505703
 21
173.67113268053211
  0
LINE
  8
_1-b_
  6
CONTINUOUS
 62
    3
 10
118.64170383762669
 20
152.04346940324115
 11
172.69680126293287
 21
171.93958591770482
  0
LINE
  8
_1-2_
  6
CONTINUOUS
 62
    3
 10
191.70354482289909
 20
173.06572166649073
 11
191.28900888803844
 21
171.93958591770482
  0
LINE
  8
_1-1_
  6
CONTINUOUS
 62
    3
 10
191.70354482289909
 20
173.06572166649073
 11
190.05871334591427
 21
173.67113268053211
  0
LINE
  8
_1-1_
  6
CONTINUOUS
 62
    7
 10
158.65069415118245
 20
174.44185824007602
 11
171.85457796663852
 21
179.30183616844386
  0
LINE
  8
_1-b_
  6
CONTINUOUS
 62
    3
 10
171.85457796663852
 20
179.30183616844386
 11
175.99961564347552
 21
168.04044156461148
  0
LINE
  8
_1-1_
  6
CONTINUOUS
 62
    7
 10
205.33511599978885
 20
174.44185824007602
 11
192.13123218433279
 21
179.30183616844386
  0
LINE
  8
_1-b_
  6
CONTINUOUS
 62
    3
 10
192.13123218433279
 20
179.30183616844386
 11
187.98619450749578
 21
168.04044156461148
  0
LINE
  8
_1-0_
  6
CONTINUOUS
 62
    7
 10
181.09290458060602
 20
212.36025423616977
 11
182.89290557036529
 21
212.36025423616977
  0
LINE
  8
_1-0_
  6
CONTINUOUS
 62
    7
 10
181.09290458060602
 20
167.5998997043919
 11
181.09290458060602
 21
212.36025423616977
  0
LINE
  8
_1-0_
  6
CONTINUOUS
 62
    7
 10
182.89290557036529
 20
167.59991207638302
 11
182.89290557036529
 21
212.36025423616977
  0
LINE
  8
_1-2_
  6
CONTINUOUS
 62
    3
 10
181.65341763883023
 20
219.38215101087417
 11
183.02460541596284
 21
210.27359421188768
  0
LINE
  8
_1-2_
  6
CONTINUOUS
 62
    3
 10
181.65341763883023
 20
219.38215101087417
 11
184.78755229228253
 21
210.76330236486487
  0
LINE
  8
_1-b_
  6
CONTINUOUS
 62
    3
 10
245.34410631334461
 20
152.04346940324115
 11
206.90974879909209
 21
166.19004945497255
  0
LINE
  8
_1-b_
  6
CONTINUOUS
 62
    3
 10
206.90974879909209
 20
166.19004945497255
 11
206.71931911159209
 21
166.26013678473396
  0
LINE
  8
_1-b_
  6
CONTINUOUS
 62
    3
 10
206.71931911159209
 20
166.26013678473396
 11
191.28900888803844
 21
171.93958591770482
  0
LINE
  8
_1-3_
  6
CONTINUOUS
 62
    7
 10
186.92768406223607
 20
217.88875270534209
 11
202.71650984480576
 21
245.23577715899495
  0
LINE
  8
_1-3_
  6
CONTINUOUS
 62
    7
 10
183.86402027027029
 20
210.79111460092906
 11
168.82590216559333
 21
244.55507020692568
  0
LINE
  8
_1-3_
  6
CONTINUOUS
 62
    7
 10
203.08759534681167
 20
231.78037076383026
 11
184.24600549646328
 21
192.83825436153927
  0
LINE
  8
_1-3_
  6
CONTINUOUS
 62
    7
 10
168.82590216559333
 20
244.55507020692568
 11
163.36465784021328
 21
244.55507020692568
  0
LINE
  8
_1-3_
  6
CONTINUOUS
 62
    7
 10
202.71650984480576
 20
245.23577715899495
 11
207.67384297138938
 21
245.23577715899495
  0
LINE
  8
_1-3_
  6
CONTINUOUS
 62
    7
 10
148.09144716005068
 20
168.02146293021539
 11
135.01998076567779
 21
197.36984252929687
  0
LINE
  8
_1-3_
  6
CONTINUOUS
 62
    7
 10
135.01998076567779
 20
197.36984252929687
 11
128.00652168892526
 21
197.36984252929687
  0
LINE
  8
_1-3_
  6
CONTINUOUS
 62
    7
 10
148.09144716005068
 20
168.02146293021539
 11
157.9466536238387
 21
168.02146293021539
  0
LINE
  8
_1-3_
  6
CONTINUOUS
 62
    3
 10
181.6466996476457
 20
219.6038818359375
 11
181.66249868032097
 21
219.60068986222552
  0
LINE
  8
_1-3_
  6
CONTINUOUS
 62
    3
 10
181.61802137220229
 20
219.6038818359375
 11
181.6466996476457
 21
219.6038818359375
  0
LINE
  8
_1-3_
  6
CONTINUOUS
 62
    3
 10
181.58217971389359
 20
219.62538435652451
 11
181.61802137220229
 21
219.6038818359375
  0
LINE
  8
_1-3_
  6
CONTINUOUS
 62
    3
 10
181.55350143845018
 20
219.64691162109375
 11
181.58217971389359
 21
219.62538435652451
  0
LINE
  8
_1-3_
  6
CONTINUOUS
 62
    3
 10
181.51765978014149
 20
219.66841414168076
 11
181.55350143845018
 21
219.64691162109375
  0
LINE
  8
_1-3_
  6
CONTINUOUS
 62
    3
 10
181.48180574984164
 20
219.68991666226776
 11
181.51765978014149
 21
219.66841414168076
  0
LINE
  8
_1-3_
  6
CONTINUOUS
 62
    3
 10
181.44596409153294
 20
219.70424342799834
 11
181.48180574984164
 21
219.68991666226776
  0
LINE
  8
_1-3_
  6
CONTINUOUS
 62
    3
 10
181.41012243322425
 20
219.71141918285474
 11
181.44596409153294
 21
219.70424342799834
  0
LINE
  8
_1-3_
  6
CONTINUOUS
 62
    3
 10
181.37426840292443
 20
219.71859493771117
 11
181.41012243322425
 21
219.71141918285474
  0
LINE
  8
_1-3_
  6
CONTINUOUS
 62
    3
 10
181.33126336175044
 20
219.71859493771117
 11
181.37426840292443
 21
219.71859493771117
  0
LINE
  8
_1-3_
  6
CONTINUOUS
 62
    3
 10
181.2954093314506
 20
219.68991666226776
 11
181.33126336175044
 21
219.71859493771117
  0
LINE
  8
_1-3_
  6
CONTINUOUS
 62
    3
 10
181.32408760689401
 20
219.67556515255492
 11
181.2954093314506
 21
219.68991666226776
  0
LINE
  8
_1-3_
  6
CONTINUOUS
 62
    3
 10
181.35276588233742
 20
219.66123838682432
 11
181.32408760689401
 21
219.67556515255492
  0
LINE
  8
_1-3_
  6
CONTINUOUS
 62
    3
 10
181.40294667836784
 20
219.64691162109375
 11
181.35276588233742
 21
219.66123838682432
  0
LINE
  8
_1-3_
  6
CONTINUOUS
 62
    3
 10
181.43880070866766
 20
219.63973586623734
 11
181.40294667836784
 21
219.64691162109375
  0
LINE
  8
_1-3_
  6
CONTINUOUS
 62
    3
 10
181.46746661211995
 20
219.63256011138091
 11
181.43880070866766
 21
219.63973586623734
  0
LINE
  8
_1-3_
  6
CONTINUOUS
 62
    3
 10
181.50332064241977
 20
219.62538435652451
 11
181.46746661211995
 21
219.63256011138091
  0
LINE
  8
_1-3_
  6
CONTINUOUS
 62
    3
 10
181.53916230072846
 20
219.61823334565034
 11
181.50332064241977
 21
219.62538435652451
  0
LINE
  8
_1-3_
  6
CONTINUOUS
 62
    3
 10
181.56784057617187
 20
219.61105759079393
 11
181.53916230072846
 21
219.61823334565034
  0
LINE
  8
_1-3_
  6
CONTINUOUS
 62
    3
 10
181.59651885161529
 20
219.61105759079393
 11
181.56784057617187
 21
219.61105759079393
  0
LINE
  8
_1-3_
  6
CONTINUOUS
 62
    3
 10
181.63236050992398
 20
219.61105759079393
 11
181.59651885161529
 21
219.61105759079393
  0
LINE
  8
_1-3_
  6
CONTINUOUS
 62
    3
 10
181.66249868032097
 20
219.60068986222552
 11
181.63236050992398
 21
219.61105759079393
  0
LINE
  8
_1-3_
  6
CONTINUOUS
 62
    3
 10
181.65387540250211
 20
219.61105759079393
 11
181.66019748997044
 21
219.60064037426099
  0
LINE
  8
_1-3_
  6
CONTINUOUS
 62
    3
 10
181.63953626478042
 20
219.64691162109375
 11
181.65387540250211
 21
219.61105759079393
  0
LINE
  8
_1-3_
  6
CONTINUOUS
 62
    3
 10
181.66821454022383
 20
219.68274090741133
 11
181.63953626478042
 21
219.64691162109375
  0
LINE
  8
_1-3_
  6
CONTINUOUS
 62
    3
 10
181.69689281566724
 20
219.68991666226776
 11
181.66821454022383
 21
219.68274090741133
  0
LINE
  8
_1-3_
  6
CONTINUOUS
 62
    3
 10
181.72555871911953
 20
219.69709241712417
 11
181.69689281566724
 21
219.68991666226776
  0
LINE
  8
_1-3_
  6
CONTINUOUS
 62
    3
 10
181.75423699456294
 20
219.71141918285474
 11
181.72555871911953
 21
219.69709241712417
  0
LINE
  8
_1-3_
  6
CONTINUOUS
 62
    3
 10
181.78291527000636
 20
219.71859493771117
 11
181.75423699456294
 21
219.71141918285474
  0
LINE
  8
_1-3_
  6
CONTINUOUS
 62
    3
 10
181.81159354544977
 20
219.72577069256758
 11
181.78291527000636
 21
219.71859493771117
  0
LINE
  8
_1-3_
  6
CONTINUOUS
 62
    3
 10
181.84027182089318
 20
219.73292170344175
 11
181.81159354544977
 21
219.72577069256758
  0
LINE
  8
_1-3_
  6
CONTINUOUS
 62
    3
 10
181.86895009633659
 20
219.74009745829815
 11
181.84027182089318
 21
219.73292170344175
  0
LINE
  8
_1-3_
  6
CONTINUOUS
 62
    3
 10
181.89762837178
 20
219.74009745829815
 11
181.86895009633659
 21
219.74009745829815
  0
LINE
  8
_1-3_
  6
CONTINUOUS
 62
    3
 10
181.92630664722341
 20
219.74727321315459
 11
181.89762837178
 21
219.74009745829815
  0
LINE
  8
_1-3_
  6
CONTINUOUS
 62
    3
 10
181.95497255067568
 20
219.75444896801099
 11
181.92630664722341
 21
219.74727321315459
  0
LINE
  8
_1-3_
  6
CONTINUOUS
 62
    3
 10
181.98365082611909
 20
219.75444896801099
 11
181.95497255067568
 21
219.75444896801099
  0
LINE
  8
_1-3_
  6
CONTINUOUS
 62
    3
 10
182.0123291015625
 20
219.75444896801099
 11
181.98365082611909
 21
219.75444896801099
  0
LINE
  8
_1-3_
  6
CONTINUOUS
 62
    3
 10
182.04100737700591
 20
219.75444896801099
 11
182.0123291015625
 21
219.75444896801099
  0
LINE
  8
_1-3_
  6
CONTINUOUS
 62
    3
 10
182.06968565244932
 20
219.75444896801099
 11
182.04100737700591
 21
219.75444896801099
  0
LINE
  8
_1-3_
  6
CONTINUOUS
 62
    3
 10
182.09836392789273
 20
219.75444896801099
 11
182.06968565244932
 21
219.75444896801099
  0
LINE
  8
_1-3_
  6
CONTINUOUS
 62
    3
 10
182.13420558620143
 20
219.75444896801099
 11
182.09836392789273
 21
219.75444896801099
  0
LINE
  8
_1-3_
  6
CONTINUOUS
 62
    3
 10
182.17005961650128
 20
219.74009745829815
 11
182.13420558620143
 21
219.75444896801099
  0
LINE
  8
_1-3_
  6
CONTINUOUS
 62
    3
 10
182.14138134105787
 20
219.73292170344175
 11
182.17005961650128
 21
219.74009745829815
  0
LINE
  8
_1-3_
  6
CONTINUOUS
 62
    3
 10
182.11270306561445
 20
219.71859493771117
 11
182.14138134105787
 21
219.73292170344175
  0
LINE
  8
_1-3_
  6
CONTINUOUS
 62
    3
 10
182.08402479017104
 20
219.69709241712417
 11
182.11270306561445
 21
219.71859493771117
  0
LINE
  8
_1-3_
  6
CONTINUOUS
 62
    3
 10
182.04818313186234
 20
219.68274090741133
 11
182.08402479017104
 21
219.69709241712417
  0
LINE
  8
_1-3_
  6
CONTINUOUS
 62
    3
 10
182.01950485641893
 20
219.66841414168076
 11
182.04818313186234
 21
219.68274090741133
  0
LINE
  8
_1-3_
  6
CONTINUOUS
 62
    3
 10
181.98365082611909
 20
219.65406263196792
 11
182.01950485641893
 21
219.66841414168076
  0
LINE
  8
_1-3_
  6
CONTINUOUS
 62
    3
 10
181.94780916781039
 20
219.64691162109375
 11
181.98365082611909
 21
219.65406263196792
  0
LINE
  8
_1-3_
  6
CONTINUOUS
 62
    3
 10
181.91196750950169
 20
219.63256011138091
 11
181.94780916781039
 21
219.64691162109375
  0
LINE
  8
_1-3_
  6
CONTINUOUS
 62
    3
 10
181.88328923405828
 20
219.62538435652451
 11
181.91196750950169
 21
219.63256011138091
  0
LINE
  8
_1-3_
  6
CONTINUOUS
 62
    3
 10
181.85461095861487
 20
219.61823334565034
 11
181.88328923405828
 21
219.62538435652451
  0
LINE
  8
_1-3_
  6
CONTINUOUS
 62
    3
 10
181.82593268317146
 20
219.61823334565034
 11
181.85461095861487
 21
219.61823334565034
  0
LINE
  8
_1-3_
  6
CONTINUOUS
 62
    3
 10
181.79725440772805
 20
219.61823334565034
 11
181.82593268317146
 21
219.61823334565034
  0
LINE
  8
_1-3_
  6
CONTINUOUS
 62
    3
 10
181.76141274941935
 20
219.61823334565034
 11
181.79725440772805
 21
219.61823334565034
  0
LINE
  8
_1-3_
  6
CONTINUOUS
 62
    3
 10
181.72555871911953
 20
219.61823334565034
 11
181.76141274941935
 21
219.61823334565034
  0
LINE
  8
_1-3_
  6
CONTINUOUS
 62
    3
 10
181.66019748997044
 20
219.60064037426099
 11
181.72555871911953
 21
219.61823334565034
  0
ARC
  8
_1-b_
  6
CONTINUOUS
 62
    3
 10
76.334047059755051
 20
131.25480033255914
 40
1.5999999239638045
 50
110.20680236816406
 51
200.20738220214844
  0
ARC
  8
_1-b_
  6
CONTINUOUS
 62
    3
 10
119.19436068148227
 20
150.54194269953547
 40
1.5999999239638045
 50
110.20680236816406
 51
200.20738220214844
  0
ARC
  8
_1-c_
  6
CONTINUOUS
 62
    7
 10
73.847054146431589
 20
138.01163956925677
 40
1.5999999239638045
 50
110.20722961425781
 51
200.20695495605469
  0
ARC
  8
_1-c_
  6
CONTINUOUS
 62
    7
 10
116.70736776815879
 20
157.29875719225086
 40
1.5999999239638045
 50
110.20748901367187
 51
200.20695495605469
  0
ARC
  8
_1-b_
  6
CONTINUOUS
 62
    3
 10
287.65176309121625
 20
131.25480033255914
 40
1.5999999239638045
 50
339.79261779785156
 51
69.793197631835938
  0
ARC
  8
_1-b_
  6
CONTINUOUS
 62
    3
 10
244.79144946948904
 20
150.54194269953547
 40
1.5999999239638045
 50
339.79261779785156
 51
69.793197631835938
  0
ARC
  8
_1-c_
  6
CONTINUOUS
 62
    7
 10
290.13875600453969
 20
138.01163956925677
 40
1.5999999239638045
 50
339.79304504394526
 51
69.792770385742131
  0
ARC
  8
_1-c_
  6
CONTINUOUS
 62
    7
 10
247.2784423828125
 20
157.29875719225086
 40
1.5999999239638045
 50
339.79304504394526
 51
69.792510986328125
  0
CIRCLE
  8
_1-3_
  6
CONTINUOUS
 62
    7
 10
182.63747344145904
 20
195.96499056429477
 40
0.3036581503378378
  0
CIRCLE
  8
_1-3_
  6
CONTINUOUS
 62
    7
 10
179.9045129724451
 20
197.02781883445948
 40
0.3036581503378378
  0
CIRCLE
  8
_1-3_
  6
CONTINUOUS
 62
    7
 10
180.66367072028083
 20
193.99118784311656
 40
0.3036581503378378
  0
CIRCLE
  8
_1-3_
  6
CONTINUOUS
 62
    7
 10
183.09296066696581
 20
194.9021746661212
 40
0.3036581503378378
  0
CIRCLE
  8
_1-3_
  6
CONTINUOUS
 62
    7
 10
184.76310523780617
 20
197.48330605996622
 40
0.3036581503378378
  0
CIRCLE
  8
_1-3_
  6
CONTINUOUS
 62
    7
 10
184.45944708746833
 20
187.31060955975508
 40
0.3036581503378378
  0
CIRCLE
  8
_1-3_
  6
CONTINUOUS
 62
    7
 10
186.28142073347763
 20
187.00693903742612
 40
0.3036581503378378
  0
CIRCLE
  8
_1-3_
  6
CONTINUOUS
 62
    7
 10
186.73692033097552
 20
187.00693903742612
 40
0.3036581503378378
  0
CIRCLE
  8
_1-3_
  6
CONTINUOUS
 62
    7
 10
189.16622264965162
 20
186.70328088708828
 40
0.3036581503378378
  0
CIRCLE
  8
_1-3_
  6
CONTINUOUS
 62
    7
 10
179.44901337494721
 20
187.46243863492398
 40
0.3036581503378378
  0
CIRCLE
  8
_1-3_
  6
CONTINUOUS
 62
    7
 10
178.23435602961362
 20
187.00693903742612
 40
0.3036581503378378
  0
CIRCLE
  8
_1-3_
  6
CONTINUOUS
 62
    7
 10
175.80506608292865
 20
186.70328088708828
 40
0.3036581503378378
  0
CIRCLE
  8
_1-3_
  6
CONTINUOUS
 62
    7
 10
176.56421145877323
 20
178.50438710805534
 40
0.3036581503378378
  0
CIRCLE
  8
_1-3_
  6
CONTINUOUS
 62
    7
 10
177.17154013144005
 20
175.92325571421031
 40
0.3036581503378378
  0
CIRCLE
  8
_1-3_
  6
CONTINUOUS
 62
    7
 10
178.08252695444469
 20
177.44157120988177
 40
0.3036581503378378
  0
CIRCLE
  8
_1-3_
  6
CONTINUOUS
 62
    7
 10
178.68985562711148
 20
178.50438710805534
 40
0.3036581503378378
  0
CIRCLE
  8
_1-3_
  6
CONTINUOUS
 62
    7
 10
174.59040873759503
 20
178.50438710805534
 40
0.3036581503378378
  0
CIRCLE
  8
_1-3_
  6
CONTINUOUS
 62
    7
 10
173.98309243691935
 20
178.95988670555323
 40
0.3036581503378378
  0
CIRCLE
  8
_1-3_
  6
CONTINUOUS
 62
    7
 10
166.54334403373102
 20
176.53057201488599
 40
0.3036581503378378
  0
CIRCLE
  8
_1-3_
  6
CONTINUOUS
 62
    7
 10
166.39151495856208
 20
175.01226889120568
 40
0.3036581503378378
  0
CIRCLE
  8
_1-3_
  6
CONTINUOUS
 62
    7
 10
168.06165952940245
 20
175.31592704154352
 40
0.3036581503378378
  0
CIRCLE
  8
_1-3_
  6
CONTINUOUS
 62
    7
 10
169.12448779956716
 20
174.70859836887669
 40
0.3036581503378378
  0
CIRCLE
  8
_1-3_
  6
CONTINUOUS
 62
    7
 10
166.69517310889992
 20
172.73479564769849
 40
0.3036581503378378
  0
CIRCLE
  8
_1-3_
  6
CONTINUOUS
 62
    7
 10
166.84701455605997
 20
172.2792960502006
 40
0.3036581503378378
  0
CIRCLE
  8
_1-3_
  6
CONTINUOUS
 62
    7
 10
166.39151495856208
 20
171.52013830236487
 40
0.3036581503378378
  0
CIRCLE
  8
_1-3_
  6
CONTINUOUS
 62
    7
 10
167.90983045423354
 20
171.82380882469386
 40
0.3036581503378378
  0
CIRCLE
  8
_1-3_
  6
CONTINUOUS
 62
    7
 10
169.73180410024284
 20
172.73479564769849
 40
0.3036581503378378
  0
CIRCLE
  8
_1-3_
  6
CONTINUOUS
 62
    7
 10
174.43857966242612
 20
177.59340028505068
 40
0.3036581503378378
  0
CIRCLE
  8
_1-3_
  6
CONTINUOUS
 62
    7
 10
177.47521065376901
 20
173.03845379803633
 40
0.3036581503378378
  0
CIRCLE
  8
_1-3_
  6
CONTINUOUS
 62
    7
 10
177.01971105627112
 20
171.82380882469386
 40
0.3036581503378378
  0
CIRCLE
  8
_1-3_
  6
CONTINUOUS
 62
    7
 10
180.36000019795188
 20
172.2792960502006
 40
0.3036581503378378
  0
CIRCLE
  8
_1-3_
  6
CONTINUOUS
 62
    7
 10
187.64790715398016
 20
170.00182280669341
 40
0.3036581503378378
  0
CIRCLE
  8
_1-3_
  6
CONTINUOUS
 62
    7
 10
188.10340675147805
 20
171.36830922719597
 40
0.3036581503378378
  0
CIRCLE
  8
_1-3_
  6
CONTINUOUS
 62
    7
 10
186.58509125580659
 20
174.40494021853885
 40
0.3036581503378378
  0
CIRCLE
  8
_1-3_
  6
CONTINUOUS
 62
    7
 10
184.45944708746833
 20
177.74522936021961
 40
0.3036581503378378
  0
CIRCLE
  8
_1-3_
  6
CONTINUOUS
 62
    7
 10
183.85213078679266
 20
178.35255803288641
 40
0.3036581503378378
  0
CIRCLE
  8
_1-3_
  6
CONTINUOUS
 62
    7
 10
184.1557889371305
 20
180.1745316788957
 40
0.3036581503378378
  0
CIRCLE
  8
_1-3_
  6
CONTINUOUS
 62
    7
 10
186.58509125580659
 20
179.26354485589107
 40
0.3036581503378378
  0
CIRCLE
  8
_1-3_
  6
CONTINUOUS
 62
    7
 10
188.25523582664698
 20
178.95988670555323
 40
0.3036581503378378
  0
CIRCLE
  8
_1-3_
  6
CONTINUOUS
 62
    7
 10
190.38087999498524
 20
180.02270260372677
 40
0.3036581503378378
  0
CIRCLE
  8
_1-3_
  6
CONTINUOUS
 62
    7
 10
191.59552496832771
 20
180.1745316788957
 40
0.3036581503378378
  0
CIRCLE
  8
_1-3_
  6
CONTINUOUS
 62
    7
 10
192.20285364099453
 20
180.1745316788957
 40
0.3036581503378378
  0
CIRCLE
  8
_1-3_
  6
CONTINUOUS
 62
    7
 10
195.99863000818203
 20
177.13790068755279
 40
0.3036581503378378
  0
CIRCLE
  8
_1-3_
  6
CONTINUOUS
 62
    7
 10
195.08764318517737
 20
175.77142663904141
 40
0.3036581503378378
  0
CIRCLE
  8
_1-3_
  6
CONTINUOUS
 62
    7
 10
197.51694550385346
 20
174.55676929370779
 40
0.3036581503378378
  0
CIRCLE
  8
_1-3_
  6
CONTINUOUS
 62
    7
 10
196.90962920317779
 20
176.22691386454815
 40
0.3036581503378378
  0
CIRCLE
  8
_1-3_
  6
CONTINUOUS
 62
    7
 10
199.79441874736065
 20
176.83424253721495
 40
0.3036581503378378
  0
CIRCLE
  8
_1-3_
  6
CONTINUOUS
 62
    7
 10
198.12427417652029
 20
173.03845379803633
 40
0.3036581503378378
  0
CIRCLE
  8
_1-3_
  6
CONTINUOUS
 62
    7
 10
194.32848543734164
 20
174.10128206820102
 40
0.3036581503378378
  0
CIRCLE
  8
_1-3_
  6
CONTINUOUS
 62
    7
 10
194.48031451251057
 20
173.19028287320523
 40
0.3036581503378378
  0
CIRCLE
  8
_1-3_
  6
CONTINUOUS
 62
    7
 10
195.2394722603463
 20
172.8866247228674
 40
0.3036581503378378
  0
CIRCLE
  8
_1-3_
  6
CONTINUOUS
 62
    7
 10
197.6687745790224
 20
171.6719673775338
 40
0.3036581503378378
  0
CIRCLE
  8
_1-3_
  6
CONTINUOUS
 62
    7
 10
198.12427417652029
 20
171.6719673775338
 40
0.3036581503378378
  0
CIRCLE
  8
_1-3_
  6
CONTINUOUS
 62
    7
 10
198.88343192435602
 20
170.91282200168919
 40
0.3036581503378378
  0
CIRCLE
  8
_1-3_
  6
CONTINUOUS
 62
    7
 10
195.2394722603463
 20
172.43113749736065
 40
0.3036581503378378
  0
CIRCLE
  8
_1-3_
  6
CONTINUOUS
 62
    7
 10
190.53270907015414
 20
176.37874293971706
 40
0.3036581503378378
  0
CIRCLE
  8
_1-3_
  6
CONTINUOUS
 62
    7
 10
186.1295916583087
 20
174.86042744404563
 40
0.3036581503378378
  0
CIRCLE
  8
_1-3_
  6
CONTINUOUS
 62
    7
 10
185.82593350797086
 20
172.43113749736065
 40
0.3036581503378378
  0
CIRCLE
  8
_1-3_
  6
CONTINUOUS
 62
    7
 10
184.76310523780617
 20
171.52013830236487
 40
0.3036581503378378
  0
CIRCLE
  8
_1-3_
  6
CONTINUOUS
 62
    7
 10
183.24480211412586
 20
171.06465107685813
 40
0.3036581503378378
  0
CIRCLE
  8
_1-3_
  6
CONTINUOUS
 62
    7
 10
178.38619747677365
 20
171.52013830236487
 40
0.3036581503378378
  0
CIRCLE
  8
_1-3_
  6
CONTINUOUS
 62
    7
 10
176.26055330843539
 20
170.00182280669341
 40
0.3036581503378378
  0
CIRCLE
  8
_1-3_
  6
CONTINUOUS
 62
    7
 10
175.95689515809755
 20
173.79761154587206
 40
0.3036581503378378
  0
CIRCLE
  8
_1-3_
  6
CONTINUOUS
 62
    7
 10
164.56954131255279
 20
176.37874293971706
 40
0.3036581503378378
  0
CIRCLE
  8
_1-3_
  6
CONTINUOUS
 62
    7
 10
164.72137038772172
 20
174.25311114336995
 40
0.3036581503378378
  0
CIRCLE
  8
_1-3_
  6
CONTINUOUS
 62
    7
 10
164.1140417150549
 20
171.21648015202703
 40
0.3036581503378378
  0
CIRCLE
  8
_1-3_
  6
CONTINUOUS
 62
    7
 10
164.56954131255279
 20
171.21648015202703
 40
0.3036581503378378
  0
CIRCLE
  8
_1-3_
  6
CONTINUOUS
 62
    7
 10
167.15067270639781
 20
171.36830922719597
 40
0.3036581503378378
  0
CIRCLE
  8
_1-3_
  6
CONTINUOUS
 62
    7
 10
168.66898820206927
 20
175.16409796637458
 40
0.3036581503378378
  0
CIRCLE
  8
_1-3_
  6
CONTINUOUS
 62
    7
 10
170.33913277290964
 20
179.26354485589107
 40
0.3036581503378378
  0
CIRCLE
  8
_1-3_
  6
CONTINUOUS
 62
    7
 10
177.77886880410685
 20
180.32636075406461
 40
0.3036581503378378
  0
CIRCLE
  8
_1-3_
  6
CONTINUOUS
 62
    7
 10
180.66367072028083
 20
181.08551850190034
 40
0.3036581503378378
  0
CIRCLE
  8
_1-3_
  6
CONTINUOUS
 62
    7
 10
183.39663118929477
 20
183.21116267023862
 40
0.3036581503378378
  0
CIRCLE
  8
_1-3_
  6
CONTINUOUS
 62
    7
 10
183.5484602644637
 20
185.33679446658573
 40
0.3036581503378378
  0
CIRCLE
  8
_1-3_
  6
CONTINUOUS
 62
    7
 10
180.66367072028083
 20
184.42580764358109
 40
0.3036581503378378
  0
CIRCLE
  8
_1-3_
  6
CONTINUOUS
 62
    7
 10
184.45944708746833
 20
180.63003127639359
 40
0.3036581503378378
  0
CIRCLE
  8
_1-3_
  6
CONTINUOUS
 62
    7
 10
184.00395986196159
 20
177.13790068755279
 40
0.3036581503378378
  0
CIRCLE
  8
_1-3_
  6
CONTINUOUS
 62
    7
 10
183.7002893396326
 20
176.22691386454815
 40
0.3036581503378378
  0
CIRCLE
  8
_1-3_
  6
CONTINUOUS
 62
    7
 10
187.49607807881125
 20
178.04888751055745
 40
0.3036581503378378
  0
CIRCLE
  8
_1-3_
  6
CONTINUOUS
 62
    7
 10
187.79973622914909
 20
177.13790068755279
 40
0.3036581503378378
  0
CIRCLE
  8
_1-3_
  6
CONTINUOUS
 62
    7
 10
187.79973622914909
 20
177.13790068755279
 40
0.3036581503378378
  0
CIRCLE
  8
_1-3_
  6
CONTINUOUS
 62
    7
 10
188.10340675147805
 20
174.55676929370779
 40
0.3036581503378378
  0
CIRCLE
  8
_1-3_
  6
CONTINUOUS
 62
    7
 10
178.99352614944047
 20
175.16409796637458
 40
0.3036581503378378
  0
CIRCLE
  8
_1-3_
  6
CONTINUOUS
 62
    7
 10
185.06677576013516
 20
170.91282200168919
 40
0.3036581503378378
  0
CIRCLE
  8
_1-3_
  6
CONTINUOUS
 62
    7
 10
186.43324980864654
 20
169.24267743084883
 40
0.3036581503378378
  0
CIRCLE
  8
_1-3_
  6
CONTINUOUS
 62
    7
 10
184.00395986196159
 20
175.92325571421031
 40
0.3036581503378378
  0
CIRCLE
  8
_1-3_
  6
CONTINUOUS
 62
    7
 10
178.84168470228042
 20
173.79761154587206
 40
0.3036581503378378
  0
CIRCLE
  8
_1-3_
  6
CONTINUOUS
 62
    7
 10
174.59040873759503
 20
175.61959756387247
 40
0.3036581503378378
  0
CIRCLE
  8
_1-3_
  6
CONTINUOUS
 62
    7
 10
177.77886880410685
 20
177.28974213471284
 40
0.3036581503378378
  0
CIRCLE
  8
_1-3_
  6
CONTINUOUS
 62
    7
 10
174.13492151208828
 20
180.47818982923354
 40
0.3036581503378378
  0
CIRCLE
  8
_1-3_
  6
CONTINUOUS
 62
    7
 10
186.43324980864654
 20
171.52013830236487
 40
0.3036581503378378
  0
CIRCLE
  8
_1-3_
  6
CONTINUOUS
 62
    7
 10
187.49607807881125
 20
173.64578247070312
 40
0.3036581503378378
  0
CIRCLE
  8
_1-3_
  6
CONTINUOUS
 62
    7
 10
188.86256449931378
 20
174.10128206820102
 40
0.3036581503378378
  0
CIRCLE
  8
_1-3_
  6
CONTINUOUS
 62
    7
 10
189.46988079998945
 20
178.35255803288641
 40
0.3036581503378378
  0
CIRCLE
  8
_1-3_
  6
CONTINUOUS
 62
    7
 10
178.99352614944047
 20
176.83424253721495
 40
0.3036581503378378
  0
CIRCLE
  8
_1-3_
  6
CONTINUOUS
 62
    7
 10
178.84168470228042
 20
179.41537393105997
 40
0.3036581503378378
  0
CIRCLE
  8
_1-3_
  6
CONTINUOUS
 62
    7
 10
176.56421145877323
 20
179.41537393105997
 40
0.3036581503378378
  0
CIRCLE
  8
_1-3_
  6
CONTINUOUS
 62
    7
 10
178.53802655194258
 20
173.19028287320523
 40
0.3036581503378378
  0
CIRCLE
  8
_1-3_
  6
CONTINUOUS
 62
    7
 10
178.38619747677365
 20
170.60915147936024
 40
0.3036581503378378
  0
CIRCLE
  8
_1-3_
  6
CONTINUOUS
 62
    7
 10
177.93069787927578
 20
169.54633558118667
 40
0.3036581503378378
  0
CIRCLE
  8
_1-3_
  6
CONTINUOUS
 62
    7
 10
172.00927734375
 20
176.22691386454815
 40
0.3036581503378378
  0
CIRCLE
  8
_1-3_
  6
CONTINUOUS
 62
    7
 10
172.31294786607899
 20
177.28974213471284
 40
0.3036581503378378
  0
CIRCLE
  8
_1-3_
  6
CONTINUOUS
 62
    7
 10
186.43324980864654
 20
177.59340028505068
 40
0.3036581503378378
  0
CIRCLE
  8
_1-3_
  6
CONTINUOUS
 62
    7
 10
186.73692033097552
 20
180.63003127639359
 40
0.3036581503378378
  0
CIRCLE
  8
_1-3_
  6
CONTINUOUS
 62
    7
 10
183.39663118929477
 20
197.938793285473
 40
0.3036581503378378
  0
CIRCLE
  8
_1-3_
  6
CONTINUOUS
 62
    7
 10
181.5746575432855
 20
197.938793285473
 40
0.3036581503378378
  0
ARC
  8
_1-0_
  6
DASHED1
 62
    7
 10
181.89290227116766
 20
146.17194510794977
 40
0.9999999162313101
 50
270
 51
0
  0
ARC
  8
_1-0_
  6
DASHED1
 62
    7
 10
180.09290128140836
 20
147.97194609770904
 40
0.9999999162313101
 50
270
 51
0
  0
CIRCLE
  8
_1-1_
  6
CONTINUOUS
 62
    7
 10
36.40509115683065
 20
99.82677562816724
 40
0.1502702042863175
  0
CIRCLE
  8
_1-1_
  6
CONTINUOUS
 62
    7
 10
38.508815249881224
 20
100.12730985074431
 40
0.1502702042863175
  0
CIRCLE
  8
_1-1_
  6
CONTINUOUS
 62
    7
 10
40.011477083773229
 20
100.87864231418919
 40
0.1502702042863175
  0
CIRCLE
  8
_1-1_
  6
CONTINUOUS
 62
    7
 10
38.508815249881224
 20
98.925179146431589
 40
0.1502702042863175
  0
CIRCLE
  8
_1-1_
  6
CONTINUOUS
 62
    7
 10
37.006156508987033
 20
98.173852868982266
 40
0.1502702042863175
  0
CIRCLE
  8
_1-1_
  6
CONTINUOUS
 62
    7
 10
41.514138917665235
 20
99.225713369008659
 40
0.1502702042863175
  0
CIRCLE
  8
_1-1_
  6
CONTINUOUS
 62
    7
 10
39.560678842905418
 20
101.93050281421559
 40
0.1502702042863175
  0
CIRCLE
  8
_1-1_
  6
CONTINUOUS
 62
    7
 10
44.519459492451432
 20
103.13263351852829
 40
0.1502702042863175
  0
CIRCLE
  8
_1-1_
  6
CONTINUOUS
 62
    7
 10
44.669726603739974
 20
102.08076683250634
 40
0.1502702042863175
  0
CIRCLE
  8
_1-1_
  6
CONTINUOUS
 62
    7
 10
44.369192381162918
 20
101.93050281421559
 40
0.1502702042863175
  0
CIRCLE
  8
_1-1_
  6
CONTINUOUS
 62
    7
 10
42.415735399400859
 20
103.13263351852829
 40
0.1502702042863175
  0
CIRCLE
  8
_1-1_
  6
CONTINUOUS
 62
    7
 10
43.467595899427266
 20
101.62996859163852
 40
0.1502702042863175
  0
CIRCLE
  8
_1-1_
  6
CONTINUOUS
 62
    7
 10
45.421055974187084
 20
101.32944055505702
 40
0.1502702042863175
  0
CIRCLE
  8
_1-1_
  6
CONTINUOUS
 62
    7
 10
47.825314289814713
 20
102.38130105508341
 40
0.1502702042863175
  0
CIRCLE
  8
_1-1_
  6
CONTINUOUS
 62
    7
 10
49.478243234995261
 20
103.43316155510981
 40
0.1502702042863175
  0
CIRCLE
  8
_1-1_
  6
CONTINUOUS
 62
    7
 10
47.675047178526199
 20
103.58343175939612
 40
0.1502702042863175
  0
CIRCLE
  8
_1-1_
  6
CONTINUOUS
 62
    7
 10
48.576643660261823
 20
106.43849140888936
 40
0.1502702042863175
  0
CIRCLE
  8
_1-1_
  6
CONTINUOUS
 62
    7
 10
45.721587103766353
 20
105.68715275944891
 40
0.1502702042863175
  0
CIRCLE
  8
_1-1_
  6
CONTINUOUS
 62
    7
 10
51.732231346336562
 20
105.53689492715372
 40
0.1502702042863175
  0
CIRCLE
  8
_1-1_
  6
CONTINUOUS
 62
    7
 10
52.333299791490703
 20
104.18448783255913
 40
0.1502702042863175
  0
CIRCLE
  8
_1-1_
  6
CONTINUOUS
 62
    7
 10
49.929041475863073
 20
105.23635451858108
 40
0.1502702042863175
  0
CIRCLE
  8
_1-1_
  6
CONTINUOUS
 62
    7
 10
55.03808923669763
 20
105.38662472286741
 40
0.1502702042863175
  0
CIRCLE
  8
_1-1_
  6
CONTINUOUS
 62
    7
 10
54.136492754962006
 20
106.28822120460305
 40
0.1502702042863175
  0
CIRCLE
  8
_1-1_
  6
CONTINUOUS
 62
    7
 10
51.732231346336562
 20
107.4903457229202
 40
0.1502702042863175
  0
CIRCLE
  8
_1-1_
  6
CONTINUOUS
 62
    7
 10
52.934355864653725
 20
107.94114396378801
 40
0.1502702042863175
  0
CIRCLE
  8
_1-1_
  6
CONTINUOUS
 62
    7
 10
58.043406718486068
 20
108.99301064980997
 40
0.1502702042863175
  0
CIRCLE
  8
_1-1_
  6
CONTINUOUS
 62
    7
 10
57.442338273331927
 20
106.88927727776606
 40
0.1502702042863175
  0
CIRCLE
  8
_1-1_
  6
CONTINUOUS
 62
    7
 10
55.338617273279141
 20
108.24168437236065
 40
0.1502702042863175
  0
CIRCLE
  8
_1-1_
  6
CONTINUOUS
 62
    7
 10
58.043406718486068
 20
108.24168437236065
 40
0.1502702042863175
  0
CIRCLE
  8
_1-1_
  6
CONTINUOUS
 62
    7
 10
57.141810236750416
 20
109.89460713154561
 40
0.1502702042863175
  0
CIRCLE
  8
_1-1_
  6
CONTINUOUS
 62
    7
 10
60.748196163692995
 20
110.79620361328125
 40
0.1502702042863175
  0
CIRCLE
  8
_1-1_
  6
CONTINUOUS
 62
    7
 10
59.996869886243672
 20
108.69247024123733
 40
0.1502702042863175
  0
CIRCLE
  8
_1-1_
  6
CONTINUOUS
 62
    7
 10
62.851917163745782
 20
109.44380889067779
 40
0.1502702042863175
  0
CIRCLE
  8
_1-1_
  6
CONTINUOUS
 62
    7
 10
64.655110127217085
 20
110.34540537241344
 40
0.1502702042863175
  0
CIRCLE
  8
_1-1_
  6
CONTINUOUS
 62
    7
 10
64.054054054054063
 20
111.9983281315984
 40
0.1502702042863175
  0
CIRCLE
  8
_1-1_
  6
CONTINUOUS
 62
    7
 10
66.608573294974661
 20
113.65126326277451
 40
0.1502702042863175
  0
CIRCLE
  8
_1-1_
  6
CONTINUOUS
 62
    7
 10
70.21495922191724
 20
114.10204913165119
 40
0.1502702042863175
  0
CIRCLE
  8
_1-1_
  6
CONTINUOUS
 62
    7
 10
69.16309253589526
 20
113.05019481762037
 40
0.1502702042863175
  0
CIRCLE
  8
_1-1_
  6
CONTINUOUS
 62
    7
 10
73.370546907991979
 20
114.2523193359375
 40
0.1502702042863175
  0
CIRCLE
  8
_1-1_
  6
CONTINUOUS
 62
    7
 10
74.722941630595443
 20
115.75498426282729
 40
0.1502702042863175
  0
CIRCLE
  8
_1-1_
  6
CONTINUOUS
 62
    7
 10
76.526140780062292
 20
116.50631054027662
 40
0.1502702042863175
  0
CIRCLE
  8
_1-1_
  6
CONTINUOUS
 62
    7
 10
77.127209225216433
 20
115.15390344568202
 40
0.1502702042863175
  0
CIRCLE
  8
_1-1_
  6
CONTINUOUS
 62
    7
 10
79.83199867042336
 20
116.3560403359903
 40
0.1502702042863175
  0
CIRCLE
  8
_1-1_
  6
CONTINUOUS
 62
    7
 10
78.930402188687708
 20
117.25763681772594
 40
0.1502702042863175
  0
CIRCLE
  8
_1-1_
  6
CONTINUOUS
 62
    7
 10
76.526140780062292
 20
118.45976133604309
 40
0.1502702042863175
  0
CIRCLE
  8
_1-1_
  6
CONTINUOUS
 62
    7
 10
77.728265298379426
 20
118.9105595769109
 40
0.1502702042863175
  0
CIRCLE
  8
_1-1_
  6
CONTINUOUS
 62
    7
 10
82.837316152211784
 20
119.96242626293287
 40
0.1502702042863175
  0
CIRCLE
  8
_1-1_
  6
CONTINUOUS
 62
    7
 10
82.236247707057643
 20
117.85869289088895
 40
0.1502702042863175
  0
CIRCLE
  8
_1-1_
  6
CONTINUOUS
 62
    7
 10
80.132526707004843
 20
119.21109998548354
 40
0.1502702042863175
  0
CIRCLE
  8
_1-1_
  6
CONTINUOUS
 62
    7
 10
82.837316152211784
 20
119.21109998548354
 40
0.1502702042863175
  0
CIRCLE
  8
_1-1_
  6
CONTINUOUS
 62
    7
 10
81.935719670476146
 20
120.8640227446685
 40
0.1502702042863175
  0
CIRCLE
  8
_1-1_
  6
CONTINUOUS
 62
    7
 10
85.542105597418711
 20
121.76561922640414
 40
0.1502702042863175
  0
CIRCLE
  8
_1-1_
  6
CONTINUOUS
 62
    7
 10
84.790779319969388
 20
119.66188585436022
 40
0.1502702042863175
  0
CIRCLE
  8
_1-1_
  6
CONTINUOUS
 62
    7
 10
87.645826597471498
 20
120.41322450380068
 40
0.1502702042863175
  0
CIRCLE
  8
_1-1_
  6
CONTINUOUS
 62
    7
 10
89.449019560942787
 20
121.31482098553633
 40
0.1502702042863175
  0
CIRCLE
  8
_1-1_
  6
CONTINUOUS
 62
    7
 10
88.847963487779779
 20
122.96774374472129
 40
0.1502702042863175
  0
CIRCLE
  8
_1-1_
  6
CONTINUOUS
 62
    7
 10
92.6046134330131
 20
124.62067887589738
 40
0.1502702042863175
  0
CIRCLE
  8
_1-1_
  6
CONTINUOUS
 62
    7
 10
93.20568187816724
 20
123.2682717813028
 40
0.1502702042863175
  0
CIRCLE
  8
_1-1_
  6
CONTINUOUS
 62
    7
 10
95.910471323374168
 20
124.47040867161107
 40
0.1502702042863175
  0
CIRCLE
  8
_1-1_
  6
CONTINUOUS
 62
    7
 10
95.008874841638516
 20
125.37200515334672
 40
0.1502702042863175
  0
CIRCLE
  8
_1-1_
  6
CONTINUOUS
 62
    7
 10
92.6046134330131
 20
126.57412967166385
 40
0.1502702042863175
  0
CIRCLE
  8
_1-1_
  6
CONTINUOUS
 62
    7
 10
93.806737951330248
 20
127.02492791253168
 40
0.1502702042863175
  0
CIRCLE
  8
_1-1_
  6
CONTINUOUS
 62
    7
 10
98.915788805162592
 20
128.07679459855365
 40
0.1502702042863175
  0
CIRCLE
  8
_1-1_
  6
CONTINUOUS
 62
    7
 10
98.314720360008451
 20
125.97306122650971
 40
0.1502702042863175
  0
CIRCLE
  8
_1-1_
  6
CONTINUOUS
 62
    7
 10
96.210999359955665
 20
127.32546832110431
 40
0.1502702042863175
  0
CIRCLE
  8
_1-1_
  6
CONTINUOUS
 62
    7
 10
98.915788805162592
 20
127.32546832110431
 40
0.1502702042863175
  0
CIRCLE
  8
_1-1_
  6
CONTINUOUS
 62
    7
 10
98.014192323426954
 20
128.97839108028927
 40
0.1502702042863175
  0
CIRCLE
  8
_1-1_
  6
CONTINUOUS
 62
    7
 10
101.62057825036952
 20
129.87998756202492
 40
0.1502702042863175
  0
CIRCLE
  8
_1-1_
  6
CONTINUOUS
 62
    7
 10
100.8692519729202
 20
127.776254189981
 40
0.1502702042863175
  0
CIRCLE
  8
_1-1_
  6
CONTINUOUS
 62
    7
 10
103.72429925042231
 20
128.52759283942146
 40
0.1502702042863175
  0
CIRCLE
  8
_1-1_
  6
CONTINUOUS
 62
    7
 10
105.52749221389358
 20
129.42918932115711
 40
0.1502702042863175
  0
CIRCLE
  8
_1-1_
  6
CONTINUOUS
 62
    7
 10
104.92643614073059
 20
131.08211208034206
 40
0.1502702042863175
  0
CIRCLE
  8
_1-1_
  6
CONTINUOUS
 62
    7
 10
112.59000623548354
 20
133.33611565667229
 40
0.1502702042863175
  0
CIRCLE
  8
_1-1_
  6
CONTINUOUS
 62
    7
 10
113.19107468063767
 20
131.98370856207771
 40
0.1502702042863175
  0
CIRCLE
  8
_1-1_
  6
CONTINUOUS
 62
    7
 10
115.8958641258446
 20
133.18584545238599
 40
0.1502702042863175
  0
CIRCLE
  8
_1-1_
  6
CONTINUOUS
 62
    7
 10
114.99426764410896
 20
134.08744193412164
 40
0.1502702042863175
  0
CIRCLE
  8
_1-1_
  6
CONTINUOUS
 62
    7
 10
112.59000623548354
 20
135.28956645243878
 40
0.1502702042863175
  0
CIRCLE
  8
_1-1_
  6
CONTINUOUS
 62
    7
 10
113.79213075380068
 20
135.74036469330659
 40
0.1502702042863175
  0
CIRCLE
  8
_1-1_
  6
CONTINUOUS
 62
    7
 10
118.90118160763303
 20
136.79223137932854
 40
0.1502702042863175
  0
CIRCLE
  8
_1-1_
  6
CONTINUOUS
 62
    7
 10
118.30011316247889
 20
134.68849800728464
 40
0.1502702042863175
  0
CIRCLE
  8
_1-1_
  6
CONTINUOUS
 62
    7
 10
116.19639216242611
 20
136.04090510187922
 40
0.1502702042863175
  0
CIRCLE
  8
_1-1_
  6
CONTINUOUS
 62
    7
 10
118.90118160763303
 20
136.04090510187922
 40
0.1502702042863175
  0
CIRCLE
  8
_1-1_
  6
CONTINUOUS
 62
    7
 10
117.99958512589738
 20
137.69382786106419
 40
0.1502702042863175
  0
CIRCLE
  8
_1-1_
  6
CONTINUOUS
 62
    7
 10
121.60597105283996
 20
138.59542434279984
 40
0.1502702042863175
  0
CIRCLE
  8
_1-1_
  6
CONTINUOUS
 62
    7
 10
120.85464477539062
 20
136.49169097075591
 40
0.1502702042863175
  0
CIRCLE
  8
_1-1_
  6
CONTINUOUS
 62
    7
 10
123.70969205289275
 20
137.24302962019638
 40
0.1502702042863175
  0
CIRCLE
  8
_1-1_
  6
CONTINUOUS
 62
    7
 10
125.51288501636402
 20
138.144626101932
 40
0.1502702042863175
  0
CIRCLE
  8
_1-1_
  6
CONTINUOUS
 62
    7
 10
124.91182894320102
 20
139.79754886111698
 40
0.1502702042863175
  0
CIRCLE
  8
_1-1_
  6
CONTINUOUS
 62
    7
 10
120.554104366818
 20
137.0927717879012
 40
0.1502702042863175
  0
CIRCLE
  8
_1-1_
  6
CONTINUOUS
 62
    7
 10
121.15517281197214
 20
135.74036469330659
 40
0.1502702042863175
  0
CIRCLE
  8
_1-1_
  6
CONTINUOUS
 62
    7
 10
123.85996225717906
 20
136.94250158361487
 40
0.1502702042863175
  0
CIRCLE
  8
_1-1_
  6
CONTINUOUS
 62
    7
 10
122.95836577544343
 20
137.84409806535052
 40
0.1502702042863175
  0
CIRCLE
  8
_1-1_
  6
CONTINUOUS
 62
    7
 10
120.554104366818
 20
139.04622258366766
 40
0.1502702042863175
  0
CIRCLE
  8
_1-1_
  6
CONTINUOUS
 62
    7
 10
121.75622888513514
 20
139.49702082453547
 40
0.1502702042863175
  0
CIRCLE
  8
_1-1_
  6
CONTINUOUS
 62
    7
 10
126.86527973896749
 20
140.54888751055745
 40
0.1502702042863175
  0
CIRCLE
  8
_1-1_
  6
CONTINUOUS
 62
    7
 10
126.26421129381335
 20
138.44515413851352
 40
0.1502702042863175
  0
CIRCLE
  8
_1-1_
  6
CONTINUOUS
 62
    7
 10
124.16049029376056
 20
139.79756123310813
 40
0.1502702042863175
  0
CIRCLE
  8
_1-1_
  6
CONTINUOUS
 62
    7
 10
126.86527973896749
 20
139.79756123310813
 40
0.1502702042863175
  0
CIRCLE
  8
_1-1_
  6
CONTINUOUS
 62
    7
 10
125.96368325723185
 20
141.45048399229307
 40
0.1502702042863175
  0
CIRCLE
  8
_1-1_
  6
CONTINUOUS
 62
    7
 10
129.57006918417443
 20
142.35208047402872
 40
0.1502702042863175
  0
CIRCLE
  8
_1-1_
  6
CONTINUOUS
 62
    7
 10
128.81874290672508
 20
140.24834710198479
 40
0.1502702042863175
  0
CIRCLE
  8
_1-1_
  6
CONTINUOUS
 62
    7
 10
131.67379018422722
 20
140.99968575142526
 40
0.1502702042863175
  0
CIRCLE
  8
_1-1_
  6
CONTINUOUS
 62
    7
 10
133.47698314769849
 20
141.90128223316091
 40
0.1502702042863175
  0
CIRCLE
  8
_1-1_
  6
CONTINUOUS
 62
    7
 10
132.87592707453547
 20
143.55420499234586
 40
0.1502702042863175
  0
CIRCLE
  8
_1-1_
  6
CONTINUOUS
 62
    7
 10
133.62725335198479
 20
141.30022615999789
 40
0.1502702042863175
  0
CIRCLE
  8
_1-1_
  6
CONTINUOUS
 62
    7
 10
134.22832179713893
 20
139.94781906540331
 40
0.1502702042863175
  0
CIRCLE
  8
_1-1_
  6
CONTINUOUS
 62
    7
 10
136.93311124234586
 20
141.14995595571159
 40
0.1502702042863175
  0
CIRCLE
  8
_1-1_
  6
CONTINUOUS
 62
    7
 10
136.03151476061024
 20
142.05155243744721
 40
0.1502702042863175
  0
CIRCLE
  8
_1-1_
  6
CONTINUOUS
 62
    7
 10
133.62725335198479
 20
143.25367695576438
 40
0.1502702042863175
  0
CIRCLE
  8
_1-1_
  6
CONTINUOUS
 62
    7
 10
134.82937787030195
 20
143.70447519663219
 40
0.1502702042863175
  0
CIRCLE
  8
_1-1_
  6
CONTINUOUS
 62
    7
 10
139.9384287241343
 20
144.75634188265414
 40
0.1502702042863175
  0
CIRCLE
  8
_1-1_
  6
CONTINUOUS
 62
    7
 10
139.33736027898016
 20
142.65260851061024
 40
0.1502702042863175
  0
CIRCLE
  8
_1-1_
  6
CONTINUOUS
 62
    7
 10
137.23363927892737
 20
144.00501560520482
 40
0.1502702042863175
  0
CIRCLE
  8
_1-1_
  6
CONTINUOUS
 62
    7
 10
139.9384287241343
 20
144.00501560520482
 40
0.1502702042863175
  0
CIRCLE
  8
_1-1_
  6
CONTINUOUS
 62
    7
 10
139.03683224239865
 20
145.65793836438979
 40
0.1502702042863175
  0
CIRCLE
  8
_1-1_
  6
CONTINUOUS
 62
    7
 10
142.64321816934122
 20
146.55953484612544
 40
0.1502702042863175
  0
CIRCLE
  8
_1-1_
  6
CONTINUOUS
 62
    7
 10
141.8918918918919
 20
144.45580147408151
 40
0.1502702042863175
  0
CIRCLE
  8
_1-1_
  6
CONTINUOUS
 62
    7
 10
144.74693916939401
 20
145.20714012352198
 40
0.1502702042863175
  0
CIRCLE
  8
_1-1_
  6
CONTINUOUS
 62
    7
 10
146.55013213286529
 20
146.1087366052576
 40
0.1502702042863175
  0
CIRCLE
  8
_1-1_
  6
CONTINUOUS
 62
    7
 10
145.94907605970229
 20
147.76165936444258
 40
0.1502702042863175
  0
CIRCLE
  8
_1-1_
  6
CONTINUOUS
 62
    7
 10
147.75226902317357
 20
150.01565056878169
 40
0.1502702042863175
  0
CIRCLE
  8
_1-1_
  6
CONTINUOUS
 62
    7
 10
148.35333746832771
 20
148.66324347418708
 40
0.1502702042863175
  0
CIRCLE
  8
_1-1_
  6
CONTINUOUS
 62
    7
 10
151.05812691353464
 20
149.86538036449537
 40
0.1502702042863175
  0
CIRCLE
  8
_1-1_
  6
CONTINUOUS
 62
    7
 10
150.15653043179898
 20
150.76697684623102
 40
0.1502702042863175
  0
CIRCLE
  8
_1-1_
  6
CONTINUOUS
 62
    7
 10
147.75226902317357
 20
151.96910136454815
 40
0.1502702042863175
  0
CIRCLE
  8
_1-1_
  6
CONTINUOUS
 62
    7
 10
148.95439354149073
 20
152.41989960541596
 40
0.1502702042863175
  0
CIRCLE
  8
_1-1_
  6
CONTINUOUS
 62
    7
 10
154.06344439532307
 20
153.47176629143794
 40
0.1502702042863175
  0
CIRCLE
  8
_1-1_
  6
CONTINUOUS
 62
    7
 10
153.46237595016893
 20
151.36803291939401
 40
0.1502702042863175
  0
CIRCLE
  8
_1-1_
  6
CONTINUOUS
 62
    7
 10
151.35865495011615
 20
152.72044001398859
 40
0.1502702042863175
  0
CIRCLE
  8
_1-1_
  6
CONTINUOUS
 62
    7
 10
154.06344439532307
 20
152.72044001398859
 40
0.1502702042863175
  0
CIRCLE
  8
_1-1_
  6
CONTINUOUS
 62
    7
 10
153.16184791358742
 20
154.37336277317357
 40
0.1502702042863175
  0
CIRCLE
  8
_1-1_
  6
CONTINUOUS
 62
    7
 10
156.76823384053
 20
155.27495925490922
 40
0.1502702042863175
  0
CIRCLE
  8
_1-1_
  6
CONTINUOUS
 62
    7
 10
156.01690756308068
 20
153.17122588286529
 40
0.1502702042863175
  0
CIRCLE
  8
_1-1_
  6
CONTINUOUS
 62
    7
 10
158.87195484058279
 20
153.92256453230576
 40
0.1502702042863175
  0
CIRCLE
  8
_1-1_
  6
CONTINUOUS
 62
    7
 10
160.67514780405406
 20
154.82416101404138
 40
0.1502702042863175
  0
CIRCLE
  8
_1-1_
  6
CONTINUOUS
 62
    7
 10
160.07409173089107
 20
156.47708377322635
 40
0.1502702042863175
  0
CIRCLE
  8
_1-1_
  6
CONTINUOUS
 62
    7
 10
161.87728469436234
 20
155.27495925490922
 40
0.1502702042863175
  0
CIRCLE
  8
_1-1_
  6
CONTINUOUS
 62
    7
 10
162.47835313951649
 20
153.92255216031461
 40
0.1502702042863175
  0
CIRCLE
  8
_1-1_
  6
CONTINUOUS
 62
    7
 10
165.18314258472341
 20
155.12468905062289
 40
0.1502702042863175
  0
CIRCLE
  8
_1-1_
  6
CONTINUOUS
 62
    7
 10
164.28154610298776
 20
156.02628553235854
 40
0.1502702042863175
  0
CIRCLE
  8
_1-1_
  6
CONTINUOUS
 62
    7
 10
161.87728469436234
 20
157.22841005067568
 40
0.1502702042863175
  0
CIRCLE
  8
_1-1_
  6
CONTINUOUS
 62
    7
 10
163.07940921267948
 20
157.67920829154352
 40
0.1502702042863175
  0
CIRCLE
  8
_1-1_
  6
CONTINUOUS
 62
    7
 10
168.18846006651182
 20
158.73107497756547
 40
0.1502702042863175
  0
CIRCLE
  8
_1-1_
  6
CONTINUOUS
 62
    7
 10
167.58739162135768
 20
156.62734160552154
 40
0.1502702042863175
  0
CIRCLE
  8
_1-1_
  6
CONTINUOUS
 62
    7
 10
165.4836706213049
 20
157.97974870011615
 40
0.1502702042863175
  0
CIRCLE
  8
_1-1_
  6
CONTINUOUS
 62
    7
 10
168.18846006651182
 20
157.97974870011615
 40
0.1502702042863175
  0
CIRCLE
  8
_1-1_
  6
CONTINUOUS
 62
    7
 10
167.2868635847762
 20
159.63267145930109
 40
0.1502702042863175
  0
CIRCLE
  8
_1-1_
  6
CONTINUOUS
 62
    7
 10
170.89324951171875
 20
160.53426794103675
 40
0.1502702042863175
  0
CIRCLE
  8
_1-1_
  6
CONTINUOUS
 62
    7
 10
170.14192323426943
 20
158.43053456899284
 40
0.1502702042863175
  0
CIRCLE
  8
_1-1_
  6
CONTINUOUS
 62
    7
 10
172.99697051177154
 20
159.18187321843328
 40
0.1502702042863175
  0
CIRCLE
  8
_1-1_
  6
CONTINUOUS
 62
    7
 10
174.80016347524284
 20
160.08346970016893
 40
0.1502702042863175
  0
CIRCLE
  8
_1-1_
  6
CONTINUOUS
 62
    7
 10
174.19910740207982
 20
161.73639245935391
 40
0.1502702042863175
  0
CIRCLE
  8
_1-1_
  6
CONTINUOUS
 62
    7
 10
171.34404775258659
 20
161.5861346270587
 40
0.1502702042863175
  0
CIRCLE
  8
_1-1_
  6
CONTINUOUS
 62
    7
 10
171.94511619774073
 20
160.23372753246412
 40
0.1502702042863175
  0
CIRCLE
  8
_1-1_
  6
CONTINUOUS
 62
    7
 10
174.64990564294766
 20
161.4358644227724
 40
0.1502702042863175
  0
CIRCLE
  8
_1-1_
  6
CONTINUOUS
 62
    7
 10
173.74830916121201
 20
162.33746090450802
 40
0.1502702042863175
  0
CIRCLE
  8
_1-1_
  6
CONTINUOUS
 62
    7
 10
177.65522312473607
 20
165.04225034971495
 40
0.1502702042863175
  0
CIRCLE
  8
_1-1_
  6
CONTINUOUS
 62
    7
 10
177.05415467958193
 20
162.93851697767104
 40
0.1502702042863175
  0
CIRCLE
  8
_1-1_
  6
CONTINUOUS
 62
    7
 10
174.95043367952914
 20
164.29092407226562
 40
0.1502702042863175
  0
CIRCLE
  8
_1-1_
  6
CONTINUOUS
 62
    7
 10
177.65522312473607
 20
164.29092407226562
 40
0.1502702042863175
  0
CIRCLE
  8
_1-1_
  6
CONTINUOUS
 62
    7
 10
180.360012569943
 20
166.84544331318625
 40
0.1502702042863175
  0
CIRCLE
  8
_1-1_
  6
CONTINUOUS
 62
    7
 10
179.60868629249367
 20
164.74170994114232
 40
0.1502702042863175
  0
CIRCLE
  8
_1-1_
  6
CONTINUOUS
 62
    7
 10
182.46373356999578
 20
165.49304859058279
 40
0.1502702042863175
  0
CIRCLE
  8
_1-1_
  6
CONTINUOUS
 62
    7
 10
184.26692653346706
 20
166.39464507231841
 40
0.1502702042863175
  0
CIRCLE
  8
_1-1_
  6
CONTINUOUS
 62
    7
 10
186.36126956424198
 20
161.04140822951859
 40
0.1502702042863175
  0
CIRCLE
  8
_1-1_
  6
CONTINUOUS
 62
    7
 10
188.46499056429477
 20
159.68901350691513
 40
0.1502702042863175
  0
CIRCLE
  8
_1-1_
  6
CONTINUOUS
 62
    7
 10
186.81206780510982
 20
162.09327491554055
 40
0.1502702042863175
  0
CIRCLE
  8
_1-1_
  6
CONTINUOUS
 62
    7
 10
187.41313625026396
 20
160.74086782094597
 40
0.1502702042863175
  0
CIRCLE
  8
_1-1_
  6
CONTINUOUS
 62
    7
 10
191.30595851588896
 20
159.51996262009081
 40
0.1502702042863175
  0
CIRCLE
  8
_1-1_
  6
CONTINUOUS
 62
    7
 10
193.40967951594175
 20
158.16756789748734
 40
0.1502702042863175
  0
CIRCLE
  8
_1-1_
  6
CONTINUOUS
 62
    7
 10
191.75675675675677
 20
160.57182930611276
 40
0.1502702042863175
  0
CIRCLE
  8
_1-1_
  6
CONTINUOUS
 62
    7
 10
192.35782520191091
 20
159.21942221151818
 40
0.1502702042863175
  0
CIRCLE
  8
_1-1_
  6
CONTINUOUS
 62
    7
 10
186.74163405959672
 20
162.94321833430109
 40
0.1502702042863175
  0
CIRCLE
  8
_1-1_
  6
CONTINUOUS
 62
    7
 10
188.84535505964951
 20
161.59082361169766
 40
0.1502702042863175
  0
CIRCLE
  8
_1-1_
  6
CONTINUOUS
 62
    7
 10
187.19243230046453
 20
163.99508502032307
 40
0.1502702042863175
  0
CIRCLE
  8
_1-1_
  6
CONTINUOUS
 62
    7
 10
187.79350074561867
 20
162.64267792572846
 40
0.1502702042863175
  0
CIRCLE
  8
_1-1_
  6
CONTINUOUS
 62
    7
 10
187.75592700855154
 20
163.32357045766472
 40
0.1502702042863175
  0
CIRCLE
  8
_1-1_
  6
CONTINUOUS
 62
    7
 10
189.85964800860432
 20
161.97117573506125
 40
0.1502702042863175
  0
CIRCLE
  8
_1-1_
  6
CONTINUOUS
 62
    7
 10
188.20672524941935
 20
164.37543714368667
 40
0.1502702042863175
  0
CIRCLE
  8
_1-1_
  6
CONTINUOUS
 62
    7
 10
188.80779369457349
 20
163.02303004909206
 40
0.1502702042863175
  0
CIRCLE
  8
_1-1_
  6
CONTINUOUS
 62
    7
 10
190.67203006228885
 20
161.04140822951859
 40
0.1502702042863175
  0
CIRCLE
  8
_1-1_
  6
CONTINUOUS
 62
    7
 10
192.77575106234164
 20
159.68901350691513
 40
0.1502702042863175
  0
CIRCLE
  8
_1-1_
  6
CONTINUOUS
 62
    7
 10
191.12282830315669
 20
162.09327491554055
 40
0.1502702042863175
  0
CIRCLE
  8
_1-1_
  6
CONTINUOUS
 62
    7
 10
191.72389674831084
 20
160.74086782094597
 40
0.1502702042863175
  0
CIRCLE
  8
_1-1_
  6
CONTINUOUS
 62
    7
 10
193.96848523938979
 20
159.13959812473607
 40
0.1502702042863175
  0
CIRCLE
  8
_1-1_
  6
CONTINUOUS
 62
    7
 10
196.07220623944258
 20
157.7872034021326
 40
0.1502702042863175
  0
CIRCLE
  8
_1-1_
  6
CONTINUOUS
 62
    7
 10
194.4192834802576
 20
160.19146481075802
 40
0.1502702042863175
  0
CIRCLE
  8
_1-1_
  6
CONTINUOUS
 62
    7
 10
195.02035192541175
 20
158.83905771616344
 40
0.1502702042863175
  0
CIRCLE
  8
_1-1_
  6
CONTINUOUS
 62
    7
 10
197.77210544895482
 20
156.09671927787164
 40
0.1502702042863175
  0
CIRCLE
  8
_1-1_
  6
CONTINUOUS
 62
    7
 10
199.8758264490076
 20
154.74432455526818
 40
0.1502702042863175
  0
CIRCLE
  8
_1-1_
  6
CONTINUOUS
 62
    7
 10
198.22290368982266
 20
157.14858596389359
 40
0.1502702042863175
  0
CIRCLE
  8
_1-1_
  6
CONTINUOUS
 62
    7
 10
198.82397213497677
 20
155.79617886929898
 40
0.1502702042863175
  0
CIRCLE
  8
_1-1_
  6
CONTINUOUS
 62
    7
 10
199.29353868639149
 20
154.82884999868034
 40
0.1502702042863175
  0
CIRCLE
  8
_1-1_
  6
CONTINUOUS
 62
    7
 10
201.39725968644427
 20
153.47645527607688
 40
0.1502702042863175
  0
CIRCLE
  8
_1-1_
  6
CONTINUOUS
 62
    7
 10
199.7443369272593
 20
155.88071668470229
 40
0.1502702042863175
  0
CIRCLE
  8
_1-1_
  6
CONTINUOUS
 62
    7
 10
200.34540537241344
 20
154.52830959010768
 40
0.1502702042863175
  0
CIRCLE
  8
_1-1_
  6
CONTINUOUS
 62
    7
 10
199.03997472814612
 20
156.9842240617082
 40
0.1502702042863175
  0
CIRCLE
  8
_1-1_
  6
CONTINUOUS
 62
    7
 10
201.14369572819891
 20
155.63182933910474
 40
0.1502702042863175
  0
CIRCLE
  8
_1-1_
  6
CONTINUOUS
 62
    7
 10
199.49077296901396
 20
158.03609074773016
 40
0.1502702042863175
  0
CIRCLE
  8
_1-1_
  6
CONTINUOUS
 62
    7
 10
200.09184141416807
 20
156.68368365313557
 40
0.1502702042863175
  0
CIRCLE
  8
_1-1_
  6
CONTINUOUS
 62
    7
 10
199.80069134686445
 20
156.9842240617082
 40
0.1502702042863175
  0
CIRCLE
  8
_1-1_
  6
CONTINUOUS
 62
    7
 10
201.90441234691724
 20
155.63182933910474
 40
0.1502702042863175
  0
CIRCLE
  8
_1-1_
  6
CONTINUOUS
 62
    7
 10
200.25148958773227
 20
158.03609074773016
 40
0.1502702042863175
  0
CIRCLE
  8
_1-1_
  6
CONTINUOUS
 62
    7
 10
200.85255803288641
 20
156.68368365313557
 40
0.1502702042863175
  0
CIRCLE
  8
_1-1_
  6
CONTINUOUS
 62
    7
 10
203.47752339131125
 20
154.4484855033256
 40
0.1502702042863175
  0
CIRCLE
  8
_1-1_
  6
CONTINUOUS
 62
    7
 10
205.58124439136404
 20
153.09609078072214
 40
0.1502702042863175
  0
CIRCLE
  8
_1-1_
  6
CONTINUOUS
 62
    7
 10
203.92832163217906
 20
155.50035218934755
 40
0.1502702042863175
  0
CIRCLE
  8
_1-1_
  6
CONTINUOUS
 62
    7
 10
204.5293900773332
 20
154.14794509475297
 40
0.1502702042863175
  0
CIRCLE
  8
_1-1_
  6
CONTINUOUS
 62
    7
 10
203.85787551467484
 20
153.1806162241343
 40
0.1502702042863175
  0
CIRCLE
  8
_1-1_
  6
CONTINUOUS
 62
    7
 10
205.96159651472763
 20
151.82822150153083
 40
0.1502702042863175
  0
CIRCLE
  8
_1-1_
  6
CONTINUOUS
 62
    7
 10
204.30867375554266
 20
154.23248291015625
 40
0.1502702042863175
  0
CIRCLE
  8
_1-1_
  6
CONTINUOUS
 62
    7
 10
204.9097422006968
 20
152.88007581556167
 40
0.1502702042863175
  0
CIRCLE
  8
_1-1_
  6
CONTINUOUS
 62
    7
 10
206.9007543615393
 20
151.912746944943
 40
0.1502702042863175
  0
CIRCLE
  8
_1-1_
  6
CONTINUOUS
 62
    7
 10
209.00447536159209
 20
150.56035222233953
 40
0.1502702042863175
  0
CIRCLE
  8
_1-1_
  6
CONTINUOUS
 62
    7
 10
207.35155260240711
 20
152.96461363096495
 40
0.1502702042863175
  0
CIRCLE
  8
_1-1_
  6
CONTINUOUS
 62
    7
 10
207.95263341955237
 20
151.61220653637037
 40
0.1502702042863175
  0
CIRCLE
  8
_1-1_
  6
CONTINUOUS
 62
    7
 10
209.8168450432855
 20
152.16632327517948
 40
0.1502702042863175
  0
CIRCLE
  8
_1-1_
  6
CONTINUOUS
 62
    7
 10
211.9205784153294
 20
150.81392855257602
 40
0.1502702042863175
  0
CIRCLE
  8
_1-1_
  6
CONTINUOUS
 62
    7
 10
210.26765565614443
 20
153.21818996120143
 40
0.1502702042863175
  0
CIRCLE
  8
_1-1_
  6
CONTINUOUS
 62
    7
 10
210.86871172930745
 20
151.86578286660685
 40
0.1502702042863175
  0
CIRCLE
  8
_1-1_
  6
CONTINUOUS
 62
    7
 10
212.22582018053211
 20
151.53238244958825
 40
0.1502702042863175
  0
CIRCLE
  8
_1-1_
  6
CONTINUOUS
 62
    7
 10
214.32952880859375
 20
150.17998772698482
 40
0.1502702042863175
  0
CIRCLE
  8
_1-1_
  6
CONTINUOUS
 62
    7
 10
212.6766060494088
 20
152.58424913561024
 40
0.1502702042863175
  0
CIRCLE
  8
_1-1_
  6
CONTINUOUS
 62
    7
 10
213.27768686655406
 20
151.23184204101562
 40
0.1502702042863175
  0
CIRCLE
  8
_1-1_
  6
CONTINUOUS
 62
    7
 10
215.90262748099664
 20
147.98233857025971
 40
0.1502702042863175
  0
CIRCLE
  8
_1-1_
  6
CONTINUOUS
 62
    7
 10
218.00636085304055
 20
146.62994384765625
 40
0.1502702042863175
  0
CIRCLE
  8
_1-1_
  6
CONTINUOUS
 62
    7
 10
216.35343809385557
 20
149.03420525628169
 40
0.1502702042863175
  0
CIRCLE
  8
_1-1_
  6
CONTINUOUS
 62
    7
 10
216.95449416701859
 20
147.68179816168708
 40
0.1502702042863175
  0
CIRCLE
  8
_1-1_
  6
CONTINUOUS
 62
    7
 10
216.91693280194258
 20
147.34841011665964
 40
0.1502702042863175
  0
CIRCLE
  8
_1-1_
  6
CONTINUOUS
 62
    7
 10
219.02066617398651
 20
145.99601539405617
 40
0.1502702042863175
  0
CIRCLE
  8
_1-1_
  6
CONTINUOUS
 62
    7
 10
217.36774341480154
 20
148.40027680268159
 40
0.1502702042863175
  0
CIRCLE
  8
_1-1_
  6
CONTINUOUS
 62
    7
 10
217.96879948796453
 20
147.04786970808701
 40
0.1502702042863175
  0
CIRCLE
  8
_1-1_
  6
CONTINUOUS
 62
    7
 10
212.85976100612334
 20
147.8555627771326
 40
0.1502702042863175
  0
CIRCLE
  8
_1-1_
  6
CONTINUOUS
 62
    7
 10
214.96346963418497
 20
146.50316805452914
 40
0.1502702042863175
  0
CIRCLE
  8
_1-1_
  6
CONTINUOUS
 62
    7
 10
213.310546875
 20
148.90742946315456
 40
0.1502702042863175
  0
CIRCLE
  8
_1-1_
  6
CONTINUOUS
 62
    7
 10
213.91162769214529
 20
147.55502236855997
 40
0.1502702042863175
  0
CIRCLE
  8
_1-1_
  6
CONTINUOUS
 62
    7
 10
206.52041461016682
 20
153.81454467773437
 40
0.1502702042863175
  0
CIRCLE
  8
_1-1_
  6
CONTINUOUS
 62
    7
 10
208.62413561021961
 20
152.46214995513091
 40
0.1502702042863175
  0
CIRCLE
  8
_1-1_
  6
CONTINUOUS
 62
    7
 10
206.97121285103464
 20
154.86641136375636
 40
0.1502702042863175
  0
CIRCLE
  8
_1-1_
  6
CONTINUOUS
 62
    7
 10
207.57226892419766
 20
153.51400426916175
 40
0.1502702042863175
  0
CIRCLE
  8
_1-1_
  6
CONTINUOUS
 62
    7
 10
220.66891232052367
 20
148.15140182907518
 40
0.1502702042863175
  0
CIRCLE
  8
_1-1_
  6
CONTINUOUS
 62
    7
 10
224.47250778610643
 20
145.86922722893794
 40
0.1502702042863175
  0
CIRCLE
  8
_1-1_
  6
CONTINUOUS
 62
    7
 10
221.93679397170609
 20
144.85493427998313
 40
0.1502702042863175
  0
CIRCLE
  8
_1-1_
  6
CONTINUOUS
 62
    7
 10
220.03497149493245
 20
146.37637988941091
 40
0.1502702042863175
  0
CIRCLE
  8
_1-1_
  6
CONTINUOUS
 62
    7
 10
217.75280926678633
 20
149.41927110826649
 40
0.1502702042863175
  0
CIRCLE
  8
_1-1_
  6
CONTINUOUS
 62
    7
 10
222.57071005331505
 20
147.13710888012037
 40
0.1502702042863175
  0
CIRCLE
  8
_1-1_
  6
CONTINUOUS
 62
    7
 10
224.9796604465794
 20
144.72814611486487
 40
0.1502702042863175
  0
CIRCLE
  8
_1-1_
  6
CONTINUOUS
 62
    7
 10
226.24754209776182
 20
143.46027683567357
 40
0.1502702042863175
  0
CIRCLE
  8
_1-1_
  6
CONTINUOUS
 62
    7
 10
217.37244477143159
 20
149.67284743850297
 40
0.1502702042863175
  0
CIRCLE
  8
_1-1_
  6
CONTINUOUS
 62
    7
 10
211.4134504988387
 20
149.03890661291175
 40
0.1502702042863175
  0
CIRCLE
  8
_1-1_
  6
CONTINUOUS
 62
    7
 10
211.03308600348396
 20
153.6032434411951
 40
0.1502702042863175
  0
CIRCLE
  8
_1-1_
  6
CONTINUOUS
 62
    7
 10
203.93302298880914
 20
155.63182933910474
 40
0.1502702042863175
  0
CIRCLE
  8
_1-1_
  6
CONTINUOUS
 62
    7
 10
196.45259547877959
 20
160.06937800226984
 40
0.1502702042863175
  0
CIRCLE
  8
_1-1_
  6
CONTINUOUS
 62
    7
 10
196.32580731366133
 20
156.64612228805956
 40
0.1502702042863175
  0
CIRCLE
  8
_1-1_
  6
CONTINUOUS
 62
    7
 10
227.20862311285896
 20
142.35205573004646
 40
0.1502702042863175
  0
CIRCLE
  8
_1-1_
  6
CONTINUOUS
 62
    7
 10
227.77837804845862
 20
146.19792628932643
 40
0.1502702042863175
  0
CIRCLE
  8
_1-1_
  6
CONTINUOUS
 62
    7
 10
225.35690720016893
 20
147.19500979861698
 40
0.1502702042863175
  0
CIRCLE
  8
_1-1_
  6
CONTINUOUS
 62
    7
 10
230.769603832348
 20
143.34913923933701
 40
0.1502702042863175
  0
CIRCLE
  8
_1-1_
  6
CONTINUOUS
 62
    7
 10
233.04864831872891
 20
142.20961699614654
 40
0.1502702042863175
  0
CIRCLE
  8
_1-1_
  6
CONTINUOUS
 62
    7
 10
229.20276538745779
 20
143.63401670713682
 40
0.1502702042863175
  0
CIRCLE
  8
_1-1_
  6
CONTINUOUS
 62
    7
 10
232.90619721283784
 20
140.64277855125636
 40
0.1502702042863175
  0
CIRCLE
  8
_1-1_
  6
CONTINUOUS
 62
    7
 10
236.46720267630914
 20
139.78814614785685
 40
0.1502702042863175
  0
CIRCLE
  8
_1-1_
  6
CONTINUOUS
 62
    7
 10
237.32183507970862
 20
141.35498459274706
 40
0.1502702042863175
  0
CIRCLE
  8
_1-1_
  6
CONTINUOUS
 62
    7
 10
240.02818339579815
 20
138.93350137246622
 40
0.1502702042863175
  0
CIRCLE
  8
_1-1_
  6
CONTINUOUS
 62
    7
 10
237.89159001530828
 20
137.65155276736698
 40
0.1502702042863175
  0
CIRCLE
  8
_1-1_
  6
CONTINUOUS
 62
    7
 10
235.04279059332771
 20
140.78521728515625
 40
0.1502702042863175
  0
CIRCLE
  8
_1-1_
  6
CONTINUOUS
 62
    7
 10
234.18815818992823
 20
139.07594010636615
 40
0.1502702042863175
  0
CIRCLE
  8
_1-1_
  6
CONTINUOUS
 62
    7
 10
241.59502184068836
 20
138.22130770296664
 40
0.1502702042863175
  0
CIRCLE
  8
_1-1_
  6
CONTINUOUS
 62
    7
 10
240.17063450168919
 20
140.35790108345651
 40
0.1502702042863175
  0
CIRCLE
  8
_1-1_
  6
CONTINUOUS
 62
    7
 10
237.89159001530828
 20
139.21837884026604
 40
0.1502702042863175
  0
CIRCLE
  8
_1-1_
  6
CONTINUOUS
 62
    7
 10
243.16186028557857
 20
136.36959179027662
 40
0.1502702042863175
  0
CIRCLE
  8
_1-1_
  6
CONTINUOUS
 62
    7
 10
245.01357619826859
 20
135.65738574878591
 40
0.1502702042863175
  0
CIRCLE
  8
_1-1_
  6
CONTINUOUS
 62
    7
 10
244.87114983635982
 20
137.50910166147594
 40
0.1502702042863175
  0
CIRCLE
  8
_1-1_
  6
CONTINUOUS
 62
    7
 10
242.44965424408784
 20
138.93350137246622
 40
0.1502702042863175
  0
CIRCLE
  8
_1-1_
  6
CONTINUOUS
 62
    7
 10
240.74038943728885
 20
136.65446925807643
 40
0.1502702042863175
  0
CIRCLE
  8
_1-1_
  6
CONTINUOUS
 62
    7
 10
239.88575703388938
 20
136.65446925807643
 40
0.1502702042863175
  0
CIRCLE
  8
_1-1_
  6
CONTINUOUS
 62
    7
 10
246.09983701963685
 20
134.16568240603885
 40
0.1502702042863175
  0
CIRCLE
  8
_1-1_
  6
CONTINUOUS
 62
    7
 10
248.20357039168076
 20
132.81328768343539
 40
0.1502702042863175
  0
CIRCLE
  8
_1-1_
  6
CONTINUOUS
 62
    7
 10
246.55064763249578
 20
135.21754909206081
 40
0.1502702042863175
  0
CIRCLE
  8
_1-1_
  6
CONTINUOUS
 62
    7
 10
247.1517037056588
 20
133.86514199746622
 40
0.1502702042863175
  0
CIRCLE
  8
_1-1_
  6
CONTINUOUS
 62
    7
 10
247.11414234058279
 20
133.53175395243878
 40
0.1502702042863175
  0
CIRCLE
  8
_1-1_
  6
CONTINUOUS
 62
    7
 10
249.21787571262669
 20
132.17935922983531
 40
0.1502702042863175
  0
CIRCLE
  8
_1-1_
  6
CONTINUOUS
 62
    7
 10
247.56495295344175
 20
134.58362063846073
 40
0.1502702042863175
  0
CIRCLE
  8
_1-1_
  6
CONTINUOUS
 62
    7
 10
248.16600902660474
 20
133.23121354386615
 40
0.1502702042863175
  0
CIRCLE
  8
_1-1_
  6
CONTINUOUS
 62
    7
 10
250.86612185916385
 20
134.33474566485432
 40
0.1502702042863175
  0
CIRCLE
  8
_1-1_
  6
CONTINUOUS
 62
    7
 10
254.66971732474664
 20
132.05257106471706
 40
0.1502702042863175
  0
CIRCLE
  8
_1-1_
  6
CONTINUOUS
 62
    7
 10
252.1340035103463
 20
131.03827811576227
 40
0.1502702042863175
  0
CIRCLE
  8
_1-1_
  6
CONTINUOUS
 62
    7
 10
250.23218103357266
 20
132.55972372519005
 40
0.1502702042863175
  0
CIRCLE
  8
_1-1_
  6
CONTINUOUS
 62
    7
 10
247.95001880542654
 20
135.60261494404563
 40
0.1502702042863175
  0
CIRCLE
  8
_1-1_
  6
CONTINUOUS
 62
    7
 10
252.76791959195526
 20
133.32045271589951
 40
0.1502702042863175
  0
CIRCLE
  8
_1-1_
  6
CONTINUOUS
 62
    7
 10
255.17686998521961
 20
130.91148995064401
 40
0.1502702042863175
  0
CIRCLE
  8
_1-1_
  6
CONTINUOUS
 62
    7
 10
256.44475163640203
 20
129.64362067145271
 40
0.1502702042863175
  0
CIRCLE
  8
_1-1_
  6
CONTINUOUS
 62
    7
 10
247.5696543100718
 20
135.85619127428211
 40
0.1502702042863175
  0
CIRCLE
  8
_1-1_
  6
CONTINUOUS
 62
    7
 10
255.55411673880914
 20
133.37835363439612
 40
0.1502702042863175
  0
CIRCLE
  8
_1-1_
  6
CONTINUOUS
 62
    7
 10
257.35258360166807
 20
128.46808356207771
 40
0.1502702042863175
  0
CIRCLE
  8
_1-1_
  6
CONTINUOUS
 62
    7
 10
259.45631697371203
 20
127.11568883947425
 40
0.1502702042863175
  0
CIRCLE
  8
_1-1_
  6
CONTINUOUS
 62
    7
 10
257.80339421452703
 20
129.51995024809966
 40
0.1502702042863175
  0
CIRCLE
  8
_1-1_
  6
CONTINUOUS
 62
    7
 10
258.40445028769005
 20
128.16754315350508
 40
0.1502702042863175
  0
CIRCLE
  8
_1-1_
  6
CONTINUOUS
 62
    7
 10
258.36688892261401
 20
127.83415510847763
 40
0.1502702042863175
  0
CIRCLE
  8
_1-1_
  6
CONTINUOUS
 62
    7
 10
260.47062229465797
 20
126.48176038587417
 40
0.1502702042863175
  0
CIRCLE
  8
_1-1_
  6
CONTINUOUS
 62
    7
 10
258.81769953547297
 20
128.88602179449958
 40
0.1502702042863175
  0
CIRCLE
  8
_1-1_
  6
CONTINUOUS
 62
    7
 10
259.41875560863599
 20
127.53361469990499
 40
0.1502702042863175
  0
CIRCLE
  8
_1-1_
  6
CONTINUOUS
 62
    7
 10
262.1188684411951
 20
128.63714682089318
 40
0.1502702042863175
  0
CIRCLE
  8
_1-1_
  6
CONTINUOUS
 62
    7
 10
265.92246390677786
 20
126.35497222075593
 40
0.1502702042863175
  0
CIRCLE
  8
_1-1_
  6
CONTINUOUS
 62
    7
 10
263.38675009237755
 20
125.34067927180111
 40
0.1502702042863175
  0
CIRCLE
  8
_1-1_
  6
CONTINUOUS
 62
    7
 10
261.48492761560391
 20
126.86212488122889
 40
0.1502702042863175
  0
CIRCLE
  8
_1-1_
  6
CONTINUOUS
 62
    7
 10
259.20276538745776
 20
129.90501610008445
 40
0.1502702042863175
  0
CIRCLE
  8
_1-1_
  6
CONTINUOUS
 62
    7
 10
264.02066617398651
 20
127.62285387193835
 40
0.1502702042863175
  0
CIRCLE
  8
_1-1_
  6
CONTINUOUS
 62
    7
 10
266.42961656725083
 20
125.21389110668287
 40
0.1502702042863175
  0
CIRCLE
  8
_1-1_
  6
CONTINUOUS
 62
    7
 10
267.69749821843328
 20
123.94602182749156
 40
0.1502702042863175
  0
CIRCLE
  8
_1-1_
  6
CONTINUOUS
 62
    7
 10
258.82240089210308
 20
130.15859243032097
 40
0.1502702042863175
  0
CIRCLE
  8
_1-1_
  6
CONTINUOUS
 62
    7
 10
266.80686332084036
 20
127.68075479043497
 40
0.1502702042863175
  0
CIRCLE
  8
_1-1_
  6
CONTINUOUS
 62
    7
 10
275.08085508604307
 20
121.5104592813028
 40
0.1502702042863175
  0
CIRCLE
  8
_1-1_
  6
CONTINUOUS
 62
    7
 10
277.18458845808703
 20
120.15806455869934
 40
0.1502702042863175
  0
CIRCLE
  8
_1-1_
  6
CONTINUOUS
 62
    7
 10
275.53166569890203
 20
122.56232596732475
 40
0.1502702042863175
  0
CIRCLE
  8
_1-1_
  6
CONTINUOUS
 62
    7
 10
276.13272177206505
 20
121.20991887273016
 40
0.1502702042863175
  0
CIRCLE
  8
_1-1_
  6
CONTINUOUS
 62
    7
 10
276.09516040698901
 20
120.87653082770271
 40
0.1502702042863175
  0
CIRCLE
  8
_1-1_
  6
CONTINUOUS
 62
    7
 10
278.19889377903297
 20
119.52413610509925
 40
0.1502702042863175
  0
CIRCLE
  8
_1-1_
  6
CONTINUOUS
 62
    7
 10
276.54597101984797
 20
121.92839751372468
 40
0.1502702042863175
  0
CIRCLE
  8
_1-1_
  6
CONTINUOUS
 62
    7
 10
277.14702709301099
 20
120.57599041913008
 40
0.1502702042863175
  0
CIRCLE
  8
_1-1_
  6
CONTINUOUS
 62
    7
 10
279.8471399255701
 20
121.67952254011826
 40
0.1502702042863175
  0
CIRCLE
  8
_1-1_
  6
CONTINUOUS
 62
    7
 10
283.65073539115286
 20
119.397347939981
 40
0.1502702042863175
  0
CIRCLE
  8
_1-1_
  6
CONTINUOUS
 62
    7
 10
281.11502157675255
 20
118.38305499102619
 40
0.1502702042863175
  0
CIRCLE
  8
_1-1_
  6
CONTINUOUS
 62
    7
 10
279.21319909997891
 20
119.90450060045397
 40
0.1502702042863175
  0
CIRCLE
  8
_1-1_
  6
CONTINUOUS
 62
    7
 10
276.93103687183276
 20
122.94739181930954
 40
0.1502702042863175
  0
CIRCLE
  8
_1-1_
  6
CONTINUOUS
 62
    7
 10
281.74893765836151
 20
120.66522959116344
 40
0.1502702042863175
  0
CIRCLE
  8
_1-1_
  6
CONTINUOUS
 62
    7
 10
284.15788805162583
 20
118.25626682590794
 40
0.1502702042863175
  0
CIRCLE
  8
_1-1_
  6
CONTINUOUS
 62
    7
 10
285.42576970280828
 20
116.98839754671664
 40
0.1502702042863175
  0
CIRCLE
  8
_1-1_
  6
CONTINUOUS
 62
    7
 10
276.55067237647808
 20
123.20096814954604
 40
0.1502702042863175
  0
CIRCLE
  8
_1-1_
  6
CONTINUOUS
 62
    7
 10
284.53513480521536
 20
120.72313050966005
 40
0.1502702042863175
  0
CIRCLE
  8
_1-1_
  6
CONTINUOUS
 62
    7
 10
267.00563173036318
 20
126.69307399440457
 40
0.1502702042863175
  0
CIRCLE
  8
_1-1_
  6
CONTINUOUS
 62
    7
 10
269.10936510240708
 20
125.34067927180111
 40
0.1502702042863175
  0
CIRCLE
  8
_1-1_
  6
CONTINUOUS
 62
    7
 10
267.45644234322214
 20
127.74494068042652
 40
0.1502702042863175
  0
CIRCLE
  8
_1-1_
  6
CONTINUOUS
 62
    7
 10
268.05749841638516
 20
126.39253358583193
 40
0.1502702042863175
  0
CIRCLE
  8
_1-1_
  6
CONTINUOUS
 62
    7
 10
268.01993705130911
 20
126.05914554080448
 40
0.1502702042863175
  0
CIRCLE
  8
_1-1_
  6
CONTINUOUS
 62
    7
 10
270.12367042335308
 20
124.70675081820102
 40
0.1502702042863175
  0
CIRCLE
  8
_1-1_
  6
CONTINUOUS
 62
    7
 10
268.47074766416807
 20
127.11101222682645
 40
0.1502702042863175
  0
CIRCLE
  8
_1-1_
  6
CONTINUOUS
 62
    7
 10
269.07180373733109
 20
125.75860513223185
 40
0.1502702042863175
  0
CIRCLE
  8
_1-1_
  6
CONTINUOUS
 62
    7
 10
271.77191656989021
 20
126.86213725322003
 40
0.1502702042863175
  0
CIRCLE
  8
_1-1_
  6
CONTINUOUS
 62
    7
 10
275.57551203547297
 20
124.57996265308277
 40
0.1502702042863175
  0
CIRCLE
  8
_1-1_
  6
CONTINUOUS
 62
    7
 10
273.03979822107266
 20
123.56566970412797
 40
0.1502702042863175
  0
CIRCLE
  8
_1-1_
  6
CONTINUOUS
 62
    7
 10
271.13797574429901
 20
125.08711531355576
 40
0.1502702042863175
  0
CIRCLE
  8
_1-1_
  6
CONTINUOUS
 62
    7
 10
268.85581351615286
 20
128.13000653241133
 40
0.1502702042863175
  0
CIRCLE
  8
_1-1_
  6
CONTINUOUS
 62
    7
 10
273.67371430268162
 20
125.84784430426521
 40
0.1502702042863175
  0
CIRCLE
  8
_1-1_
  6
CONTINUOUS
 62
    7
 10
276.08266469594594
 20
123.43888153900971
 40
0.1502702042863175
  0
CIRCLE
  8
_1-1_
  6
CONTINUOUS
 62
    7
 10
277.35054634712839
 20
122.17101225981843
 40
0.1502702042863175
  0
CIRCLE
  8
_1-1_
  6
CONTINUOUS
 62
    7
 10
268.47544902079818
 20
128.38358286264781
 40
0.1502702042863175
  0
CIRCLE
  8
_1-1_
  6
CONTINUOUS
 62
    7
 10
276.45991144953547
 20
125.90574522276184
 40
0.1502702042863175
  0
CIRCLE
  8
_1-1_
  6
CONTINUOUS
 62
    7
 10
285.0845006994299
 20
116.44837250580659
 40
0.1502702042863175
  0
CIRCLE
  8
_1-1_
  6
CONTINUOUS
 62
    7
 10
287.18823407147386
 20
115.09597778320312
 40
0.1502702042863175
  0
CIRCLE
  8
_1-1_
  6
CONTINUOUS
 62
    7
 10
285.53531131228885
 20
117.50023919182856
 40
0.1502702042863175
  0
CIRCLE
  8
_1-1_
  6
CONTINUOUS
 62
    7
 10
286.13636738545188
 20
116.14783209723396
 40
0.1502702042863175
  0
CIRCLE
  8
_1-1_
  6
CONTINUOUS
 62
    7
 10
286.09880602037583
 20
115.81444405220651
 40
0.1502702042863175
  0
CIRCLE
  8
_1-1_
  6
CONTINUOUS
 62
    7
 10
288.20253939241979
 20
114.46204932960305
 40
0.1502702042863175
  0
CIRCLE
  8
_1-1_
  6
CONTINUOUS
 62
    7
 10
286.54961663323479
 20
116.86631073822846
 40
0.1502702042863175
  0
CIRCLE
  8
_1-1_
  6
CONTINUOUS
 62
    7
 10
287.15067270639781
 20
115.51390364363388
 40
0.1502702042863175
  0
CIRCLE
  8
_1-1_
  6
CONTINUOUS
 62
    7
 10
289.85078553895693
 20
116.61743576462204
 40
0.1502702042863175
  0
CIRCLE
  8
_1-1_
  6
CONTINUOUS
 62
    7
 10
293.65438100453969
 20
114.33526116448481
 40
0.1502702042863175
  0
CIRCLE
  8
_1-1_
  6
CONTINUOUS
 62
    7
 10
291.11866719013938
 20
113.32096821552999
 40
0.1502702042863175
  0
CIRCLE
  8
_1-1_
  6
CONTINUOUS
 62
    7
 10
289.21684471336573
 20
114.84241382495777
 40
0.1502702042863175
  0
CIRCLE
  8
_1-1_
  6
CONTINUOUS
 62
    7
 10
286.93468248521958
 20
117.88530504381335
 40
0.1502702042863175
  0
CIRCLE
  8
_1-1_
  6
CONTINUOUS
 62
    7
 10
291.75258327174834
 20
115.60314281566724
 40
0.1502702042863175
  0
CIRCLE
  8
_1-1_
  6
CONTINUOUS
 62
    7
 10
294.16153366501271
 20
113.19418005041175
 40
0.1502702042863175
  0
CIRCLE
  8
_1-1_
  6
CONTINUOUS
 62
    7
 10
295.4294153161951
 20
111.92631077122044
 40
0.1502702042863175
  0
CIRCLE
  8
_1-1_
  6
CONTINUOUS
 62
    7
 10
286.5543179898649
 20
118.13888137404983
 40
0.1502702042863175
  0
CIRCLE
  8
_1-1_
  6
CONTINUOUS
 62
    7
 10
294.53878041860219
 20
115.66104373416385
 40
0.1502702042863175
  0
CIRCLE
  8
_1-1_
  6
CONTINUOUS
 62
    7
 10
294.72658724398229
 20
112.59154036238388
 40
0.1502702042863175
  0
CIRCLE
  8
_1-1_
  6
CONTINUOUS
 62
    7
 10
296.8303206160262
 20
111.23914563978042
 40
0.1502702042863175
  0
CIRCLE
  8
_1-1_
  6
CONTINUOUS
 62
    7
 10
295.17739785684125
 20
113.64340704840583
 40
0.1502702042863175
  0
CIRCLE
  8
_1-1_
  6
CONTINUOUS
 62
    7
 10
295.77845393000422
 20
112.29099995381124
 40
0.1502702042863175
  0
CIRCLE
  8
_1-1_
  6
CONTINUOUS
 62
    7
 10
295.74089256492823
 20
111.95761190878379
 40
0.1502702042863175
  0
CIRCLE
  8
_1-1_
  6
CONTINUOUS
 62
    7
 10
297.84462593697214
 20
110.60521718618033
 40
0.1502702042863175
  0
CIRCLE
  8
_1-1_
  6
CONTINUOUS
 62
    7
 10
296.19170317778719
 20
113.00947859480576
 40
0.1502702042863175
  0
CIRCLE
  8
_1-1_
  6
CONTINUOUS
 62
    7
 10
296.79275925095021
 20
111.65707150021116
 40
0.1502702042863175
  0
CIRCLE
  8
_1-1_
  6
CONTINUOUS
 62
    7
 10
299.49287208350933
 20
112.76060362119934
 40
0.1502702042863175
  0
CIRCLE
  8
_1-1_
  6
CONTINUOUS
 62
    7
 10
303.29646754909209
 20
110.47842902106208
 40
0.1502702042863175
  0
CIRCLE
  8
_1-1_
  6
CONTINUOUS
 62
    7
 10
300.76075373469172
 20
109.46413607210727
 40
0.1502702042863175
  0
CIRCLE
  8
_1-1_
  6
CONTINUOUS
 62
    7
 10
298.85893125791807
 20
110.98558168153505
 40
0.1502702042863175
  0
CIRCLE
  8
_1-1_
  6
CONTINUOUS
 62
    7
 10
296.57676902977198
 20
114.02847290039062
 40
0.1502702042863175
  0
CIRCLE
  8
_1-1_
  6
CONTINUOUS
 62
    7
 10
301.39466981630068
 20
111.74631067224452
 40
0.1502702042863175
  0
CIRCLE
  8
_1-1_
  6
CONTINUOUS
 62
    7
 10
303.80362020956505
 20
109.33734790698902
 40
0.1502702042863175
  0
CIRCLE
  8
_1-1_
  6
CONTINUOUS
 62
    7
 10
305.0715018607475
 20
108.06947862779772
 40
0.1502702042863175
  0
CIRCLE
  8
_1-1_
  6
CONTINUOUS
 62
    7
 10
296.19640453441724
 20
114.28204923062712
 40
0.1502702042863175
  0
CIRCLE
  8
_1-1_
  6
CONTINUOUS
 62
    7
 10
304.18086696315459
 20
111.80421159074113
 40
0.1502702042863175
  0
CIRCLE
  8
_1-1_
  6
CONTINUOUS
 62
    7
 10
303.28392235008448
 20
108.37312440614443
 40
0.1502702042863175
  0
CIRCLE
  8
_1-1_
  6
CONTINUOUS
 62
    7
 10
305.38765572212839
 20
107.02072968354096
 40
0.1502702042863175
  0
CIRCLE
  8
_1-1_
  6
CONTINUOUS
 62
    7
 10
303.73473296294344
 20
109.42499109216639
 40
0.1502702042863175
  0
CIRCLE
  8
_1-1_
  6
CONTINUOUS
 62
    7
 10
304.33578903610646
 20
108.0725839975718
 40
0.1502702042863175
  0
CIRCLE
  8
_1-1_
  6
CONTINUOUS
 62
    7
 10
304.29822767103042
 20
107.73919595254435
 40
0.1502702042863175
  0
CIRCLE
  8
_1-1_
  6
CONTINUOUS
 62
    7
 10
306.40196104307432
 20
106.38680122994089
 40
0.1502702042863175
  0
CIRCLE
  8
_1-1_
  6
CONTINUOUS
 62
    7
 10
304.74903828388938
 20
108.7910626385663
 40
0.1502702042863175
  0
CIRCLE
  8
_1-1_
  6
CONTINUOUS
 62
    7
 10
305.3500943570524
 20
107.43865554397171
 40
0.1502702042863175
  0
CIRCLE
  8
_1-1_
  6
CONTINUOUS
 62
    7
 10
308.05020718961151
 20
108.54218766495988
 40
0.1502702042863175
  0
CIRCLE
  8
_1-1_
  6
CONTINUOUS
 62
    7
 10
311.85380265519427
 20
106.26001306482264
 40
0.1502702042863175
  0
CIRCLE
  8
_1-1_
  6
CONTINUOUS
 62
    7
 10
309.31808884079396
 20
105.24572011586783
 40
0.1502702042863175
  0
CIRCLE
  8
_1-1_
  6
CONTINUOUS
 62
    7
 10
307.41626636402026
 20
106.76716572529561
 40
0.1502702042863175
  0
CIRCLE
  8
_1-1_
  6
CONTINUOUS
 62
    7
 10
305.13410413587417
 20
109.81005694415119
 40
0.1502702042863175
  0
CIRCLE
  8
_1-1_
  6
CONTINUOUS
 62
    7
 10
309.95200492240286
 20
107.52789471600508
 40
0.1502702042863175
  0
CIRCLE
  8
_1-1_
  6
CONTINUOUS
 62
    7
 10
312.36095531566724
 20
105.11893195074958
 40
0.1502702042863175
  0
CIRCLE
  8
_1-1_
  6
CONTINUOUS
 62
    7
 10
313.62883696684969
 20
103.85106267155828
 40
0.1502702042863175
  0
CIRCLE
  8
_1-1_
  6
CONTINUOUS
 62
    7
 10
304.75373964051943
 20
110.06363327438767
 40
0.1502702042863175
  0
CIRCLE
  8
_1-1_
  6
CONTINUOUS
 62
    7
 10
312.73820206925677
 20
107.58579563450169
 40
0.1502702042863175
  0
CIRCLE
  8
_1-1_
  6
CONTINUOUS
 62
    7
 10
319.19336267419766
 20
101.86472712336361
 40
0.1502702042863175
  0
CIRCLE
  8
_1-1_
  6
CONTINUOUS
 62
    7
 10
321.29709604624156
 20
100.51233240076014
 40
0.1502702042863175
  0
CIRCLE
  8
_1-1_
  6
CONTINUOUS
 62
    7
 10
319.64417328705662
 20
102.91659380938556
 40
0.1502702042863175
  0
CIRCLE
  8
_1-1_
  6
CONTINUOUS
 62
    7
 10
320.24522936021964
 20
101.56418671479096
 40
0.1502702042863175
  0
CIRCLE
  8
_1-1_
  6
CONTINUOUS
 62
    7
 10
320.20766799514359
 20
101.23079866976352
 40
0.1502702042863175
  0
CIRCLE
  8
_1-1_
  6
CONTINUOUS
 62
    7
 10
322.3114013671875
 20
99.878403947160052
 40
0.1502702042863175
  0
CIRCLE
  8
_1-1_
  6
CONTINUOUS
 62
    7
 10
320.65847860800255
 20
102.28266535578548
 40
0.1502702042863175
  0
CIRCLE
  8
_1-1_
  6
CONTINUOUS
 62
    7
 10
321.25953468116558
 20
100.93025826119089
 40
0.1502702042863175
  0
CIRCLE
  8
_1-1_
  6
CONTINUOUS
 62
    7
 10
323.95964751372469
 20
102.03379038217906
 40
0.1502702042863175
  0
CIRCLE
  8
_1-1_
  6
CONTINUOUS
 62
    7
 10
327.76324297930745
 20
99.75161578204181
 40
0.1502702042863175
  0
CIRCLE
  8
_1-1_
  6
CONTINUOUS
 62
    7
 10
325.22752916490714
 20
98.737322833086992
 40
0.1502702042863175
  0
CIRCLE
  8
_1-1_
  6
CONTINUOUS
 62
    7
 10
323.32570668813344
 20
100.25876844251479
 40
0.1502702042863175
  0
CIRCLE
  8
_1-1_
  6
CONTINUOUS
 62
    7
 10
321.04354445998734
 20
103.30165966137037
 40
0.1502702042863175
  0
CIRCLE
  8
_1-1_
  6
CONTINUOUS
 62
    7
 10
325.86144524651604
 20
101.01949743322425
 40
0.1502702042863175
  0
CIRCLE
  8
_1-1_
  6
CONTINUOUS
 62
    7
 10
328.27039563978042
 20
98.61053466796875
 40
0.1502702042863175
  0
CIRCLE
  8
_1-1_
  6
CONTINUOUS
 62
    7
 10
329.53827729096287
 20
97.342665388777448
 40
0.1502702042863175
  0
CIRCLE
  8
_1-1_
  6
CONTINUOUS
 62
    7
 10
320.6631799646326
 20
103.55523599160685
 40
0.1502702042863175
  0
CIRCLE
  8
_1-1_
  6
CONTINUOUS
 62
    7
 10
328.64764239336995
 20
101.07739835172087
 40
0.1502702042863175
  0
CIRCLE
  8
_1-1_
  6
CONTINUOUS
 62
    7
 10
35.253051551612657
 20
100.12730985074431
 40
0.1502702042863175
  0
CIRCLE
  8
_1-1_
  6
CONTINUOUS
 62
    7
 10
36.755713385504635
 20
100.87864231418919
 40
0.1502702042863175
  0
CIRCLE
  8
_1-1_
  6
CONTINUOUS
 62
    7
 10
36.304915144636823
 20
101.93050281421559
 40
0.1502702042863175
  0
CIRCLE
  8
_1-1_
  6
CONTINUOUS
 62
    7
 10
41.413962905471408
 20
102.08076683250634
 40
0.1502702042863175
  0
CIRCLE
  8
_1-1_
  6
CONTINUOUS
 62
    7
 10
41.113428682894323
 20
101.93050281421559
 40
0.1502702042863175
  0
CIRCLE
  8
_1-1_
  6
CONTINUOUS
 62
    7
 10
40.211832201158671
 20
101.62996859163852
 40
0.1502702042863175
  0
CIRCLE
  8
_1-1_
  6
CONTINUOUS
 62
    7
 10
42.165292275918489
 20
101.32944055505702
 40
0.1502702042863175
  0
CIRCLE
  8
_1-1_
  6
CONTINUOUS
 62
    7
 10
44.569550591546147
 20
102.38130105508341
 40
0.1502702042863175
  0
CIRCLE
  8
_1-1_
  6
CONTINUOUS
 62
    7
 10
36.505270262022293
 20
94.867994978621198
 40
0.1502702042863175
  0
CIRCLE
  8
_1-1_
  6
CONTINUOUS
 62
    7
 10
38.007932095914271
 20
95.619327442066094
 40
0.1502702042863175
  0
CIRCLE
  8
_1-1_
  6
CONTINUOUS
 62
    7
 10
37.557133855046459
 20
96.671187942092487
 40
0.1502702042863175
  0
CIRCLE
  8
_1-1_
  6
CONTINUOUS
 62
    7
 10
42.666181615881015
 20
96.821451960383243
 40
0.1502702042863175
  0
CIRCLE
  8
_1-1_
  6
CONTINUOUS
 62
    7
 10
42.365647393303959
 20
96.671187942092487
 40
0.1502702042863175
  0
CIRCLE
  8
_1-1_
  6
CONTINUOUS
 62
    7
 10
41.464050911568307
 20
96.370653719515417
 40
0.1502702042863175
  0
CIRCLE
  8
_1-1_
  6
CONTINUOUS
 62
    7
 10
43.417510986328125
 20
96.07012568293392
 40
0.1502702042863175
  0
CIRCLE
  8
_1-1_
  6
CONTINUOUS
 62
    7
 10
45.821769301955783
 20
97.121986182960313
 40
0.1502702042863175
  0
CIRCLE
  8
_1-1_
  6
CONTINUOUS
 62
    7
 10
40.512366423735756
 20
95.869773658546251
 40
0.1502702042863175
  0
CIRCLE
  8
_1-1_
  6
CONTINUOUS
 62
    7
 10
42.015028257627762
 20
96.621106121991133
 40
0.1502702042863175
  0
CIRCLE
  8
_1-1_
  6
CONTINUOUS
 62
    7
 10
41.564230016759922
 20
97.672966622017526
 40
0.1502702042863175
  0
CIRCLE
  8
_1-1_
  6
CONTINUOUS
 62
    7
 10
46.673277777594478
 20
97.823230640308282
 40
0.1502702042863175
  0
CIRCLE
  8
_1-1_
  6
CONTINUOUS
 62
    7
 10
46.372743555017422
 20
97.672966622017526
 40
0.1502702042863175
  0
CIRCLE
  8
_1-1_
  6
CONTINUOUS
 62
    7
 10
45.47114707328177
 20
97.372432399440456
 40
0.1502702042863175
  0
CIRCLE
  8
_1-1_
  6
CONTINUOUS
 62
    7
 10
47.424607148041616
 20
97.071904362858959
 40
0.1502702042863175
  0
CIRCLE
  8
_1-1_
  6
CONTINUOUS
 62
    7
 10
49.828865463669246
 20
98.123764862885352
 40
0.1502702042863175
  0
CIRCLE
  8
_1-1_
  6
CONTINUOUS
 62
    7
 10
44.519459492451432
 20
99.375977387299415
 40
0.1502702042863175
  0
CIRCLE
  8
_1-1_
  6
CONTINUOUS
 62
    7
 10
46.022121326343438
 20
100.12730985074431
 40
0.1502702042863175
  0
CIRCLE
  8
_1-1_
  6
CONTINUOUS
 62
    7
 10
45.571323085475626
 20
101.1791703507707
 40
0.1502702042863175
  0
CIRCLE
  8
_1-1_
  6
CONTINUOUS
 62
    7
 10
50.680370846310183
 20
101.32943436906145
 40
0.1502702042863175
  0
CIRCLE
  8
_1-1_
  6
CONTINUOUS
 62
    7
 10
50.379836623733127
 20
101.1791703507707
 40
0.1502702042863175
  0
CIRCLE
  8
_1-1_
  6
CONTINUOUS
 62
    7
 10
49.478240141997475
 20
100.87863612819363
 40
0.1502702042863175
  0
CIRCLE
  8
_1-1_
  6
CONTINUOUS
 62
    7
 10
51.431700216757292
 20
100.57810809161212
 40
0.1502702042863175
  0
CIRCLE
  8
_1-1_
  6
CONTINUOUS
 62
    7
 10
53.835958532384922
 20
101.62996859163852
 40
0.1502702042863175
  0
CIRCLE
  8
_1-1_
  6
CONTINUOUS
 62
    7
 10
48.526552561167136
 20
101.37952856115393
 40
0.1502702042863175
  0
CIRCLE
  8
_1-1_
  6
CONTINUOUS
 62
    7
 10
50.029214395059114
 20
102.13086102459883
 40
0.1502702042863175
  0
CIRCLE
  8
_1-1_
  6
CONTINUOUS
 62
    7
 10
49.578416154191302
 20
103.18272152462522
 40
0.1502702042863175
  0
CIRCLE
  8
_1-1_
  6
CONTINUOUS
 62
    7
 10
54.687467008023646
 20
103.33298554291596
 40
0.1502702042863175
  0
CIRCLE
  8
_1-1_
  6
CONTINUOUS
 62
    7
 10
54.386926599451016
 20
103.18272152462522
 40
0.1502702042863175
  0
CIRCLE
  8
_1-1_
  6
CONTINUOUS
 62
    7
 10
53.485330117715364
 20
102.88218730204815
 40
0.1502702042863175
  0
CIRCLE
  8
_1-1_
  6
CONTINUOUS
 62
    7
 10
55.438793285472968
 20
102.58165926546664
 40
0.1502702042863175
  0
CIRCLE
  8
_1-1_
  6
CONTINUOUS
 62
    7
 10
57.843054694098385
 20
103.63351976549303
 40
0.1502702042863175
  0
CIRCLE
  8
_1-1_
  6
CONTINUOUS
 62
    7
 10
54.537196803737345
 20
103.88395979597762
 40
0.1502702042863175
  0
CIRCLE
  8
_1-1_
  6
CONTINUOUS
 62
    7
 10
56.039861730627109
 20
104.63529844541809
 40
0.1502702042863175
  0
CIRCLE
  8
_1-1_
  6
CONTINUOUS
 62
    7
 10
55.589063489759297
 20
105.68715275944891
 40
0.1502702042863175
  0
CIRCLE
  8
_1-1_
  6
CONTINUOUS
 62
    7
 10
60.698114343591641
 20
105.83741059174409
 40
0.1502702042863175
  0
CIRCLE
  8
_1-1_
  6
CONTINUOUS
 62
    7
 10
60.397573935019011
 20
105.68715275944891
 40
0.1502702042863175
  0
CIRCLE
  8
_1-1_
  6
CONTINUOUS
 62
    7
 10
59.495977453283359
 20
105.38662472286741
 40
0.1502702042863175
  0
CIRCLE
  8
_1-1_
  6
CONTINUOUS
 62
    7
 10
61.449440621040964
 20
105.08608431429477
 40
0.1502702042863175
  0
CIRCLE
  8
_1-1_
  6
CONTINUOUS
 62
    7
 10
63.85370202966638
 20
106.13795100031673
 40
0.1502702042863175
  0
CIRCLE
  8
_1-1_
  6
CONTINUOUS
 62
    7
 10
56.540741791596304
 20
104.63528607342695
 40
0.1502702042863175
  0
CIRCLE
  8
_1-1_
  6
CONTINUOUS
 62
    7
 10
58.043406718486068
 20
105.38662472286741
 40
0.1502702042863175
  0
CIRCLE
  8
_1-1_
  6
CONTINUOUS
 62
    7
 10
57.592608477618256
 20
106.43847903689823
 40
0.1502702042863175
  0
CIRCLE
  8
_1-1_
  6
CONTINUOUS
 62
    7
 10
62.7016593314506
 20
106.58873686919341
 40
0.1502702042863175
  0
CIRCLE
  8
_1-1_
  6
CONTINUOUS
 62
    7
 10
62.40111892287797
 20
106.43847903689823
 40
0.1502702042863175
  0
CIRCLE
  8
_1-1_
  6
CONTINUOUS
 62
    7
 10
61.499522441142318
 20
106.13795100031673
 40
0.1502702042863175
  0
CIRCLE
  8
_1-1_
  6
CONTINUOUS
 62
    7
 10
63.452985608899922
 20
105.83741059174409
 40
0.1502702042863175
  0
CIRCLE
  8
_1-1_
  6
CONTINUOUS
 62
    7
 10
65.857247017525339
 20
106.88927727776606
 40
0.1502702042863175
  0
CIRCLE
  8
_1-1_
  6
CONTINUOUS
 62
    7
 10
62.300942910684114
 20
106.38839721679687
 40
0.1502702042863175
  0
CIRCLE
  8
_1-1_
  6
CONTINUOUS
 62
    7
 10
63.803607837573907
 20
107.13973586623733
 40
0.1502702042863175
  0
CIRCLE
  8
_1-1_
  6
CONTINUOUS
 62
    7
 10
63.352809596706095
 20
108.19159018026816
 40
0.1502702042863175
  0
CIRCLE
  8
_1-1_
  6
CONTINUOUS
 62
    7
 10
68.461860450538438
 20
108.34184801256335
 40
0.1502702042863175
  0
CIRCLE
  8
_1-1_
  6
CONTINUOUS
 62
    7
 10
68.16132004196578
 20
108.19159018026816
 40
0.1502702042863175
  0
CIRCLE
  8
_1-1_
  6
CONTINUOUS
 62
    7
 10
67.259723560230157
 20
107.89106214368667
 40
0.1502702042863175
  0
CIRCLE
  8
_1-1_
  6
CONTINUOUS
 62
    7
 10
69.213186727987761
 20
107.59052173511402
 40
0.1502702042863175
  0
CIRCLE
  8
_1-1_
  6
CONTINUOUS
 62
    7
 10
71.617448136613177
 20
108.64238842113599
 40
0.1502702042863175
  0
CIRCLE
  8
_1-1_
  6
CONTINUOUS
 62
    7
 10
71.817800161000832
 20
110.39548719251479
 40
0.1502702042863175
  0
CIRCLE
  8
_1-1_
  6
CONTINUOUS
 62
    7
 10
73.320465087890625
 20
111.14682584195525
 40
0.1502702042863175
  0
CIRCLE
  8
_1-1_
  6
CONTINUOUS
 62
    7
 10
72.869666847022813
 20
112.19868015598607
 40
0.1502702042863175
  0
CIRCLE
  8
_1-1_
  6
CONTINUOUS
 62
    7
 10
77.978717700855157
 20
112.34893798828125
 40
0.1502702042863175
  0
CIRCLE
  8
_1-1_
  6
CONTINUOUS
 62
    7
 10
77.678177292282527
 20
112.19868015598607
 40
0.1502702042863175
  0
CIRCLE
  8
_1-1_
  6
CONTINUOUS
 62
    7
 10
76.776580810546875
 20
111.89815211940457
 40
0.1502702042863175
  0
CIRCLE
  8
_1-1_
  6
CONTINUOUS
 62
    7
 10
78.730043978304479
 20
111.59761171083193
 40
0.1502702042863175
  0
CIRCLE
  8
_1-1_
  6
CONTINUOUS
 62
    7
 10
81.134305386929896
 20
112.64947839685389
 40
0.1502702042863175
  0
CIRCLE
  8
_1-1_
  6
CONTINUOUS
 62
    7
 10
79.33111242345862
 20
113.90170947925465
 40
0.1502702042863175
  0
CIRCLE
  8
_1-1_
  6
CONTINUOUS
 62
    7
 10
80.833771164352839
 20
114.6530481286951
 40
0.1502702042863175
  0
CIRCLE
  8
_1-1_
  6
CONTINUOUS
 62
    7
 10
80.382972923484999
 20
115.70490244272594
 40
0.1502702042863175
  0
CIRCLE
  8
_1-1_
  6
CONTINUOUS
 62
    7
 10
85.492017591321797
 20
115.85516027502112
 40
0.1502702042863175
  0
CIRCLE
  8
_1-1_
  6
CONTINUOUS
 62
    7
 10
85.191489554740286
 20
115.70490244272594
 40
0.1502702042863175
  0
CIRCLE
  8
_1-1_
  6
CONTINUOUS
 62
    7
 10
84.289893073004649
 20
115.40437440614443
 40
0.1502702042863175
  0
CIRCLE
  8
_1-1_
  6
CONTINUOUS
 62
    7
 10
86.24335005476668
 20
115.1038339975718
 40
0.1502702042863175
  0
CIRCLE
  8
_1-1_
  6
CONTINUOUS
 62
    7
 10
88.647605277396536
 20
116.15570068359375
 40
0.1502702042863175
  0
CIRCLE
  8
_1-1_
  6
CONTINUOUS
 62
    7
 10
83.839094832136823
 20
117.40790702201225
 40
0.1502702042863175
  0
CIRCLE
  8
_1-1_
  6
CONTINUOUS
 62
    7
 10
85.341753573031042
 20
118.15924567145271
 40
0.1502702042863175
  0
CIRCLE
  8
_1-1_
  6
CONTINUOUS
 62
    7
 10
84.890955332163216
 20
119.21109998548354
 40
0.1502702042863175
  0
CIRCLE
  8
_1-1_
  6
CONTINUOUS
 62
    7
 10
90
 20
119.36135781777872
 40
0.1502702042863175
  0
CIRCLE
  8
_1-1_
  6
CONTINUOUS
 62
    7
 10
89.699471963418503
 20
119.21109998548354
 40
0.1502702042863175
  0
CIRCLE
  8
_1-1_
  6
CONTINUOUS
 62
    7
 10
88.797875481682865
 20
118.91057194890203
 40
0.1502702042863175
  0
CIRCLE
  8
_1-1_
  6
CONTINUOUS
 62
    7
 10
90.751332463444896
 20
118.6100315403294
 40
0.1502702042863175
  0
CIRCLE
  8
_1-1_
  6
CONTINUOUS
 62
    7
 10
93.155587686074753
 20
119.66189822635135
 40
0.1502702042863175
  0
CIRCLE
  8
_1-1_
  6
CONTINUOUS
 62
    7
 10
89.348849734744519
 20
120.16279065931167
 40
0.1502702042863175
  0
CIRCLE
  8
_1-1_
  6
CONTINUOUS
 62
    7
 10
90.851508475638724
 20
120.91411693676099
 40
0.1502702042863175
  0
CIRCLE
  8
_1-1_
  6
CONTINUOUS
 62
    7
 10
90.400710234770912
 20
121.96598362278294
 40
0.1502702042863175
  0
CIRCLE
  8
_1-1_
  6
CONTINUOUS
 62
    7
 10
95.509754902607696
 20
122.11625382706926
 40
0.1502702042863175
  0
CIRCLE
  8
_1-1_
  6
CONTINUOUS
 62
    7
 10
95.209226866026185
 20
121.96598362278294
 40
0.1502702042863175
  0
CIRCLE
  8
_1-1_
  6
CONTINUOUS
 62
    7
 10
94.307630384290547
 20
121.66544321421031
 40
0.1502702042863175
  0
CIRCLE
  8
_1-1_
  6
CONTINUOUS
 62
    7
 10
96.261087366052578
 20
121.36492754961994
 40
0.1502702042863175
  0
CIRCLE
  8
_1-1_
  6
CONTINUOUS
 62
    7
 10
98.665342588682435
 20
122.41678186365077
 40
0.1502702042863175
  0
CIRCLE
  8
_1-1_
  6
CONTINUOUS
 62
    7
 10
92.354167216532943
 20
121.66545558620145
 40
0.1502702042863175
  0
CIRCLE
  8
_1-1_
  6
CONTINUOUS
 62
    7
 10
93.856832143422722
 20
122.4167942356419
 40
0.1502702042863175
  0
CIRCLE
  8
_1-1_
  6
CONTINUOUS
 62
    7
 10
93.40603390255491
 20
123.46864854967272
 40
0.1502702042863175
  0
CIRCLE
  8
_1-1_
  6
CONTINUOUS
 62
    7
 10
98.515084756387253
 20
123.61890638196792
 40
0.1502702042863175
  0
CIRCLE
  8
_1-1_
  6
CONTINUOUS
 62
    7
 10
98.214544347814623
 20
123.46864854967272
 40
0.1502702042863175
  0
CIRCLE
  8
_1-1_
  6
CONTINUOUS
 62
    7
 10
97.312947866078972
 20
123.16812051309122
 40
0.1502702042863175
  0
CIRCLE
  8
_1-1_
  6
CONTINUOUS
 62
    7
 10
99.266411033836576
 20
122.86758010451859
 40
0.1502702042863175
  0
CIRCLE
  8
_1-1_
  6
CONTINUOUS
 62
    7
 10
101.67067244246199
 20
123.91944679054055
 40
0.1502702042863175
  0
CIRCLE
  8
_1-1_
  6
CONTINUOUS
 62
    7
 10
98.114368335620782
 20
123.66900057406039
 40
0.1502702042863175
  0
CIRCLE
  8
_1-1_
  6
CONTINUOUS
 62
    7
 10
99.61703326251056
 20
124.42033922350085
 40
0.1502702042863175
  0
CIRCLE
  8
_1-1_
  6
CONTINUOUS
 62
    7
 10
99.166235021642748
 20
125.47219353753168
 40
0.1502702042863175
  0
CIRCLE
  8
_1-1_
  6
CONTINUOUS
 62
    7
 10
104.27528587547509
 20
125.62245136982686
 40
0.1502702042863175
  0
CIRCLE
  8
_1-1_
  6
CONTINUOUS
 62
    7
 10
103.97474546690246
 20
125.47219353753168
 40
0.1502702042863175
  0
CIRCLE
  8
_1-1_
  6
CONTINUOUS
 62
    7
 10
103.07314898516681
 20
125.17166550095017
 40
0.1502702042863175
  0
CIRCLE
  8
_1-1_
  6
CONTINUOUS
 62
    7
 10
105.02661215292441
 20
124.87112509237754
 40
0.1502702042863175
  0
CIRCLE
  8
_1-1_
  6
CONTINUOUS
 62
    7
 10
107.43087356154983
 20
125.92299177839951
 40
0.1502702042863175
  0
CIRCLE
  8
_1-1_
  6
CONTINUOUS
 62
    7
 10
103.1232431772593
 20
125.42211171743033
 40
0.1502702042863175
  0
CIRCLE
  8
_1-1_
  6
CONTINUOUS
 62
    7
 10
104.62590810414908
 20
126.17345036687078
 40
0.1502702042863175
  0
CIRCLE
  8
_1-1_
  6
CONTINUOUS
 62
    7
 10
104.17510986328125
 20
127.22530468090162
 40
0.1502702042863175
  0
CIRCLE
  8
_1-1_
  6
CONTINUOUS
 62
    7
 10
109.28416071711361
 20
127.3755625131968
 40
0.1502702042863175
  0
CIRCLE
  8
_1-1_
  6
CONTINUOUS
 62
    7
 10
108.98362030854096
 20
127.22530468090162
 40
0.1502702042863175
  0
CIRCLE
  8
_1-1_
  6
CONTINUOUS
 62
    7
 10
108.08202382680533
 20
126.9247766443201
 40
0.1502702042863175
  0
CIRCLE
  8
_1-1_
  6
CONTINUOUS
 62
    7
 10
110.03548699456293
 20
126.62423623574747
 40
0.1502702042863175
  0
CIRCLE
  8
_1-1_
  6
CONTINUOUS
 62
    7
 10
112.43974840318835
 20
127.67610292176943
 40
0.1502702042863175
  0
CIRCLE
  8
_1-1_
  6
CONTINUOUS
 62
    7
 10
108.13210564690668
 20
127.17521048880913
 40
0.1502702042863175
  0
CIRCLE
  8
_1-1_
  6
CONTINUOUS
 62
    7
 10
109.63477057379646
 20
127.92653676625845
 40
0.1502702042863175
  0
CIRCLE
  8
_1-1_
  6
CONTINUOUS
 62
    7
 10
109.18397233292863
 20
128.97840345228042
 40
0.1502702042863175
  0
CIRCLE
  8
_1-1_
  6
CONTINUOUS
 62
    7
 10
114.29302318676099
 20
129.12867365656672
 40
0.1502702042863175
  0
CIRCLE
  8
_1-1_
  6
CONTINUOUS
 62
    7
 10
113.99248277818835
 20
128.97840345228042
 40
0.1502702042863175
  0
CIRCLE
  8
_1-1_
  6
CONTINUOUS
 62
    7
 10
113.09088629645271
 20
128.67786304370779
 40
0.1502702042863175
  0
CIRCLE
  8
_1-1_
  6
CONTINUOUS
 62
    7
 10
115.04434946421031
 20
128.3773473791174
 40
0.1502702042863175
  0
CIRCLE
  8
_1-1_
  6
CONTINUOUS
 62
    7
 10
117.44861087283573
 20
129.42920169314823
 40
0.1502702042863175
  0
CIRCLE
  8
_1-1_
  6
CONTINUOUS
 62
    7
 10
105.12678816511824
 20
128.42741682722763
 40
0.1502702042863175
  0
CIRCLE
  8
_1-1_
  6
CONTINUOUS
 62
    7
 10
106.62945309200803
 20
129.17875547666807
 40
0.1502702042863175
  0
CIRCLE
  8
_1-1_
  6
CONTINUOUS
 62
    7
 10
106.17865485114021
 20
130.23060979069891
 40
0.1502702042863175
  0
CIRCLE
  8
_1-1_
  6
CONTINUOUS
 62
    7
 10
111.28770570497255
 20
130.38086762299409
 40
0.1502702042863175
  0
CIRCLE
  8
_1-1_
  6
CONTINUOUS
 62
    7
 10
110.98716529639992
 20
130.23060979069891
 40
0.1502702042863175
  0
CIRCLE
  8
_1-1_
  6
CONTINUOUS
 62
    7
 10
110.08556881466428
 20
129.9300817541174
 40
0.1502702042863175
  0
CIRCLE
  8
_1-1_
  6
CONTINUOUS
 62
    7
 10
112.03903198242187
 20
129.62954134554477
 40
0.1502702042863175
  0
CIRCLE
  8
_1-1_
  6
CONTINUOUS
 62
    7
 10
114.44329339104731
 20
130.68140803156672
 40
0.1502702042863175
  0
CIRCLE
  8
_1-1_
  6
CONTINUOUS
 62
    7
 10
104.8763419486381
 20
130.68142040355787
 40
0.1502702042863175
  0
CIRCLE
  8
_1-1_
  6
CONTINUOUS
 62
    7
 10
106.37900687552788
 20
131.43275905299831
 40
0.1502702042863175
  0
CIRCLE
  8
_1-1_
  6
CONTINUOUS
 62
    7
 10
105.92820863466005
 20
132.48461336702914
 40
0.1502702042863175
  0
CIRCLE
  8
_1-1_
  6
CONTINUOUS
 62
    7
 10
111.03725948849241
 20
132.63487119932432
 40
0.1502702042863175
  0
CIRCLE
  8
_1-1_
  6
CONTINUOUS
 62
    7
 10
110.73671907991977
 20
132.48461336702914
 40
0.1502702042863175
  0
CIRCLE
  8
_1-1_
  6
CONTINUOUS
 62
    7
 10
109.83512259818413
 20
132.18408533044763
 40
0.1502702042863175
  0
CIRCLE
  8
_1-1_
  6
CONTINUOUS
 62
    7
 10
111.78858576594173
 20
131.883544921875
 40
0.1502702042863175
  0
CIRCLE
  8
_1-1_
  6
CONTINUOUS
 62
    7
 10
114.19284717456715
 20
132.93541160789698
 40
0.1502702042863175
  0
CIRCLE
  8
_1-1_
  6
CONTINUOUS
 62
    7
 10
114.14275298247466
 20
128.67787541569891
 40
0.1502702042863175
  0
CIRCLE
  8
_1-1_
  6
CONTINUOUS
 62
    7
 10
115.64541790936445
 20
129.42921406513938
 40
0.1502702042863175
  0
CIRCLE
  8
_1-1_
  6
CONTINUOUS
 62
    7
 10
115.19461966849663
 20
130.48106837917018
 40
0.1502702042863175
  0
CIRCLE
  8
_1-1_
  6
CONTINUOUS
 62
    7
 10
120.30367052232897
 20
130.63132621146539
 40
0.1502702042863175
  0
CIRCLE
  8
_1-1_
  6
CONTINUOUS
 62
    7
 10
120.00313011375634
 20
130.48106837917018
 40
0.1502702042863175
  0
CIRCLE
  8
_1-1_
  6
CONTINUOUS
 62
    7
 10
119.1015336320207
 20
130.1805403425887
 40
0.1502702042863175
  0
CIRCLE
  8
_1-1_
  6
CONTINUOUS
 62
    7
 10
121.05499679977829
 20
129.87999993401604
 40
0.1502702042863175
  0
CIRCLE
  8
_1-1_
  6
CONTINUOUS
 62
    7
 10
123.45925820840372
 20
130.93186662003802
 40
0.1502702042863175
  0
CIRCLE
  8
_1-1_
  6
CONTINUOUS
 62
    7
 10
116.39674418681378
 20
131.18231283651818
 40
0.1502702042863175
  0
CIRCLE
  8
_1-1_
  6
CONTINUOUS
 62
    7
 10
117.89940911370356
 20
131.93365148595862
 40
0.1502702042863175
  0
CIRCLE
  8
_1-1_
  6
CONTINUOUS
 62
    7
 10
117.44861087283573
 20
132.98550579998945
 40
0.1502702042863175
  0
CIRCLE
  8
_1-1_
  6
CONTINUOUS
 62
    7
 10
122.55766172666809
 20
133.13576363228464
 40
0.1502702042863175
  0
CIRCLE
  8
_1-1_
  6
CONTINUOUS
 62
    7
 10
122.25712131809544
 20
132.98550579998945
 40
0.1502702042863175
  0
CIRCLE
  8
_1-1_
  6
CONTINUOUS
 62
    7
 10
121.35552483635981
 20
132.68497776340794
 40
0.1502702042863175
  0
CIRCLE
  8
_1-1_
  6
CONTINUOUS
 62
    7
 10
123.30898800411741
 20
132.38443735483531
 40
0.1502702042863175
  0
CIRCLE
  8
_1-1_
  6
CONTINUOUS
 62
    7
 10
125.71324941274283
 20
133.43630404085727
 40
0.1502702042863175
  0
CIRCLE
  8
_1-1_
  6
CONTINUOUS
 62
    7
 10
120.90472659549198
 20
134.18761794631547
 40
0.1502702042863175
  0
CIRCLE
  8
_1-1_
  6
CONTINUOUS
 62
    7
 10
122.40739152238176
 20
134.93895659575591
 40
0.1502702042863175
  0
CIRCLE
  8
_1-1_
  6
CONTINUOUS
 62
    7
 10
121.95659328151395
 20
135.99081090978675
 40
0.1502702042863175
  0
CIRCLE
  8
_1-1_
  6
CONTINUOUS
 62
    7
 10
127.06564413534629
 20
136.14106874208193
 40
0.1502702042863175
  0
CIRCLE
  8
_1-1_
  6
CONTINUOUS
 62
    7
 10
126.76510372677366
 20
135.99081090978675
 40
0.1502702042863175
  0
CIRCLE
  8
_1-1_
  6
CONTINUOUS
 62
    7
 10
125.86350724503801
 20
135.69028287320523
 40
0.1502702042863175
  0
CIRCLE
  8
_1-1_
  6
CONTINUOUS
 62
    7
 10
127.81697041279561
 20
135.3897424646326
 40
0.1502702042863175
  0
CIRCLE
  8
_1-1_
  6
CONTINUOUS
 62
    7
 10
130.22123182142104
 20
136.44160915065456
 40
0.1502702042863175
  0
CIRCLE
  8
_1-1_
  6
CONTINUOUS
 62
    7
 10
125.16226278769004
 20
135.69029524519638
 40
0.1502702042863175
  0
CIRCLE
  8
_1-1_
  6
CONTINUOUS
 62
    7
 10
126.66492771457982
 20
136.44163389463682
 40
0.1502702042863175
  0
CIRCLE
  8
_1-1_
  6
CONTINUOUS
 62
    7
 10
126.21412947371201
 20
137.49348820866766
 40
0.1502702042863175
  0
CIRCLE
  8
_1-1_
  6
CONTINUOUS
 62
    7
 10
131.32318032754435
 20
137.64374604096284
 40
0.1502702042863175
  0
CIRCLE
  8
_1-1_
  6
CONTINUOUS
 62
    7
 10
131.02263991897172
 20
137.49348820866766
 40
0.1502702042863175
  0
CIRCLE
  8
_1-1_
  6
CONTINUOUS
 62
    7
 10
130.12104343723607
 20
137.19296017208615
 40
0.1502702042863175
  0
CIRCLE
  8
_1-1_
  6
CONTINUOUS
 62
    7
 10
132.07450660499367
 20
136.89241976351352
 40
0.1502702042863175
  0
CIRCLE
  8
_1-1_
  6
CONTINUOUS
 62
    7
 10
134.47876801361909
 20
137.94428644953547
 40
0.1502702042863175
  0
CIRCLE
  8
_1-1_
  6
CONTINUOUS
 62
    7
 10
127.91714642498945
 20
137.69384023305534
 40
0.1502702042863175
  0
CIRCLE
  8
_1-1_
  6
CONTINUOUS
 62
    7
 10
129.41981135187922
 20
138.44517888249578
 40
0.1502702042863175
  0
CIRCLE
  8
_1-1_
  6
CONTINUOUS
 62
    7
 10
128.96901311101141
 20
139.49703319652662
 40
0.1502702042863175
  0
CIRCLE
  8
_1-1_
  6
CONTINUOUS
 62
    7
 10
134.07806396484375
 20
139.6472910288218
 40
0.1502702042863175
  0
CIRCLE
  8
_1-1_
  6
CONTINUOUS
 62
    7
 10
133.77752355627112
 20
139.49703319652662
 40
0.1502702042863175
  0
CIRCLE
  8
_1-1_
  6
CONTINUOUS
 62
    7
 10
132.87592707453547
 20
139.1965051599451
 40
0.1502702042863175
  0
CIRCLE
  8
_1-1_
  6
CONTINUOUS
 62
    7
 10
134.82939024229307
 20
138.89596475137247
 40
0.1502702042863175
  0
CIRCLE
  8
_1-1_
  6
CONTINUOUS
 62
    7
 10
137.23365165091852
 20
139.94783143739443
 40
0.1502702042863175
  0
CIRCLE
  8
_1-1_
  6
CONTINUOUS
 62
    7
 10
137.18355745882602
 20
140.69915771484375
 40
0.1502702042863175
  0
CIRCLE
  8
_1-1_
  6
CONTINUOUS
 62
    7
 10
138.68622238571581
 20
141.45048399229307
 40
0.1502702042863175
  0
CIRCLE
  8
_1-1_
  6
CONTINUOUS
 62
    7
 10
138.23542414484797
 20
142.50235067831505
 40
0.1502702042863175
  0
CIRCLE
  8
_1-1_
  6
CONTINUOUS
 62
    7
 10
143.34447499868034
 20
142.65262088260135
 40
0.1502702042863175
  0
CIRCLE
  8
_1-1_
  6
CONTINUOUS
 62
    7
 10
143.04393459010768
 20
142.50235067831505
 40
0.1502702042863175
  0
CIRCLE
  8
_1-1_
  6
CONTINUOUS
 62
    7
 10
142.14233810837206
 20
142.2018102697424
 40
0.1502702042863175
  0
CIRCLE
  8
_1-1_
  6
CONTINUOUS
 62
    7
 10
144.09580127612966
 20
141.90129460515203
 40
0.1502702042863175
  0
CIRCLE
  8
_1-1_
  6
CONTINUOUS
 62
    7
 10
146.50006268475508
 20
142.95314891918287
 40
0.1502702042863175
  0
CIRCLE
  8
_1-1_
  6
CONTINUOUS
 62
    7
 10
140.68975500158362
 20
143.45404135214318
 40
0.1502702042863175
  0
CIRCLE
  8
_1-1_
  6
CONTINUOUS
 62
    7
 10
142.19241992847341
 20
144.20538000158362
 40
0.1502702042863175
  0
CIRCLE
  8
_1-1_
  6
CONTINUOUS
 62
    7
 10
141.74162168760557
 20
145.25723431561445
 40
0.1502702042863175
  0
CIRCLE
  8
_1-1_
  6
CONTINUOUS
 62
    7
 10
146.85067254143794
 20
145.40749214790964
 40
0.1502702042863175
  0
CIRCLE
  8
_1-1_
  6
CONTINUOUS
 62
    7
 10
146.55013213286529
 20
145.25723431561445
 40
0.1502702042863175
  0
CIRCLE
  8
_1-1_
  6
CONTINUOUS
 62
    7
 10
145.64853565112966
 20
144.95670627903294
 40
0.1502702042863175
  0
CIRCLE
  8
_1-1_
  6
CONTINUOUS
 62
    7
 10
147.60199881888727
 20
144.65616587046031
 40
0.1502702042863175
  0
CIRCLE
  8
_1-1_
  6
CONTINUOUS
 62
    7
 10
150.00626022751268
 20
145.70803255648227
 40
0.1502702042863175
  0
CIRCLE
  8
_1-1_
  6
CONTINUOUS
 62
    7
 10
148.20306726404138
 20
144.95669390704182
 40
0.1502702042863175
  0
CIRCLE
  8
_1-1_
  6
CONTINUOUS
 62
    7
 10
149.70573219093117
 20
145.70803255648227
 40
0.1502702042863175
  0
CIRCLE
  8
_1-1_
  6
CONTINUOUS
 62
    7
 10
149.25493395006336
 20
146.7598868705131
 40
0.1502702042863175
  0
CIRCLE
  8
_1-1_
  6
CONTINUOUS
 62
    7
 10
154.3639848038957
 20
146.91014470280828
 40
0.1502702042863175
  0
CIRCLE
  8
_1-1_
  6
CONTINUOUS
 62
    7
 10
154.06344439532307
 20
146.7598868705131
 40
0.1502702042863175
  0
CIRCLE
  8
_1-1_
  6
CONTINUOUS
 62
    7
 10
153.16184791358742
 20
146.45935883393159
 40
0.1502702042863175
  0
CIRCLE
  8
_1-1_
  6
CONTINUOUS
 62
    7
 10
155.11531108134503
 20
146.15881842535896
 40
0.1502702042863175
  0
CIRCLE
  8
_1-1_
  6
CONTINUOUS
 62
    7
 10
157.51957248997044
 20
147.21068511138091
 40
0.1502702042863175
  0
CIRCLE
  8
_1-1_
  6
CONTINUOUS
 62
    7
 10
154.46416081608953
 20
147.46113132786107
 40
0.1502702042863175
  0
CIRCLE
  8
_1-1_
  6
CONTINUOUS
 62
    7
 10
155.96682574297932
 20
148.21246997730154
 40
0.1502702042863175
  0
CIRCLE
  8
_1-1_
  6
CONTINUOUS
 62
    7
 10
155.51602750211148
 20
149.26432429133234
 40
0.1502702042863175
  0
CIRCLE
  8
_1-1_
  6
CONTINUOUS
 62
    7
 10
160.62507835594386
 20
149.41458212362755
 40
0.1502702042863175
  0
CIRCLE
  8
_1-1_
  6
CONTINUOUS
 62
    7
 10
160.3245379473712
 20
149.26432429133234
 40
0.1502702042863175
  0
CIRCLE
  8
_1-1_
  6
CONTINUOUS
 62
    7
 10
159.42294146563557
 20
148.96379625475086
 40
0.1502702042863175
  0
CIRCLE
  8
_1-1_
  6
CONTINUOUS
 62
    7
 10
161.37640463339318
 20
148.66325584617823
 40
0.1502702042863175
  0
CIRCLE
  8
_1-1_
  6
CONTINUOUS
 62
    7
 10
163.78066604201859
 20
149.71512253220018
 40
0.1502702042863175
  0
CIRCLE
  8
_1-1_
  6
CONTINUOUS
 62
    7
 10
156.7181396484375
 20
150.96734124260982
 40
0.1502702042863175
  0
CIRCLE
  8
_1-1_
  6
CONTINUOUS
 62
    7
 10
158.22080457532729
 20
151.71866752005914
 40
0.1502702042863175
  0
CIRCLE
  8
_1-1_
  6
CONTINUOUS
 62
    7
 10
157.77000633445948
 20
152.77053420608109
 40
0.1502702042863175
  0
CIRCLE
  8
_1-1_
  6
CONTINUOUS
 62
    7
 10
162.87905718829182
 20
152.9208044103674
 40
0.1502702042863175
  0
CIRCLE
  8
_1-1_
  6
CONTINUOUS
 62
    7
 10
162.57851677971919
 20
152.77053420608109
 40
0.1502702042863175
  0
CIRCLE
  8
_1-1_
  6
CONTINUOUS
 62
    7
 10
161.67692029798354
 20
152.46999379750847
 40
0.1502702042863175
  0
CIRCLE
  8
_1-1_
  6
CONTINUOUS
 62
    7
 10
163.63038346574115
 20
152.16947813291807
 40
0.1502702042863175
  0
CIRCLE
  8
_1-1_
  6
CONTINUOUS
 62
    7
 10
166.03464487436656
 20
153.22133244694891
 40
0.1502702042863175
  0
CIRCLE
  8
_1-1_
  6
CONTINUOUS
 62
    7
 10
164.48189812737544
 20
154.22310494087839
 40
0.1502702042863175
  0
CIRCLE
  8
_1-1_
  6
CONTINUOUS
 62
    7
 10
165.98456305426521
 20
154.97443121832771
 40
0.1502702042863175
  0
CIRCLE
  8
_1-1_
  6
CONTINUOUS
 62
    7
 10
165.5337648133974
 20
156.02629790434966
 40
0.1502702042863175
  0
CIRCLE
  8
_1-1_
  6
CONTINUOUS
 62
    7
 10
170.64281566722974
 20
156.17656810863599
 40
0.1502702042863175
  0
CIRCLE
  8
_1-1_
  6
CONTINUOUS
 62
    7
 10
170.34227525865711
 20
156.02629790434966
 40
0.1502702042863175
  0
CIRCLE
  8
_1-1_
  6
CONTINUOUS
 62
    7
 10
169.44067877692146
 20
155.72575749577703
 40
0.1502702042863175
  0
CIRCLE
  8
_1-1_
  6
CONTINUOUS
 62
    7
 10
171.39414194467906
 20
155.42524183118667
 40
0.1502702042863175
  0
CIRCLE
  8
_1-1_
  6
CONTINUOUS
 62
    7
 10
173.79840335330448
 20
156.4770961452175
 40
0.1502702042863175
  0
CIRCLE
  8
_1-1_
  6
CONTINUOUS
 62
    7
 10
170.99342552391261
 20
156.4770961452175
 40
0.1502702042863175
  0
CIRCLE
  8
_1-1_
  6
CONTINUOUS
 62
    7
 10
172.49609045080237
 20
157.22843479465794
 40
0.1502702042863175
  0
CIRCLE
  8
_1-1_
  6
CONTINUOUS
 62
    7
 10
172.04529220993456
 20
158.28028910868878
 40
0.1502702042863175
  0
CIRCLE
  8
_1-1_
  6
CONTINUOUS
 62
    7
 10
177.1543430637669
 20
158.43054694098396
 40
0.1502702042863175
  0
CIRCLE
  8
_1-1_
  6
CONTINUOUS
 62
    7
 10
176.85380265519427
 20
158.28028910868878
 40
0.1502702042863175
  0
CIRCLE
  8
_1-1_
  6
CONTINUOUS
 62
    7
 10
175.95220617345862
 20
157.97976107210727
 40
0.1502702042863175
  0
CIRCLE
  8
_1-1_
  6
CONTINUOUS
 62
    7
 10
177.90566934121622
 20
157.67922066353464
 40
0.1502702042863175
  0
CIRCLE
  8
_1-1_
  6
CONTINUOUS
 62
    7
 10
180.30993074984164
 20
158.73108734955659
 40
0.1502702042863175
  0
CIRCLE
  8
_1-1_
  6
CONTINUOUS
 62
    7
 10
140.43932115709461
 20
146.45935883393159
 40
0.1502702042863175
  0
CIRCLE
  8
_1-1_
  6
CONTINUOUS
 62
    7
 10
141.94198608398438
 20
147.21068511138091
 40
0.1502702042863175
  0
CIRCLE
  8
_1-1_
  6
CONTINUOUS
 62
    7
 10
141.49118784311656
 20
148.26255179740289
 40
0.1502702042863175
  0
CIRCLE
  8
_1-1_
  6
CONTINUOUS
 62
    7
 10
146.60023869694891
 20
148.41282200168919
 40
0.1502702042863175
  0
CIRCLE
  8
_1-1_
  6
CONTINUOUS
 62
    7
 10
146.29969828837628
 20
148.26255179740289
 40
0.1502702042863175
  0
CIRCLE
  8
_1-1_
  6
CONTINUOUS
 62
    7
 10
145.39810180664062
 20
147.96201138883023
 40
0.1502702042863175
  0
CIRCLE
  8
_1-1_
  6
CONTINUOUS
 62
    7
 10
147.35156497439823
 20
147.66149572423987
 40
0.1502702042863175
  0
CIRCLE
  8
_1-1_
  6
CONTINUOUS
 62
    7
 10
149.75582638302365
 20
148.7133500382707
 40
0.1502702042863175
  0
CIRCLE
  8
_1-1_
  6
CONTINUOUS
 62
    7
 10
135.43044631545609
 20
146.45935883393159
 40
0.1502702042863175
  0
CIRCLE
  8
_1-1_
  6
CONTINUOUS
 62
    7
 10
136.93311124234586
 20
147.21068511138091
 40
0.1502702042863175
  0
CIRCLE
  8
_1-1_
  6
CONTINUOUS
 62
    7
 10
141.59136385531039
 20
148.41282200168919
 40
0.1502702042863175
  0
CIRCLE
  8
_1-1_
  6
CONTINUOUS
 62
    7
 10
141.29082344673776
 20
148.26255179740289
 40
0.1502702042863175
  0
CIRCLE
  8
_1-1_
  6
CONTINUOUS
 62
    7
 10
140.38922696500211
 20
147.96201138883023
 40
0.1502702042863175
  0
CIRCLE
  8
_1-1_
  6
CONTINUOUS
 62
    7
 10
142.34269013275971
 20
147.66149572423987
 40
0.1502702042863175
  0
CIRCLE
  8
_1-1_
  6
CONTINUOUS
 62
    7
 10
144.74695154138513
 20
148.7133500382707
 40
0.1502702042863175
  0
CIRCLE
  8
_1-1_
  6
CONTINUOUS
 62
    7
 10
133.67733517208615
 20
138.69560035499367
 40
0.1502702042863175
  0
CIRCLE
  8
_1-1_
  6
CONTINUOUS
 62
    7
 10
135.18000009897594
 20
139.44693900443414
 40
0.1502702042863175
  0
CIRCLE
  8
_1-1_
  6
CONTINUOUS
 62
    7
 10
134.72920185810813
 20
140.49879331846495
 40
0.1502702042863175
  0
CIRCLE
  8
_1-1_
  6
CONTINUOUS
 62
    7
 10
139.83825271194047
 20
140.64905115076013
 40
0.1502702042863175
  0
CIRCLE
  8
_1-1_
  6
CONTINUOUS
 62
    7
 10
139.53771230336784
 20
140.49879331846495
 40
0.1502702042863175
  0
CIRCLE
  8
_1-1_
  6
CONTINUOUS
 62
    7
 10
138.63611582163219
 20
140.19826528188347
 40
0.1502702042863175
  0
CIRCLE
  8
_1-1_
  6
CONTINUOUS
 62
    7
 10
140.58957898938979
 20
139.89772487331081
 40
0.1502702042863175
  0
CIRCLE
  8
_1-1_
  6
CONTINUOUS
 62
    7
 10
142.99384039801521
 20
140.94959155933279
 40
0.1502702042863175
  0
CIRCLE
  8
_1-1_
  6
CONTINUOUS
 62
    7
 10
187.84983042124156
 20
157.21587722365922
 40
0.1502702042863175
  0
CIRCLE
  8
_1-1_
  6
CONTINUOUS
 62
    7
 10
189.95355142129435
 20
155.86348250105576
 40
0.1502702042863175
  0
CIRCLE
  8
_1-1_
  6
CONTINUOUS
 62
    7
 10
188.30062866210937
 20
158.26774390968117
 40
0.1502702042863175
  0
CIRCLE
  8
_1-1_
  6
CONTINUOUS
 62
    7
 10
188.90169710726352
 20
156.91533681508659
 40
0.1502702042863175
  0
CIRCLE
  8
_1-1_
  6
CONTINUOUS
 62
    7
 10
189.31962296769427
 20
157.38492811048354
 40
0.1502702042863175
  0
CIRCLE
  8
_1-1_
  6
CONTINUOUS
 62
    7
 10
188.26776865366344
 20
158.43678242451438
 40
0.1502702042863175
  0
CIRCLE
  8
_1-1_
  6
CONTINUOUS
 62
    7
 10
190.5123571447424
 20
156.83551272830448
 40
0.1502702042863175
  0
CIRCLE
  8
_1-1_
  6
CONTINUOUS
 62
    7
 10
192.61607814479521
 20
155.48311800570102
 40
0.1502702042863175
  0
CIRCLE
  8
_1-1_
  6
CONTINUOUS
 62
    7
 10
190.96315538561024
 20
157.88737941432643
 40
0.1502702042863175
  0
CIRCLE
  8
_1-1_
  6
CONTINUOUS
 62
    7
 10
191.56422383076438
 20
156.53497231973185
 40
0.1502702042863175
  0
CIRCLE
  8
_1-1_
  6
CONTINUOUS
 62
    7
 10
194.31597735430745
 20
153.79263388144005
 40
0.1502702042863175
  0
CIRCLE
  8
_1-1_
  6
CONTINUOUS
 62
    7
 10
196.41969835436024
 20
152.44023915883659
 40
0.1502702042863175
  0
CIRCLE
  8
_1-1_
  6
CONTINUOUS
 62
    7
 10
194.76677559517526
 20
154.84450056746201
 40
0.1502702042863175
  0
CIRCLE
  8
_1-1_
  6
CONTINUOUS
 62
    7
 10
195.3678440403294
 20
153.4920934728674
 40
0.1502702042863175
  0
CIRCLE
  8
_1-1_
  6
CONTINUOUS
 62
    7
 10
195.83741059174409
 20
152.52476460224875
 40
0.1502702042863175
  0
CIRCLE
  8
_1-1_
  6
CONTINUOUS
 62
    7
 10
197.94113159179687
 20
151.17236987964529
 40
0.1502702042863175
  0
CIRCLE
  8
_1-1_
  6
CONTINUOUS
 62
    7
 10
196.28820883261193
 20
153.5766312882707
 40
0.1502702042863175
  0
CIRCLE
  8
_1-1_
  6
CONTINUOUS
 62
    7
 10
196.88927727776607
 20
152.22422419367609
 40
0.1502702042863175
  0
CIRCLE
  8
_1-1_
  6
CONTINUOUS
 62
    7
 10
195.58384663349875
 20
154.68013866527662
 40
0.1502702042863175
  0
CIRCLE
  8
_1-1_
  6
CONTINUOUS
 62
    7
 10
197.68756763355154
 20
153.32774394267315
 40
0.1502702042863175
  0
CIRCLE
  8
_1-1_
  6
CONTINUOUS
 62
    7
 10
196.03464487436656
 20
155.73200535129857
 40
0.1502702042863175
  0
CIRCLE
  8
_1-1_
  6
CONTINUOUS
 62
    7
 10
196.6357133195207
 20
154.37959825670399
 40
0.1502702042863175
  0
CIRCLE
  8
_1-1_
  6
CONTINUOUS
 62
    7
 10
196.34456325221709
 20
154.68013866527662
 40
0.1502702042863175
  0
CIRCLE
  8
_1-1_
  6
CONTINUOUS
 62
    7
 10
198.44828425226987
 20
153.32774394267315
 40
0.1502702042863175
  0
CIRCLE
  8
_1-1_
  6
CONTINUOUS
 62
    7
 10
196.7953614930849
 20
155.73200535129857
 40
0.1502702042863175
  0
CIRCLE
  8
_1-1_
  6
CONTINUOUS
 62
    7
 10
197.39642993823904
 20
154.37959825670399
 40
0.1502702042863175
  0
CIRCLE
  8
_1-1_
  6
CONTINUOUS
 62
    7
 10
200.02139529666385
 20
152.14440010689401
 40
0.1502702042863175
  0
CIRCLE
  8
_1-1_
  6
CONTINUOUS
 62
    7
 10
200.47219353753169
 20
153.19626679291596
 40
0.1502702042863175
  0
CIRCLE
  8
_1-1_
  6
CONTINUOUS
 62
    7
 10
201.07326198268584
 20
151.84385969832138
 40
0.1502702042863175
  0
CIRCLE
  8
_1-1_
  6
CONTINUOUS
 62
    7
 10
200.40174742002745
 20
150.87653082770271
 40
0.1502702042863175
  0
CIRCLE
  8
_1-1_
  6
CONTINUOUS
 62
    7
 10
200.85254566089529
 20
151.92839751372466
 40
0.1502702042863175
  0
CIRCLE
  8
_1-1_
  6
CONTINUOUS
 62
    7
 10
201.45361410604943
 20
150.57599041913008
 40
0.1502702042863175
  0
CIRCLE
  8
_1-1_
  6
CONTINUOUS
 62
    7
 10
200.47689489416175
 20
153.32774394267315
 40
0.1502702042863175
  0
CIRCLE
  8
_1-1_
  6
CONTINUOUS
 62
    7
 10
192.99646738413219
 20
157.76529260583825
 40
0.1502702042863175
  0
CIRCLE
  8
_1-1_
  6
CONTINUOUS
 62
    7
 10
192.86967921901396
 20
154.34203689162797
 40
0.1502702042863175
  0
CIRCLE
  8
_1-1_
  6
CONTINUOUS
 62
    7
 10
176.61744813661318
 20
161.53602806297511
 40
0.1502702042863175
  0
CIRCLE
  8
_1-1_
  6
CONTINUOUS
 62
    7
 10
178.72116913666596
 20
160.18363334037164
 40
0.1502702042863175
  0
CIRCLE
  8
_1-1_
  6
CONTINUOUS
 62
    7
 10
177.06824637748102
 20
162.58789474899706
 40
0.1502702042863175
  0
CIRCLE
  8
_1-1_
  6
CONTINUOUS
 62
    7
 10
177.66931482263516
 20
161.23548765440245
 40
0.1502702042863175
  0
CIRCLE
  8
_1-1_
  6
CONTINUOUS
 62
    7
 10
178.08724068306589
 20
161.70507894979943
 40
0.1502702042863175
  0
CIRCLE
  8
_1-1_
  6
CONTINUOUS
 62
    7
 10
177.03538636903505
 20
162.75693326383023
 40
0.1502702042863175
  0
CIRCLE
  8
_1-1_
  6
CONTINUOUS
 62
    7
 10
179.27997486011404
 20
161.15566356762037
 40
0.1502702042863175
  0
CIRCLE
  8
_1-1_
  6
CONTINUOUS
 62
    7
 10
181.38369586016682
 20
159.8032688450169
 40
0.1502702042863175
  0
CIRCLE
  8
_1-1_
  6
CONTINUOUS
 62
    7
 10
179.73077310098185
 20
162.20753025364232
 40
0.1502702042863175
  0
CIRCLE
  8
_1-1_
  6
CONTINUOUS
 62
    7
 10
180.33184154613599
 20
160.85512315904774
 40
0.1502702042863175
  0
CIRCLE
  8
_1-1_
  6
CONTINUOUS
 62
    7
 10
183.08359506967906
 20
158.11278472075591
 40
0.1502702042863175
  0
CIRCLE
  8
_1-1_
  6
CONTINUOUS
 62
    7
 10
185.18731606973185
 20
156.76038999815245
 40
0.1502702042863175
  0
CIRCLE
  8
_1-1_
  6
CONTINUOUS
 62
    7
 10
183.53439331054687
 20
159.16465140677789
 40
0.1502702042863175
  0
CIRCLE
  8
_1-1_
  6
CONTINUOUS
 62
    7
 10
184.13546175570102
 20
157.81224431218328
 40
0.1502702042863175
  0
CIRCLE
  8
_1-1_
  6
CONTINUOUS
 62
    7
 10
184.60502830711573
 20
156.84491544156461
 40
0.1502702042863175
  0
CIRCLE
  8
_1-1_
  6
CONTINUOUS
 62
    7
 10
186.70874930716852
 20
155.49252071896115
 40
0.1502702042863175
  0
CIRCLE
  8
_1-1_
  6
CONTINUOUS
 62
    7
 10
185.05582654798354
 20
157.89678212758659
 40
0.1502702042863175
  0
CIRCLE
  8
_1-1_
  6
CONTINUOUS
 62
    7
 10
185.65689499313768
 20
156.54437503299198
 40
0.1502702042863175
  0
CIRCLE
  8
_1-1_
  6
CONTINUOUS
 62
    7
 10
184.35146434887037
 20
159.0002895045925
 40
0.1502702042863175
  0
CIRCLE
  8
_1-1_
  6
CONTINUOUS
 62
    7
 10
186.45518534892315
 20
157.64789478198904
 40
0.1502702042863175
  0
CIRCLE
  8
_1-1_
  6
CONTINUOUS
 62
    7
 10
184.80226258973818
 20
160.05215619061445
 40
0.1502702042863175
  0
CIRCLE
  8
_1-1_
  6
CONTINUOUS
 62
    7
 10
185.40333103489232
 20
158.69974909601984
 40
0.1502702042863175
  0
CIRCLE
  8
_1-1_
  6
CONTINUOUS
 62
    7
 10
185.1121809675887
 20
159.0002895045925
 40
0.1502702042863175
  0
CIRCLE
  8
_1-1_
  6
CONTINUOUS
 62
    7
 10
187.21590196764149
 20
157.64789478198904
 40
0.1502702042863175
  0
CIRCLE
  8
_1-1_
  6
CONTINUOUS
 62
    7
 10
185.56297920845651
 20
160.05215619061445
 40
0.1502702042863175
  0
CIRCLE
  8
_1-1_
  6
CONTINUOUS
 62
    7
 10
186.16404765361065
 20
158.69974909601984
 40
0.1502702042863175
  0
CIRCLE
  8
_1-1_
  6
CONTINUOUS
 62
    7
 10
188.7890130120355
 20
156.4645509462099
 40
0.1502702042863175
  0
CIRCLE
  8
_1-1_
  6
CONTINUOUS
 62
    7
 10
189.23981125290331
 20
157.51641763223185
 40
0.1502702042863175
  0
CIRCLE
  8
_1-1_
  6
CONTINUOUS
 62
    7
 10
189.84087969805745
 20
156.16401053763727
 40
0.1502702042863175
  0
CIRCLE
  8
_1-1_
  6
CONTINUOUS
 62
    7
 10
189.16936513539909
 20
155.19668166701859
 40
0.1502702042863175
  0
CIRCLE
  8
_1-1_
  6
CONTINUOUS
 62
    7
 10
189.6201633762669
 20
156.24854835304055
 40
0.1502702042863175
  0
CIRCLE
  8
_1-1_
  6
CONTINUOUS
 62
    7
 10
190.22123182142104
 20
154.89614125844597
 40
0.1502702042863175
  0
CIRCLE
  8
_1-1_
  6
CONTINUOUS
 62
    7
 10
189.24451260953336
 20
157.64789478198904
 40
0.1502702042863175
  0
CIRCLE
  8
_1-1_
  6
CONTINUOUS
 62
    7
 10
181.7640850995038
 20
162.08544344515414
 40
0.1502702042863175
  0
CIRCLE
  8
_1-1_
  6
CONTINUOUS
 62
    7
 10
181.63729693438557
 20
158.66218773094386
 40
0.1502702042863175
  0
CIRCLE
  8
_1-1_
  6
CONTINUOUS
 62
    7
 10
206.28247647672086
 20
149.15160308013091
 40
0.1502702042863175
  0
CIRCLE
  8
_1-1_
  6
CONTINUOUS
 62
    7
 10
208.38619747677367
 20
147.79920835752745
 40
0.1502702042863175
  0
CIRCLE
  8
_1-1_
  6
CONTINUOUS
 62
    7
 10
206.7332747175887
 20
150.20346976615289
 40
0.1502702042863175
  0
CIRCLE
  8
_1-1_
  6
CONTINUOUS
 62
    7
 10
207.33434316274284
 20
148.85106267155828
 40
0.1502702042863175
  0
CIRCLE
  8
_1-1_
  6
CONTINUOUS
 62
    7
 10
207.75225665118245
 20
149.32065396695523
 40
0.1502702042863175
  0
CIRCLE
  8
_1-1_
  6
CONTINUOUS
 62
    7
 10
206.70041470914273
 20
150.37250828098607
 40
0.1502702042863175
  0
CIRCLE
  8
_1-1_
  6
CONTINUOUS
 62
    7
 10
208.94501557221284
 20
148.7712385847762
 40
0.1502702042863175
  0
CIRCLE
  8
_1-1_
  6
CONTINUOUS
 62
    7
 10
211.04872420027451
 20
147.41884386217274
 40
0.1502702042863175
  0
CIRCLE
  8
_1-1_
  6
CONTINUOUS
 62
    7
 10
209.39580144108953
 20
149.82310527079815
 40
0.1502702042863175
  0
CIRCLE
  8
_1-1_
  6
CONTINUOUS
 62
    7
 10
209.99688225823482
 20
148.47069817620357
 40
0.1502702042863175
  0
CIRCLE
  8
_1-1_
  6
CONTINUOUS
 62
    7
 10
212.74861103779563
 20
145.72835973791175
 40
0.1502702042863175
  0
CIRCLE
  8
_1-1_
  6
CONTINUOUS
 62
    7
 10
214.85234440983953
 20
144.37596501530828
 40
0.1502702042863175
  0
CIRCLE
  8
_1-1_
  6
CONTINUOUS
 62
    7
 10
213.19942165065459
 20
146.7802264239337
 40
0.1502702042863175
  0
CIRCLE
  8
_1-1_
  6
CONTINUOUS
 62
    7
 10
213.80047772381758
 20
145.42781932933912
 40
0.1502702042863175
  0
CIRCLE
  8
_1-1_
  6
CONTINUOUS
 62
    7
 10
214.27006901921453
 20
144.46049045872044
 40
0.1502702042863175
  0
CIRCLE
  8
_1-1_
  6
CONTINUOUS
 62
    7
 10
216.3737776472762
 20
143.10809573611698
 40
0.1502702042863175
  0
CIRCLE
  8
_1-1_
  6
CONTINUOUS
 62
    7
 10
214.72085488809122
 20
145.5123571447424
 40
0.1502702042863175
  0
CIRCLE
  8
_1-1_
  6
CONTINUOUS
 62
    7
 10
215.32193570523651
 20
144.15995005014781
 40
0.1502702042863175
  0
CIRCLE
  8
_1-1_
  6
CONTINUOUS
 62
    7
 10
214.01649268897805
 20
146.61586452174831
 40
0.1502702042863175
  0
CIRCLE
  8
_1-1_
  6
CONTINUOUS
 62
    7
 10
216.12022606102198
 20
145.26346979914484
 40
0.1502702042863175
  0
CIRCLE
  8
_1-1_
  6
CONTINUOUS
 62
    7
 10
214.46727855785474
 20
147.66773120777029
 40
0.1502702042863175
  0
CIRCLE
  8
_1-1_
  6
CONTINUOUS
 62
    7
 10
215.068359375
 20
146.31532411317568
 40
0.1502702042863175
  0
CIRCLE
  8
_1-1_
  6
CONTINUOUS
 62
    7
 10
214.7772216796875
 20
146.61586452174831
 40
0.1502702042863175
  0
CIRCLE
  8
_1-1_
  6
CONTINUOUS
 62
    7
 10
216.88093030774917
 20
145.26346979914484
 40
0.1502702042863175
  0
CIRCLE
  8
_1-1_
  6
CONTINUOUS
 62
    7
 10
215.22800754856419
 20
147.66773120777029
 40
0.1502702042863175
  0
CIRCLE
  8
_1-1_
  6
CONTINUOUS
 62
    7
 10
215.82908836570948
 20
146.31532411317568
 40
0.1502702042863175
  0
CIRCLE
  8
_1-1_
  6
CONTINUOUS
 62
    7
 10
218.45402898015203
 20
144.08012596336573
 40
0.1502702042863175
  0
CIRCLE
  8
_1-1_
  6
CONTINUOUS
 62
    7
 10
218.90483959301099
 20
145.13199264938768
 40
0.1502702042863175
  0
CIRCLE
  8
_1-1_
  6
CONTINUOUS
 62
    7
 10
219.50589566617401
 20
143.77958555479307
 40
0.1502702042863175
  0
CIRCLE
  8
_1-1_
  6
CONTINUOUS
 62
    7
 10
218.83439347550677
 20
142.81225668417443
 40
0.1502702042863175
  0
CIRCLE
  8
_1-1_
  6
CONTINUOUS
 62
    7
 10
219.28517934438347
 20
143.86412337019638
 40
0.1502702042863175
  0
CIRCLE
  8
_1-1_
  6
CONTINUOUS
 62
    7
 10
219.88626016152872
 20
142.51171627560177
 40
0.1502702042863175
  0
CIRCLE
  8
_1-1_
  6
CONTINUOUS
 62
    7
 10
218.90954094964107
 20
145.26346979914484
 40
0.1502702042863175
  0
CIRCLE
  8
_1-1_
  6
CONTINUOUS
 62
    7
 10
211.42911343961148
 20
149.70101846230997
 40
0.1502702042863175
  0
CIRCLE
  8
_1-1_
  6
CONTINUOUS
 62
    7
 10
211.30232527449326
 20
146.27776274809966
 40
0.1502702042863175
  0
CIRCLE
  8
_1-1_
  6
CONTINUOUS
 62
    7
 10
214.05875541068414
 20
146.27150252058701
 40
0.1502702042863175
  0
CIRCLE
  8
_1-1_
  6
CONTINUOUS
 62
    7
 10
216.16246403874578
 20
144.91910779798354
 40
0.1502702042863175
  0
CIRCLE
  8
_1-1_
  6
CONTINUOUS
 62
    7
 10
214.50954127956084
 20
147.32336920660896
 40
0.1502702042863175
  0
CIRCLE
  8
_1-1_
  6
CONTINUOUS
 62
    7
 10
215.11062209670609
 20
145.97096211201438
 40
0.1502702042863175
  0
CIRCLE
  8
_1-1_
  6
CONTINUOUS
 62
    7
 10
215.52854795713682
 20
146.44055340741133
 40
0.1502702042863175
  0
CIRCLE
  8
_1-1_
  6
CONTINUOUS
 62
    7
 10
214.47668127111487
 20
147.49240772144216
 40
0.1502702042863175
  0
CIRCLE
  8
_1-1_
  6
CONTINUOUS
 62
    7
 10
216.72125739020271
 20
145.89113802523227
 40
0.1502702042863175
  0
CIRCLE
  8
_1-1_
  6
CONTINUOUS
 62
    7
 10
218.82499076224664
 20
144.5387433026288
 40
0.1502702042863175
  0
CIRCLE
  8
_1-1_
  6
CONTINUOUS
 62
    7
 10
217.17206800306167
 20
146.94300471125422
 40
0.1502702042863175
  0
CIRCLE
  8
_1-1_
  6
CONTINUOUS
 62
    7
 10
217.77312407622466
 20
145.59059761665964
 40
0.1502702042863175
  0
CIRCLE
  8
_1-1_
  6
CONTINUOUS
 62
    7
 10
220.52490234375
 20
142.84825917836784
 40
0.1502702042863175
  0
CIRCLE
  8
_1-1_
  6
CONTINUOUS
 62
    7
 10
222.62861097181167
 20
141.49586445576438
 40
0.1502702042863175
  0
CIRCLE
  8
_1-1_
  6
CONTINUOUS
 62
    7
 10
220.97568821262669
 20
143.90012586438979
 40
0.1502702042863175
  0
CIRCLE
  8
_1-1_
  6
CONTINUOUS
 62
    7
 10
221.57676902977198
 20
142.54771876979518
 40
0.1502702042863175
  0
CIRCLE
  8
_1-1_
  6
CONTINUOUS
 62
    7
 10
222.0463108372044
 20
141.58038989917654
 40
0.1502702042863175
  0
CIRCLE
  8
_1-1_
  6
CONTINUOUS
 62
    7
 10
224.15004420924834
 20
140.22799517657307
 40
0.1502702042863175
  0
CIRCLE
  8
_1-1_
  6
CONTINUOUS
 62
    7
 10
222.49712145006336
 20
142.63225658519849
 40
0.1502702042863175
  0
CIRCLE
  8
_1-1_
  6
CONTINUOUS
 62
    7
 10
223.09817752322635
 20
141.27984949060388
 40
0.1502702042863175
  0
CIRCLE
  8
_1-1_
  6
CONTINUOUS
 62
    7
 10
221.79275925095018
 20
143.7357639622044
 40
0.1502702042863175
  0
CIRCLE
  8
_1-1_
  6
CONTINUOUS
 62
    7
 10
223.89646787901182
 20
142.38336923960094
 40
0.1502702042863175
  0
CIRCLE
  8
_1-1_
  6
CONTINUOUS
 62
    7
 10
222.24356986380914
 20
144.78763064822635
 40
0.1502702042863175
  0
CIRCLE
  8
_1-1_
  6
CONTINUOUS
 62
    7
 10
222.84462593697214
 20
143.43522355363177
 40
0.1502702042863175
  0
CIRCLE
  8
_1-1_
  6
CONTINUOUS
 62
    7
 10
222.55346349767737
 20
143.7357639622044
 40
0.1502702042863175
  0
CIRCLE
  8
_1-1_
  6
CONTINUOUS
 62
    7
 10
224.6571968697213
 20
142.38336923960094
 40
0.1502702042863175
  0
CIRCLE
  8
_1-1_
  6
CONTINUOUS
 62
    7
 10
223.00427411053633
 20
144.78763064822635
 40
0.1502702042863175
  0
CIRCLE
  8
_1-1_
  6
CONTINUOUS
 62
    7
 10
223.60533018369932
 20
143.43522355363177
 40
0.1502702042863175
  0
CIRCLE
  8
_1-1_
  6
CONTINUOUS
 62
    7
 10
226.23032028610643
 20
141.2000254038218
 40
0.1502702042863175
  0
CIRCLE
  8
_1-1_
  6
CONTINUOUS
 62
    7
 10
226.68110615498313
 20
142.25189208984375
 40
0.1502702042863175
  0
CIRCLE
  8
_1-1_
  6
CONTINUOUS
 62
    7
 10
227.28218697212839
 20
140.89948499524917
 40
0.1502702042863175
  0
CIRCLE
  8
_1-1_
  6
CONTINUOUS
 62
    7
 10
226.61066003747891
 20
139.9321561246305
 40
0.1502702042863175
  0
CIRCLE
  8
_1-1_
  6
CONTINUOUS
 62
    7
 10
227.06147065033784
 20
140.98402281065245
 40
0.1502702042863175
  0
CIRCLE
  8
_1-1_
  6
CONTINUOUS
 62
    7
 10
227.66252672350086
 20
139.63161571605787
 40
0.1502702042863175
  0
CIRCLE
  8
_1-1_
  6
CONTINUOUS
 62
    7
 10
226.68580751161318
 20
142.38336923960094
 40
0.1502702042863175
  0
CIRCLE
  8
_1-1_
  6
CONTINUOUS
 62
    7
 10
219.20538000158362
 20
146.82091790276607
 40
0.1502702042863175
  0
CIRCLE
  8
_1-1_
  6
CONTINUOUS
 62
    7
 10
219.07859183646539
 20
143.39766218855576
 40
0.1502702042863175
  0
CIRCLE
  8
_1-1_
  6
CONTINUOUS
 62
    7
 10
227.30722788217906
 20
138.49522358662375
 40
0.1502702042863175
  0
CIRCLE
  8
_1-1_
  6
CONTINUOUS
 62
    7
 10
229.41093651024073
 20
137.14282886402029
 40
0.1502702042863175
  0
CIRCLE
  8
_1-1_
  6
CONTINUOUS
 62
    7
 10
227.75801375105576
 20
139.5470902726457
 40
0.1502702042863175
  0
CIRCLE
  8
_1-1_
  6
CONTINUOUS
 62
    7
 10
228.35909456820102
 20
138.19468317805109
 40
0.1502702042863175
  0
CIRCLE
  8
_1-1_
  6
CONTINUOUS
 62
    7
 10
228.77702042863177
 20
138.66427447344807
 40
0.1502702042863175
  0
CIRCLE
  8
_1-1_
  6
CONTINUOUS
 62
    7
 10
227.72515374260982
 20
139.71612878747888
 40
0.1502702042863175
  0
CIRCLE
  8
_1-1_
  6
CONTINUOUS
 62
    7
 10
229.96972986169766
 20
138.11485909126901
 40
0.1502702042863175
  0
CIRCLE
  8
_1-1_
  6
CONTINUOUS
 62
    7
 10
232.07346323374156
 20
136.76246436866555
 40
0.1502702042863175
  0
CIRCLE
  8
_1-1_
  6
CONTINUOUS
 62
    7
 10
230.42054047455659
 20
139.16672577729096
 40
0.1502702042863175
  0
CIRCLE
  8
_1-1_
  6
CONTINUOUS
 62
    7
 10
231.02159654771961
 20
137.81431868269638
 40
0.1502702042863175
  0
CIRCLE
  8
_1-1_
  6
CONTINUOUS
 62
    7
 10
233.77337481524495
 20
135.07198024440456
 40
0.1502702042863175
  0
CIRCLE
  8
_1-1_
  6
CONTINUOUS
 62
    7
 10
235.87708344330659
 20
133.71958552180109
 40
0.1502702042863175
  0
CIRCLE
  8
_1-1_
  6
CONTINUOUS
 62
    7
 10
234.22416068412164
 20
136.12384693042654
 40
0.1502702042863175
  0
CIRCLE
  8
_1-1_
  6
CONTINUOUS
 62
    7
 10
234.8252415012669
 20
134.77143983583193
 40
0.1502702042863175
  0
CIRCLE
  8
_1-1_
  6
CONTINUOUS
 62
    7
 10
235.29478330869935
 20
133.80411096521325
 40
0.1502702042863175
  0
CIRCLE
  8
_1-1_
  6
CONTINUOUS
 62
    7
 10
237.39851668074326
 20
132.45171624260979
 40
0.1502702042863175
  0
CIRCLE
  8
_1-1_
  6
CONTINUOUS
 62
    7
 10
235.74559392155828
 20
134.85597765123524
 40
0.1502702042863175
  0
CIRCLE
  8
_1-1_
  6
CONTINUOUS
 62
    7
 10
236.3466499947213
 20
133.50357055664062
 40
0.1502702042863175
  0
CIRCLE
  8
_1-1_
  6
CONTINUOUS
 62
    7
 10
235.0412317224451
 20
135.95948502824115
 40
0.1502702042863175
  0
CIRCLE
  8
_1-1_
  6
CONTINUOUS
 62
    7
 10
237.14494035050677
 20
134.60709030563768
 40
0.1502702042863175
  0
CIRCLE
  8
_1-1_
  6
CONTINUOUS
 62
    7
 10
235.49204233530406
 20
137.0113517142631
 40
0.1502702042863175
  0
CIRCLE
  8
_1-1_
  6
CONTINUOUS
 62
    7
 10
236.09309840846709
 20
135.65894461966852
 40
0.1502702042863175
  0
CIRCLE
  8
_1-1_
  6
CONTINUOUS
 62
    7
 10
235.80193596917232
 20
135.95948502824115
 40
0.1502702042863175
  0
CIRCLE
  8
_1-1_
  6
CONTINUOUS
 62
    7
 10
237.90566934121622
 20
134.60709030563768
 40
0.1502702042863175
  0
CIRCLE
  8
_1-1_
  6
CONTINUOUS
 62
    7
 10
236.25274658203125
 20
137.0113517142631
 40
0.1502702042863175
  0
CIRCLE
  8
_1-1_
  6
CONTINUOUS
 62
    7
 10
236.85380265519427
 20
135.65894461966852
 40
0.1502702042863175
  0
CIRCLE
  8
_1-1_
  6
CONTINUOUS
 62
    7
 10
239.47879275760135
 20
133.42374646985854
 40
0.1502702042863175
  0
CIRCLE
  8
_1-1_
  6
CONTINUOUS
 62
    7
 10
239.92957862647805
 20
134.4756131558805
 40
0.1502702042863175
  0
CIRCLE
  8
_1-1_
  6
CONTINUOUS
 62
    7
 10
240.53065944362334
 20
133.12320606128591
 40
0.1502702042863175
  0
CIRCLE
  8
_1-1_
  6
CONTINUOUS
 62
    7
 10
239.85913250897383
 20
132.15587719066724
 40
0.1502702042863175
  0
CIRCLE
  8
_1-1_
  6
CONTINUOUS
 62
    7
 10
240.30994312183279
 20
133.20774387668919
 40
0.1502702042863175
  0
CIRCLE
  8
_1-1_
  6
CONTINUOUS
 62
    7
 10
240.91099919499578
 20
131.85533678209461
 40
0.1502702042863175
  0
CIRCLE
  8
_1-1_
  6
CONTINUOUS
 62
    7
 10
239.93427998310813
 20
134.60709030563768
 40
0.1502702042863175
  0
CIRCLE
  8
_1-1_
  6
CONTINUOUS
 62
    7
 10
232.45385247307857
 20
139.04463896880279
 40
0.1502702042863175
  0
CIRCLE
  8
_1-1_
  6
CONTINUOUS
 62
    7
 10
232.32706430796031
 20
135.6213832545925
 40
0.1502702042863175
  0
CIRCLE
  8
_1-1_
  6
CONTINUOUS
 62
    7
 10
239.9796604465794
 20
136.19115056218328
 40
0.1502702042863175
  0
CIRCLE
  8
_1-1_
  6
CONTINUOUS
 62
    7
 10
242.08336907464107
 20
134.83875583957982
 40
0.1502702042863175
  0
CIRCLE
  8
_1-1_
  6
CONTINUOUS
 62
    7
 10
240.43044631545609
 20
137.24301724820523
 40
0.1502702042863175
  0
CIRCLE
  8
_1-1_
  6
CONTINUOUS
 62
    7
 10
241.03152713260135
 20
135.89061015361065
 40
0.1502702042863175
  0
CIRCLE
  8
_1-1_
  6
CONTINUOUS
 62
    7
 10
241.44945299303211
 20
136.3602014490076
 40
0.1502702042863175
  0
CIRCLE
  8
_1-1_
  6
CONTINUOUS
 62
    7
 10
240.39758630701016
 20
137.41205576303844
 40
0.1502702042863175
  0
CIRCLE
  8
_1-1_
  6
CONTINUOUS
 62
    7
 10
242.642162426098
 20
135.81078606682854
 40
0.1502702042863175
  0
CIRCLE
  8
_1-1_
  6
CONTINUOUS
 62
    7
 10
244.7458957981419
 20
134.45839134422511
 40
0.1502702042863175
  0
CIRCLE
  8
_1-1_
  6
CONTINUOUS
 62
    7
 10
243.09297303895693
 20
136.86265275285052
 40
0.1502702042863175
  0
CIRCLE
  8
_1-1_
  6
CONTINUOUS
 62
    7
 10
243.69402911211995
 20
135.51024565825591
 40
0.1502702042863175
  0
CIRCLE
  8
_1-1_
  6
CONTINUOUS
 62
    7
 10
246.44580737964529
 20
132.76790721996412
 40
0.1502702042863175
  0
CIRCLE
  8
_1-1_
  6
CONTINUOUS
 62
    7
 10
248.54951600770693
 20
131.41551249736065
 40
0.1502702042863175
  0
CIRCLE
  8
_1-1_
  6
CONTINUOUS
 62
    7
 10
246.89659324852198
 20
133.81977390598607
 40
0.1502702042863175
  0
CIRCLE
  8
_1-1_
  6
CONTINUOUS
 62
    7
 10
247.49767406566724
 20
132.46736681139149
 40
0.1502702042863175
  0
CIRCLE
  8
_1-1_
  6
CONTINUOUS
 62
    7
 10
247.96721587309969
 20
131.50003794077281
 40
0.1502702042863175
  0
CIRCLE
  8
_1-1_
  6
CONTINUOUS
 62
    7
 10
250.07094924514359
 20
130.14764321816935
 40
0.1502702042863175
  0
CIRCLE
  8
_1-1_
  6
CONTINUOUS
 62
    7
 10
248.41802648595862
 20
132.55190462679477
 40
0.1502702042863175
  0
CIRCLE
  8
_1-1_
  6
CONTINUOUS
 62
    7
 10
249.01908255912164
 20
131.19949753220018
 40
0.1502702042863175
  0
CIRCLE
  8
_1-1_
  6
CONTINUOUS
 62
    7
 10
247.71366428684544
 20
133.65541200380068
 40
0.1502702042863175
  0
CIRCLE
  8
_1-1_
  6
CONTINUOUS
 62
    7
 10
249.81737291490711
 20
132.30301728119721
 40
0.1502702042863175
  0
CIRCLE
  8
_1-1_
  6
CONTINUOUS
 62
    7
 10
248.1644748997044
 20
134.70727868982263
 40
0.1502702042863175
  0
CIRCLE
  8
_1-1_
  6
CONTINUOUS
 62
    7
 10
248.76553097286742
 20
133.35487159522805
 40
0.1502702042863175
  0
CIRCLE
  8
_1-1_
  6
CONTINUOUS
 62
    7
 10
248.47436853357266
 20
133.65541200380068
 40
0.1502702042863175
  0
CIRCLE
  8
_1-1_
  6
CONTINUOUS
 62
    7
 10
250.57810190561656
 20
132.30301728119721
 40
0.1502702042863175
  0
CIRCLE
  8
_1-1_
  6
CONTINUOUS
 62
    7
 10
248.92517914643159
 20
134.70727868982263
 40
0.1502702042863175
  0
CIRCLE
  8
_1-1_
  6
CONTINUOUS
 62
    7
 10
249.52623521959461
 20
133.35487159522805
 40
0.1502702042863175
  0
CIRCLE
  8
_1-1_
  6
CONTINUOUS
 62
    7
 10
252.15122532200169
 20
131.11967344541807
 40
0.1502702042863175
  0
CIRCLE
  8
_1-1_
  6
CONTINUOUS
 62
    7
 10
252.60201119087839
 20
132.17154013144005
 40
0.1502702042863175
  0
CIRCLE
  8
_1-1_
  6
CONTINUOUS
 62
    7
 10
253.20309200802367
 20
130.81913303684544
 40
0.1502702042863175
  0
CIRCLE
  8
_1-1_
  6
CONTINUOUS
 62
    7
 10
252.53156507337417
 20
129.85180416622677
 40
0.1502702042863175
  0
CIRCLE
  8
_1-1_
  6
CONTINUOUS
 62
    7
 10
252.98237568623313
 20
130.90367085224875
 40
0.1502702042863175
  0
CIRCLE
  8
_1-1_
  6
CONTINUOUS
 62
    7
 10
253.58343175939612
 20
129.55126375765414
 40
0.1502702042863175
  0
CIRCLE
  8
_1-1_
  6
CONTINUOUS
 62
    7
 10
252.60671254750847
 20
132.30301728119721
 40
0.1502702042863175
  0
CIRCLE
  8
_1-1_
  6
CONTINUOUS
 62
    7
 10
245.12628503747891
 20
136.74056594436234
 40
0.1502702042863175
  0
CIRCLE
  8
_1-1_
  6
CONTINUOUS
 62
    7
 10
244.99949687236065
 20
133.31731023015203
 40
0.1502702042863175
  0
CIRCLE
  8
_1-1_
  6
CONTINUOUS
 62
    7
 10
257.26026380384292
 20
126.97483372043919
 40
0.1502702042863175
  0
CIRCLE
  8
_1-1_
  6
CONTINUOUS
 62
    7
 10
259.36397243190459
 20
125.62243899783573
 40
0.1502702042863175
  0
CIRCLE
  8
_1-1_
  6
CONTINUOUS
 62
    7
 10
257.71104967271958
 20
128.02670040646115
 40
0.1502702042863175
  0
CIRCLE
  8
_1-1_
  6
CONTINUOUS
 62
    7
 10
258.3121304898649
 20
126.67429331186656
 40
0.1502702042863175
  0
CIRCLE
  8
_1-1_
  6
CONTINUOUS
 62
    7
 10
258.73005635029563
 20
127.14388460726352
 40
0.1502702042863175
  0
CIRCLE
  8
_1-1_
  6
CONTINUOUS
 62
    7
 10
257.67818966427365
 20
128.19573892129435
 40
0.1502702042863175
  0
CIRCLE
  8
_1-1_
  6
CONTINUOUS
 62
    7
 10
259.92276578336151
 20
126.59446922508447
 40
0.1502702042863175
  0
CIRCLE
  8
_1-1_
  6
CONTINUOUS
 62
    7
 10
262.02649915540542
 20
125.242074502481
 40
0.1502702042863175
  0
CIRCLE
  8
_1-1_
  6
CONTINUOUS
 62
    7
 10
260.37357639622047
 20
127.64633591110642
 40
0.1502702042863175
  0
CIRCLE
  8
_1-1_
  6
CONTINUOUS
 62
    7
 10
260.97463246938344
 20
126.29392881651184
 40
0.1502702042863175
  0
CIRCLE
  8
_1-1_
  6
CONTINUOUS
 62
    7
 10
263.7264107369088
 20
123.55159037822003
 40
0.1502702042863175
  0
CIRCLE
  8
_1-1_
  6
CONTINUOUS
 62
    7
 10
265.83011936497047
 20
122.19919565561656
 40
0.1502702042863175
  0
CIRCLE
  8
_1-1_
  6
CONTINUOUS
 62
    7
 10
264.17719660578547
 20
124.60345706424198
 40
0.1502702042863175
  0
CIRCLE
  8
_1-1_
  6
CONTINUOUS
 62
    7
 10
264.77827742293078
 20
123.25104996964738
 40
0.1502702042863175
  0
CIRCLE
  8
_1-1_
  6
CONTINUOUS
 62
    7
 10
265.24781923036318
 20
122.28372109902872
 40
0.1502702042863175
  0
CIRCLE
  8
_1-1_
  6
CONTINUOUS
 62
    7
 10
267.35155260240708
 20
120.93132637642526
 40
0.1502702042863175
  0
CIRCLE
  8
_1-1_
  6
CONTINUOUS
 62
    7
 10
265.69862984322214
 20
123.33558778505068
 40
0.1502702042863175
  0
CIRCLE
  8
_1-1_
  6
CONTINUOUS
 62
    7
 10
266.29968591638516
 20
121.98318069045609
 40
0.1502702042863175
  0
CIRCLE
  8
_1-1_
  6
CONTINUOUS
 62
    7
 10
264.99426764410896
 20
124.43909516205659
 40
0.1502702042863175
  0
CIRCLE
  8
_1-1_
  6
CONTINUOUS
 62
    7
 10
267.09797627217063
 20
123.08670043945312
 40
0.1502702042863175
  0
CIRCLE
  8
_1-1_
  6
CONTINUOUS
 62
    7
 10
265.44507825696792
 20
125.49096184807856
 40
0.1502702042863175
  0
CIRCLE
  8
_1-1_
  6
CONTINUOUS
 62
    7
 10
266.04613433013094
 20
124.13855475348396
 40
0.1502702042863175
  0
CIRCLE
  8
_1-1_
  6
CONTINUOUS
 62
    7
 10
265.75497189083615
 20
124.43909516205659
 40
0.1502702042863175
  0
CIRCLE
  8
_1-1_
  6
CONTINUOUS
 62
    7
 10
267.85870526288011
 20
123.08670043945312
 40
0.1502702042863175
  0
CIRCLE
  8
_1-1_
  6
CONTINUOUS
 62
    7
 10
266.2057825036951
 20
125.49096184807856
 40
0.1502702042863175
  0
CIRCLE
  8
_1-1_
  6
CONTINUOUS
 62
    7
 10
266.80683857685813
 20
124.13855475348396
 40
0.1502702042863175
  0
CIRCLE
  8
_1-1_
  6
CONTINUOUS
 62
    7
 10
269.43182867926521
 20
121.903356603674
 40
0.1502702042863175
  0
CIRCLE
  8
_1-1_
  6
CONTINUOUS
 62
    7
 10
269.88261454814193
 20
122.95522328969595
 40
0.1502702042863175
  0
CIRCLE
  8
_1-1_
  6
CONTINUOUS
 62
    7
 10
270.48369536528719
 20
121.60281619510135
 40
0.1502702042863175
  0
CIRCLE
  8
_1-1_
  6
CONTINUOUS
 62
    7
 10
269.81216843063771
 20
120.6354873244827
 40
0.1502702042863175
  0
CIRCLE
  8
_1-1_
  6
CONTINUOUS
 62
    7
 10
270.26297904349661
 20
121.68735401050465
 40
0.1502702042863175
  0
CIRCLE
  8
_1-1_
  6
CONTINUOUS
 62
    7
 10
270.86403511665964
 20
120.33494691591005
 40
0.1502702042863175
  0
CIRCLE
  8
_1-1_
  6
CONTINUOUS
 62
    7
 10
269.88731590477198
 20
123.08670043945312
 40
0.1502702042863175
  0
CIRCLE
  8
_1-1_
  6
CONTINUOUS
 62
    7
 10
262.4068883947424
 20
127.52424910261826
 40
0.1502702042863175
  0
CIRCLE
  8
_1-1_
  6
CONTINUOUS
 62
    7
 10
262.28010022962417
 20
124.10099338840794
 40
0.1502702042863175
  0
CIRCLE
  8
_1-1_
  6
CONTINUOUS
 62
    7
 10
248.04392221811656
 20
127.55084888355152
 40
0.1502702042863175
  0
CIRCLE
  8
_1-1_
  6
CONTINUOUS
 62
    7
 10
250.14763084617823
 20
126.19845416094806
 40
0.1502702042863175
  0
CIRCLE
  8
_1-1_
  6
CONTINUOUS
 62
    7
 10
248.49470808699326
 20
128.60271556957349
 40
0.1502702042863175
  0
CIRCLE
  8
_1-1_
  6
CONTINUOUS
 62
    7
 10
249.09578890413852
 20
127.25030847497889
 40
0.1502702042863175
  0
CIRCLE
  8
_1-1_
  6
CONTINUOUS
 62
    7
 10
249.51371476456927
 20
127.71989977037585
 40
0.1502702042863175
  0
CIRCLE
  8
_1-1_
  6
CONTINUOUS
 62
    7
 10
248.46184807854732
 20
128.77175408440667
 40
0.1502702042863175
  0
CIRCLE
  8
_1-1_
  6
CONTINUOUS
 62
    7
 10
250.70642419763516
 20
127.1704843881968
 40
0.1502702042863175
  0
CIRCLE
  8
_1-1_
  6
CONTINUOUS
 62
    7
 10
252.81015756967906
 20
125.81808966559333
 40
0.1502702042863175
  0
CIRCLE
  8
_1-1_
  6
CONTINUOUS
 62
    7
 10
251.15723481049409
 20
128.22235107421875
 40
0.1502702042863175
  0
CIRCLE
  8
_1-1_
  6
CONTINUOUS
 62
    7
 10
251.75829088365711
 20
126.86994397962417
 40
0.1502702042863175
  0
CIRCLE
  8
_1-1_
  6
CONTINUOUS
 62
    7
 10
254.96085502005914
 20
125.17947222735431
 40
0.1502702042863175
  0
CIRCLE
  8
_1-1_
  6
CONTINUOUS
 62
    7
 10
255.7779260583826
 20
125.01511032516892
 40
0.1502702042863175
  0
CIRCLE
  8
_1-1_
  6
CONTINUOUS
 62
    7
 10
257.88163468644427
 20
123.66271560256547
 40
0.1502702042863175
  0
CIRCLE
  8
_1-1_
  6
CONTINUOUS
 62
    7
 10
256.22873667124156
 20
126.06697701119089
 40
0.1502702042863175
  0
CIRCLE
  8
_1-1_
  6
CONTINUOUS
 62
    7
 10
256.53863030510979
 20
125.01511032516892
 40
0.1502702042863175
  0
CIRCLE
  8
_1-1_
  6
CONTINUOUS
 62
    7
 10
258.64236367715375
 20
123.66271560256547
 40
0.1502702042863175
  0
CIRCLE
  8
_1-1_
  6
CONTINUOUS
 62
    7
 10
256.98944091796875
 20
126.06697701119089
 40
0.1502702042863175
  0
CIRCLE
  8
_1-1_
  6
CONTINUOUS
 62
    7
 10
257.59049699113177
 20
124.71456991659629
 40
0.1502702042863175
  0
CIRCLE
  8
_1-1_
  6
CONTINUOUS
 62
    7
 10
260.21548709353885
 20
122.47937176678633
 40
0.1502702042863175
  0
CIRCLE
  8
_1-1_
  6
CONTINUOUS
 62
    7
 10
260.66627296241558
 20
123.53123845280828
 40
0.1502702042863175
  0
CIRCLE
  8
_1-1_
  6
CONTINUOUS
 62
    7
 10
261.26735377956084
 20
122.17883135821369
 40
0.1502702042863175
  0
CIRCLE
  8
_1-1_
  6
CONTINUOUS
 62
    7
 10
261.04663745777026
 20
122.26336917361698
 40
0.1502702042863175
  0
CIRCLE
  8
_1-1_
  6
CONTINUOUS
 62
    7
 10
260.67097431904563
 20
123.66271560256547
 40
0.1502702042863175
  0
CIRCLE
  8
_1-1_
  6
CONTINUOUS
 62
    7
 10
253.19054680901607
 20
128.10026426573057
 40
0.1502702042863175
  0
CIRCLE
  8
_1-1_
  6
CONTINUOUS
 62
    7
 10
234.79544974662164
 20
134.46309270085516
 40
0.1502702042863175
  0
CIRCLE
  8
_1-1_
  6
CONTINUOUS
 62
    7
 10
236.89918311866555
 20
133.11069797825169
 40
0.1502702042863175
  0
CIRCLE
  8
_1-1_
  6
CONTINUOUS
 62
    7
 10
235.2462603594806
 20
135.51495938687711
 40
0.1502702042863175
  0
CIRCLE
  8
_1-1_
  6
CONTINUOUS
 62
    7
 10
235.84731643264359
 20
134.16255229228253
 40
0.1502702042863175
  0
CIRCLE
  8
_1-1_
  6
CONTINUOUS
 62
    7
 10
236.26524229307435
 20
134.63214358767948
 40
0.1502702042863175
  0
CIRCLE
  8
_1-1_
  6
CONTINUOUS
 62
    7
 10
235.21340035103464
 20
135.68399790171031
 40
0.1502702042863175
  0
CIRCLE
  8
_1-1_
  6
CONTINUOUS
 62
    7
 10
237.45800121410474
 20
134.08272820550042
 40
0.1502702042863175
  0
CIRCLE
  8
_1-1_
  6
CONTINUOUS
 62
    7
 10
239.56170984216641
 20
132.73033348289698
 40
0.1502702042863175
  0
CIRCLE
  8
_1-1_
  6
CONTINUOUS
 62
    7
 10
237.90878708298143
 20
135.1345948915224
 40
0.1502702042863175
  0
CIRCLE
  8
_1-1_
  6
CONTINUOUS
 62
    7
 10
238.50986790012669
 20
133.78218779692779
 40
0.1502702042863175
  0
CIRCLE
  8
_1-1_
  6
CONTINUOUS
 62
    7
 10
241.2615966796875
 20
131.03984935863599
 40
0.1502702042863175
  0
CIRCLE
  8
_1-1_
  6
CONTINUOUS
 62
    7
 10
243.36533005173143
 20
129.68745463603253
 40
0.1502702042863175
  0
CIRCLE
  8
_1-1_
  6
CONTINUOUS
 62
    7
 10
241.71240729254646
 20
132.09171604465794
 40
0.1502702042863175
  0
CIRCLE
  8
_1-1_
  6
CONTINUOUS
 62
    7
 10
242.31346336570948
 20
130.73930895006336
 40
0.1502702042863175
  0
CIRCLE
  8
_1-1_
  6
CONTINUOUS
 62
    7
 10
242.78305466110643
 20
129.77198007944469
 40
0.1502702042863175
  0
CIRCLE
  8
_1-1_
  6
CONTINUOUS
 62
    7
 10
244.8867632891681
 20
128.41958535684122
 40
0.1502702042863175
  0
CIRCLE
  8
_1-1_
  6
CONTINUOUS
 62
    7
 10
243.23384052998313
 20
130.82384676546664
 40
0.1502702042863175
  0
CIRCLE
  8
_1-1_
  6
CONTINUOUS
 62
    7
 10
243.83492134712839
 20
129.47143967087206
 40
0.1502702042863175
  0
CIRCLE
  8
_1-1_
  6
CONTINUOUS
 62
    7
 10
242.52947833086995
 20
131.92735414247255
 40
0.1502702042863175
  0
CIRCLE
  8
_1-1_
  6
CONTINUOUS
 62
    7
 10
244.63321170291385
 20
130.57495941986909
 40
0.1502702042863175
  0
CIRCLE
  8
_1-1_
  6
CONTINUOUS
 62
    7
 10
242.98026419974664
 20
132.9792208284945
 40
0.1502702042863175
  0
CIRCLE
  8
_1-1_
  6
CONTINUOUS
 62
    7
 10
243.5813450168919
 20
131.62681373389992
 40
0.1502702042863175
  0
CIRCLE
  8
_1-1_
  6
CONTINUOUS
 62
    7
 10
243.2902073215794
 20
131.92735414247255
 40
0.1502702042863175
  0
CIRCLE
  8
_1-1_
  6
CONTINUOUS
 62
    7
 10
245.39391594964107
 20
130.57495941986909
 40
0.1502702042863175
  0
CIRCLE
  8
_1-1_
  6
CONTINUOUS
 62
    7
 10
243.74099319045609
 20
132.9792208284945
 40
0.1502702042863175
  0
CIRCLE
  8
_1-1_
  6
CONTINUOUS
 62
    7
 10
244.34207400760135
 20
131.62681373389992
 40
0.1502702042863175
  0
CIRCLE
  8
_1-1_
  6
CONTINUOUS
 62
    7
 10
246.96701462204393
 20
129.39161558408995
 40
0.1502702042863175
  0
CIRCLE
  8
_1-1_
  6
CONTINUOUS
 62
    7
 10
247.41782523490289
 20
130.44348227011193
 40
0.1502702042863175
  0
CIRCLE
  8
_1-1_
  6
CONTINUOUS
 62
    7
 10
248.01888130806589
 20
129.09107517551732
 40
0.1502702042863175
  0
CIRCLE
  8
_1-1_
  6
CONTINUOUS
 62
    7
 10
247.34737911739867
 20
128.12374630489865
 40
0.1502702042863175
  0
CIRCLE
  8
_1-1_
  6
CONTINUOUS
 62
    7
 10
247.79816498627534
 20
129.17561299092063
 40
0.1502702042863175
  0
CIRCLE
  8
_1-1_
  6
CONTINUOUS
 62
    7
 10
248.39924580342063
 20
127.82320589632602
 40
0.1502702042863175
  0
CIRCLE
  8
_1-1_
  6
CONTINUOUS
 62
    7
 10
247.42252659153294
 20
130.57495941986909
 40
0.1502702042863175
  0
CIRCLE
  8
_1-1_
  6
CONTINUOUS
 62
    7
 10
239.94209908150339
 20
135.01250808303422
 40
0.1502702042863175
  0
CIRCLE
  8
_1-1_
  6
CONTINUOUS
 62
    7
 10
239.81531091638516
 20
131.58925236882391
 40
0.1502702042863175
  0
CIRCLE
  8
_1-1_
  6
CONTINUOUS
 62
    7
 10
277.99695813978042
 20
118.33453204180744
 40
0.1502702042863175
  0
CIRCLE
  8
_1-1_
  6
CONTINUOUS
 62
    7
 10
280.10069151182432
 20
116.98213731920397
 40
0.1502702042863175
  0
CIRCLE
  8
_1-1_
  6
CONTINUOUS
 62
    7
 10
278.44776875263938
 20
119.3863987278294
 40
0.1502702042863175
  0
CIRCLE
  8
_1-1_
  6
CONTINUOUS
 62
    7
 10
279.0488248258024
 20
118.03399163323481
 40
0.1502702042863175
  0
CIRCLE
  8
_1-1_
  6
CONTINUOUS
 62
    7
 10
279.46675068623313
 20
118.50358292863176
 40
0.1502702042863175
  0
CIRCLE
  8
_1-1_
  6
CONTINUOUS
 62
    7
 10
278.41490874419344
 20
119.55543724266259
 40
0.1502702042863175
  0
CIRCLE
  8
_1-1_
  6
CONTINUOUS
 62
    7
 10
280.65950960726354
 20
117.95416754645271
 40
0.1502702042863175
  0
CIRCLE
  8
_1-1_
  6
CONTINUOUS
 62
    7
 10
282.76321823532521
 20
116.60177282384925
 40
0.1502702042863175
  0
CIRCLE
  8
_1-1_
  6
CONTINUOUS
 62
    7
 10
281.11029547614021
 20
119.00603423247468
 40
0.1502702042863175
  0
CIRCLE
  8
_1-1_
  6
CONTINUOUS
 62
    7
 10
281.71137629328547
 20
117.65362713788008
 40
0.1502702042863175
  0
CIRCLE
  8
_1-1_
  6
CONTINUOUS
 62
    7
 10
284.4631050728463
 20
114.91128869958827
 40
0.1502702042863175
  0
CIRCLE
  8
_1-1_
  6
CONTINUOUS
 62
    7
 10
286.56683844489021
 20
113.55889397698481
 40
0.1502702042863175
  0
CIRCLE
  8
_1-1_
  6
CONTINUOUS
 62
    7
 10
284.91391568570526
 20
115.96315538561022
 40
0.1502702042863175
  0
CIRCLE
  8
_1-1_
  6
CONTINUOUS
 62
    7
 10
285.51497175886828
 20
114.61074829101562
 40
0.1502702042863175
  0
CIRCLE
  8
_1-1_
  6
CONTINUOUS
 62
    7
 10
285.98456305426521
 20
113.64341942039697
 40
0.1502702042863175
  0
CIRCLE
  8
_1-1_
  6
CONTINUOUS
 62
    7
 10
288.08827168232688
 20
112.2910246977935
 40
0.1502702042863175
  0
CIRCLE
  8
_1-1_
  6
CONTINUOUS
 62
    7
 10
286.43534892314193
 20
114.69528610641892
 40
0.1502702042863175
  0
CIRCLE
  8
_1-1_
  6
CONTINUOUS
 62
    7
 10
287.03642974028719
 20
113.34287901182434
 40
0.1502702042863175
  0
CIRCLE
  8
_1-1_
  6
CONTINUOUS
 62
    7
 10
285.73098672402875
 20
115.79879348342483
 40
0.1502702042863175
  0
CIRCLE
  8
_1-1_
  6
CONTINUOUS
 62
    7
 10
287.83472009607266
 20
114.44639876082138
 40
0.1502702042863175
  0
CIRCLE
  8
_1-1_
  6
CONTINUOUS
 62
    7
 10
286.18177259290542
 20
116.8506601694468
 40
0.1502702042863175
  0
CIRCLE
  8
_1-1_
  6
CONTINUOUS
 62
    7
 10
286.78285341005068
 20
115.4982530748522
 40
0.1502702042863175
  0
CIRCLE
  8
_1-1_
  6
CONTINUOUS
 62
    7
 10
286.49171571473818
 20
115.79879348342483
 40
0.1502702042863175
  0
CIRCLE
  8
_1-1_
  6
CONTINUOUS
 62
    7
 10
288.59542434279984
 20
114.44639876082138
 40
0.1502702042863175
  0
CIRCLE
  8
_1-1_
  6
CONTINUOUS
 62
    7
 10
286.9425015836149
 20
116.8506601694468
 40
0.1502702042863175
  0
CIRCLE
  8
_1-1_
  6
CONTINUOUS
 62
    7
 10
287.54358240076016
 20
115.4982530748522
 40
0.1502702042863175
  0
CIRCLE
  8
_1-1_
  6
CONTINUOUS
 62
    7
 10
290.16852301520271
 20
113.26305492504224
 40
0.1502702042863175
  0
CIRCLE
  8
_1-1_
  6
CONTINUOUS
 62
    7
 10
290.61933362806167
 20
114.31492161106419
 40
0.1502702042863175
  0
CIRCLE
  8
_1-1_
  6
CONTINUOUS
 62
    7
 10
291.22038970122469
 20
112.9625145164696
 40
0.1502702042863175
  0
CIRCLE
  8
_1-1_
  6
CONTINUOUS
 62
    7
 10
290.54888751055745
 20
111.99518564585094
 40
0.1502702042863175
  0
CIRCLE
  8
_1-1_
  6
CONTINUOUS
 62
    7
 10
290.99967337943411
 20
113.04705233187289
 40
0.1502702042863175
  0
CIRCLE
  8
_1-1_
  6
CONTINUOUS
 62
    7
 10
291.60075419657943
 20
111.69464523727829
 40
0.1502702042863175
  0
CIRCLE
  8
_1-1_
  6
CONTINUOUS
 62
    7
 10
290.62403498469172
 20
114.44639876082138
 40
0.1502702042863175
  0
CIRCLE
  8
_1-1_
  6
CONTINUOUS
 62
    7
 10
283.14360747466219
 20
118.8839474239865
 40
0.1502702042863175
  0
CIRCLE
  8
_1-1_
  6
CONTINUOUS
 62
    7
 10
283.01681930954396
 20
115.46069170977619
 40
0.1502702042863175
  0
CIRCLE
  8
_1-1_
  6
CONTINUOUS
 62
    7
 10
265.32452557538011
 20
121.21463260135135
 40
0.1502702042863175
  0
CIRCLE
  8
_1-1_
  6
CONTINUOUS
 62
    7
 10
267.42823420344172
 20
119.86223787874789
 40
0.1502702042863175
  0
CIRCLE
  8
_1-1_
  6
CONTINUOUS
 62
    7
 10
265.77531144425677
 20
122.26649928737332
 40
0.1502702042863175
  0
CIRCLE
  8
_1-1_
  6
CONTINUOUS
 62
    7
 10
266.37639226140203
 20
120.91409219277872
 40
0.1502702042863175
  0
CIRCLE
  8
_1-1_
  6
CONTINUOUS
 62
    7
 10
266.79431812183276
 20
121.38368348817568
 40
0.1502702042863175
  0
CIRCLE
  8
_1-1_
  6
CONTINUOUS
 62
    7
 10
265.74245143581084
 20
122.43553780220651
 40
0.1502702042863175
  0
CIRCLE
  8
_1-1_
  6
CONTINUOUS
 62
    7
 10
267.98702755489865
 20
120.83426810599663
 40
0.1502702042863175
  0
CIRCLE
  8
_1-1_
  6
CONTINUOUS
 62
    7
 10
270.09076092694261
 20
119.48187338339316
 40
0.1502702042863175
  0
CIRCLE
  8
_1-1_
  6
CONTINUOUS
 62
    7
 10
268.4378381677576
 20
121.88613479201859
 40
0.1502702042863175
  0
CIRCLE
  8
_1-1_
  6
CONTINUOUS
 62
    7
 10
269.03889424092063
 20
120.533727697424
 40
0.1502702042863175
  0
CIRCLE
  8
_1-1_
  6
CONTINUOUS
 62
    7
 10
271.79067250844594
 20
117.79138925913219
 40
0.1502702042863175
  0
CIRCLE
  8
_1-1_
  6
CONTINUOUS
 62
    7
 10
273.8943811365076
 20
116.43899453652872
 40
0.1502702042863175
  0
CIRCLE
  8
_1-1_
  6
CONTINUOUS
 62
    7
 10
272.24145837732266
 20
118.84325594515414
 40
0.1502702042863175
  0
CIRCLE
  8
_1-1_
  6
CONTINUOUS
 62
    7
 10
272.84253919446792
 20
117.49084885055954
 40
0.1502702042863175
  0
CIRCLE
  8
_1-1_
  6
CONTINUOUS
 62
    7
 10
273.31208100190037
 20
116.52351997994089
 40
0.1502702042863175
  0
CIRCLE
  8
_1-1_
  6
CONTINUOUS
 62
    7
 10
275.41581437394427
 20
115.17112525733742
 40
0.1502702042863175
  0
CIRCLE
  8
_1-1_
  6
CONTINUOUS
 62
    7
 10
273.76289161475933
 20
117.57538666596284
 40
0.1502702042863175
  0
CIRCLE
  8
_1-1_
  6
CONTINUOUS
 62
    7
 10
274.36394768792229
 20
116.22297957136826
 40
0.1502702042863175
  0
CIRCLE
  8
_1-1_
  6
CONTINUOUS
 62
    7
 10
273.05852941564615
 20
118.67889404296875
 40
0.1502702042863175
  0
CIRCLE
  8
_1-1_
  6
CONTINUOUS
 62
    7
 10
275.16223804370776
 20
117.3264993203653
 40
0.1502702042863175
  0
CIRCLE
  8
_1-1_
  6
CONTINUOUS
 62
    7
 10
273.50934002850511
 20
119.73076072899072
 40
0.1502702042863175
  0
CIRCLE
  8
_1-1_
  6
CONTINUOUS
 62
    7
 10
274.11039610166807
 20
118.37835363439612
 40
0.1502702042863175
  0
CIRCLE
  8
_1-1_
  6
CONTINUOUS
 62
    7
 10
273.81923366237334
 20
118.67889404296875
 40
0.1502702042863175
  0
CIRCLE
  8
_1-1_
  6
CONTINUOUS
 62
    7
 10
275.92296703441724
 20
117.3264993203653
 40
0.1502702042863175
  0
CIRCLE
  8
_1-1_
  6
CONTINUOUS
 62
    7
 10
274.27004427523229
 20
119.73076072899072
 40
0.1502702042863175
  0
CIRCLE
  8
_1-1_
  6
CONTINUOUS
 62
    7
 10
274.87110034839526
 20
118.37835363439612
 40
0.1502702042863175
  0
CIRCLE
  8
_1-1_
  6
CONTINUOUS
 62
    7
 10
277.4960904508024
 20
116.14315548458616
 40
0.1502702042863175
  0
CIRCLE
  8
_1-1_
  6
CONTINUOUS
 62
    7
 10
277.94687631967906
 20
117.19502217060811
 40
0.1502702042863175
  0
CIRCLE
  8
_1-1_
  6
CONTINUOUS
 62
    7
 10
278.54795713682432
 20
115.84261507601352
 40
0.1502702042863175
  0
CIRCLE
  8
_1-1_
  6
CONTINUOUS
 62
    7
 10
277.87643020217484
 20
114.87528620539486
 40
0.1502702042863175
  0
CIRCLE
  8
_1-1_
  6
CONTINUOUS
 62
    7
 10
278.3272408150338
 20
115.92715289141681
 40
0.1502702042863175
  0
CIRCLE
  8
_1-1_
  6
CONTINUOUS
 62
    7
 10
278.92829688819683
 20
114.57474579682221
 40
0.1502702042863175
  0
CIRCLE
  8
_1-1_
  6
CONTINUOUS
 62
    7
 10
277.95157767630911
 20
117.3264993203653
 40
0.1502702042863175
  0
CIRCLE
  8
_1-1_
  6
CONTINUOUS
 62
    7
 10
270.47115016627959
 20
121.76404798353042
 40
0.1502702042863175
  0
CIRCLE
  8
_1-1_
  6
CONTINUOUS
 62
    7
 10
270.34436200116136
 20
118.3407922693201
 40
0.1502702042863175
  0
CIRCLE
  8
_1-1_
  6
CONTINUOUS
 62
    7
 10
292.3974609375
 20
111.13428064294764
 40
0.1502702042863175
  0
CIRCLE
  8
_1-1_
  6
CONTINUOUS
 62
    7
 10
294.50116956556167
 20
109.78188592034418
 40
0.1502702042863175
  0
CIRCLE
  8
_1-1_
  6
CONTINUOUS
 62
    7
 10
292.84824680637672
 20
112.1861473289696
 40
0.1502702042863175
  0
CIRCLE
  8
_1-1_
  6
CONTINUOUS
 62
    7
 10
293.44932762352198
 20
110.833740234375
 40
0.1502702042863175
  0
CIRCLE
  8
_1-1_
  6
CONTINUOUS
 62
    7
 10
293.86725348395271
 20
111.30333152977197
 40
0.1502702042863175
  0
CIRCLE
  8
_1-1_
  6
CONTINUOUS
 62
    7
 10
292.81538679793078
 20
112.35518584380279
 40
0.1502702042863175
  0
CIRCLE
  8
_1-1_
  6
CONTINUOUS
 62
    7
 10
295.05996291701859
 20
110.75391614759292
 40
0.1502702042863175
  0
CIRCLE
  8
_1-1_
  6
CONTINUOUS
 62
    7
 10
297.1636962890625
 20
109.40152142498945
 40
0.1502702042863175
  0
CIRCLE
  8
_1-1_
  6
CONTINUOUS
 62
    7
 10
295.51077352987755
 20
111.80578283361487
 40
0.1502702042863175
  0
CIRCLE
  8
_1-1_
  6
CONTINUOUS
 62
    7
 10
296.11182960304058
 20
110.45337573902027
 40
0.1502702042863175
  0
CIRCLE
  8
_1-1_
  6
CONTINUOUS
 62
    7
 10
298.86360787056589
 20
107.71103730072846
 40
0.1502702042863175
  0
CIRCLE
  8
_1-1_
  6
CONTINUOUS
 62
    7
 10
300.96731649862755
 20
106.358642578125
 40
0.1502702042863175
  0
CIRCLE
  8
_1-1_
  6
CONTINUOUS
 62
    7
 10
299.31439373944261
 20
108.76290398675043
 40
0.1502702042863175
  0
CIRCLE
  8
_1-1_
  6
CONTINUOUS
 62
    7
 10
299.91547455658787
 20
107.41049689215583
 40
0.1502702042863175
  0
CIRCLE
  8
_1-1_
  6
CONTINUOUS
 62
    7
 10
300.38501636402026
 20
106.44316802153716
 40
0.1502702042863175
  0
CIRCLE
  8
_1-1_
  6
CONTINUOUS
 62
    7
 10
302.48874973606422
 20
105.09077329893371
 40
0.1502702042863175
  0
CIRCLE
  8
_1-1_
  6
CONTINUOUS
 62
    7
 10
300.83582697687922
 20
107.49503470755913
 40
0.1502702042863175
  0
CIRCLE
  8
_1-1_
  6
CONTINUOUS
 62
    7
 10
301.43688305004224
 20
106.14262761296453
 40
0.1502702042863175
  0
CIRCLE
  8
_1-1_
  6
CONTINUOUS
 62
    7
 10
300.13146477776604
 20
108.59854208456504
 40
0.1502702042863175
  0
CIRCLE
  8
_1-1_
  6
CONTINUOUS
 62
    7
 10
302.23517340582771
 20
107.24614736196158
 40
0.1502702042863175
  0
CIRCLE
  8
_1-1_
  6
CONTINUOUS
 62
    7
 10
300.582275390625
 20
109.65040877058701
 40
0.1502702042863175
  0
CIRCLE
  8
_1-1_
  6
CONTINUOUS
 62
    7
 10
301.18333146378802
 20
108.29800167599241
 40
0.1502702042863175
  0
CIRCLE
  8
_1-1_
  6
CONTINUOUS
 62
    7
 10
300.89216902449328
 20
108.59854208456504
 40
0.1502702042863175
  0
CIRCLE
  8
_1-1_
  6
CONTINUOUS
 62
    7
 10
302.99590239653719
 20
107.24614736196158
 40
0.1502702042863175
  0
CIRCLE
  8
_1-1_
  6
CONTINUOUS
 62
    7
 10
301.34297963735219
 20
109.65040877058701
 40
0.1502702042863175
  0
CIRCLE
  8
_1-1_
  6
CONTINUOUS
 62
    7
 10
301.94403571051521
 20
108.29800167599241
 40
0.1502702042863175
  0
CIRCLE
  8
_1-1_
  6
CONTINUOUS
 62
    7
 10
304.56902581292229
 20
106.06280352618244
 40
0.1502702042863175
  0
CIRCLE
  8
_1-1_
  6
CONTINUOUS
 62
    7
 10
305.01981168179901
 20
107.1146702122044
 40
0.1502702042863175
  0
CIRCLE
  8
_1-1_
  6
CONTINUOUS
 62
    7
 10
305.62089249894427
 20
105.76226311760981
 40
0.1502702042863175
  0
CIRCLE
  8
_1-1_
  6
CONTINUOUS
 62
    7
 10
304.94936556429479
 20
104.79493424699113
 40
0.1502702042863175
  0
CIRCLE
  8
_1-1_
  6
CONTINUOUS
 62
    7
 10
305.40017617715375
 20
105.8468009330131
 40
0.1502702042863175
  0
CIRCLE
  8
_1-1_
  6
CONTINUOUS
 62
    7
 10
306.00123225031672
 20
104.4943938384185
 40
0.1502702042863175
  0
CIRCLE
  8
_1-1_
  6
CONTINUOUS
 62
    7
 10
305.02451303842906
 20
107.24614736196158
 40
0.1502702042863175
  0
CIRCLE
  8
_1-1_
  6
CONTINUOUS
 62
    7
 10
297.54408552839953
 20
111.68369602512669
 40
0.1502702042863175
  0
CIRCLE
  8
_1-1_
  6
CONTINUOUS
 62
    7
 10
297.41729736328125
 20
108.26044031091639
 40
0.1502702042863175
  0
CIRCLE
  8
_1-1_
  6
CONTINUOUS
 62
    7
 10
302.76583284945104
 20
106.23811464051943
 40
0.1502702042863175
  0
CIRCLE
  8
_1-1_
  6
CONTINUOUS
 62
    7
 10
304.86954147751271
 20
104.88571991791596
 40
0.1502702042863175
  0
CIRCLE
  8
_1-1_
  6
CONTINUOUS
 62
    7
 10
303.21661871832771
 20
107.28998132654139
 40
0.1502702042863175
  0
CIRCLE
  8
_1-1_
  6
CONTINUOUS
 62
    7
 10
303.81769953547297
 20
105.9375742319468
 40
0.1502702042863175
  0
CIRCLE
  8
_1-1_
  6
CONTINUOUS
 62
    7
 10
304.23562539590375
 20
106.40716552734375
 40
0.1502702042863175
  0
CIRCLE
  8
_1-1_
  6
CONTINUOUS
 62
    7
 10
303.18375870988177
 20
107.45901984137458
 40
0.1502702042863175
  0
CIRCLE
  8
_1-1_
  6
CONTINUOUS
 62
    7
 10
305.42833482896964
 20
105.8577501451647
 40
0.1502702042863175
  0
CIRCLE
  8
_1-1_
  6
CONTINUOUS
 62
    7
 10
307.53206820101354
 20
104.50535542256124
 40
0.1502702042863175
  0
CIRCLE
  8
_1-1_
  6
CONTINUOUS
 62
    7
 10
305.87914544182854
 20
106.90961683118667
 40
0.1502702042863175
  0
CIRCLE
  8
_1-1_
  6
CONTINUOUS
 62
    7
 10
306.48020151499156
 20
105.55720973659207
 40
0.1502702042863175
  0
CIRCLE
  8
_1-1_
  6
CONTINUOUS
 62
    7
 10
309.23197978251693
 20
102.81487129830026
 40
0.1502702042863175
  0
CIRCLE
  8
_1-1_
  6
CONTINUOUS
 62
    7
 10
311.33568841057854
 20
101.4624765756968
 40
0.1502702042863175
  0
CIRCLE
  8
_1-1_
  6
CONTINUOUS
 62
    7
 10
309.68276565139359
 20
103.86673798432221
 40
0.1502702042863175
  0
CIRCLE
  8
_1-1_
  6
CONTINUOUS
 62
    7
 10
310.28384646853885
 20
102.51433088972762
 40
0.1502702042863175
  0
CIRCLE
  8
_1-1_
  6
CONTINUOUS
 62
    7
 10
310.7533882759713
 20
101.54700201910896
 40
0.1502702042863175
  0
CIRCLE
  8
_1-1_
  6
CONTINUOUS
 62
    7
 10
312.85712164801521
 20
100.1946072965055
 40
0.1502702042863175
  0
CIRCLE
  8
_1-1_
  6
CONTINUOUS
 62
    7
 10
311.20419888883026
 20
102.59886870513091
 40
0.1502702042863175
  0
CIRCLE
  8
_1-1_
  6
CONTINUOUS
 62
    7
 10
311.80525496199328
 20
101.24646161053633
 40
0.1502702042863175
  0
CIRCLE
  8
_1-1_
  6
CONTINUOUS
 62
    7
 10
310.49983668971709
 20
103.70237608213684
 40
0.1502702042863175
  0
CIRCLE
  8
_1-1_
  6
CONTINUOUS
 62
    7
 10
312.60354531777875
 20
102.34998135953337
 40
0.1502702042863175
  0
CIRCLE
  8
_1-1_
  6
CONTINUOUS
 62
    7
 10
310.95064730257604
 20
104.75424276815879
 40
0.1502702042863175
  0
CIRCLE
  8
_1-1_
  6
CONTINUOUS
 62
    7
 10
311.55170337573901
 20
103.40183567356419
 40
0.1502702042863175
  0
CIRCLE
  8
_1-1_
  6
CONTINUOUS
 62
    7
 10
311.26054093644427
 20
103.70237608213684
 40
0.1502702042863175
  0
CIRCLE
  8
_1-1_
  6
CONTINUOUS
 62
    7
 10
313.36427430848818
 20
102.34998135953337
 40
0.1502702042863175
  0
CIRCLE
  8
_1-1_
  6
CONTINUOUS
 62
    7
 10
311.71135154930323
 20
104.75424276815879
 40
0.1502702042863175
  0
CIRCLE
  8
_1-1_
  6
CONTINUOUS
 62
    7
 10
312.31240762246625
 20
103.40183567356419
 40
0.1502702042863175
  0
CIRCLE
  8
_1-1_
  6
CONTINUOUS
 62
    7
 10
314.93739772487334
 20
101.16663752375423
 40
0.1502702042863175
  0
CIRCLE
  8
_1-1_
  6
CONTINUOUS
 62
    7
 10
315.38818359375
 20
102.21850420977619
 40
0.1502702042863175
  0
CIRCLE
  8
_1-1_
  6
CONTINUOUS
 62
    7
 10
315.98926441089526
 20
100.86609711518159
 40
0.1502702042863175
  0
CIRCLE
  8
_1-1_
  6
CONTINUOUS
 62
    7
 10
315.31773747624578
 20
99.89876824456293
 40
0.1502702042863175
  0
CIRCLE
  8
_1-1_
  6
CONTINUOUS
 62
    7
 10
315.76854808910474
 20
100.95063493058488
 40
0.1502702042863175
  0
CIRCLE
  8
_1-1_
  6
CONTINUOUS
 62
    7
 10
316.36960416226776
 20
99.598227835990286
 40
0.1502702042863175
  0
CIRCLE
  8
_1-1_
  6
CONTINUOUS
 62
    7
 10
315.39288495038011
 20
102.34998135953337
 40
0.1502702042863175
  0
CIRCLE
  8
_1-1_
  6
CONTINUOUS
 62
    7
 10
307.91245744035052
 20
106.78753002269849
 40
0.1502702042863175
  0
CIRCLE
  8
_1-1_
  6
CONTINUOUS
 62
    7
 10
307.78566927523229
 20
103.36427430848818
 40
0.1502702042863175
  0
CIRCLE
  8
_1-1_
  6
CONTINUOUS
 62
    7
 10
316.30232527449328
 20
98.173828125
 40
0.1502702042863175
  0
CIRCLE
  8
_1-1_
  6
CONTINUOUS
 62
    7
 10
318.4060339025549
 20
96.821433402396536
 40
0.1502702042863175
  0
CIRCLE
  8
_1-1_
  6
CONTINUOUS
 62
    7
 10
316.75311114336995
 20
99.225694811021967
 40
0.1502702042863175
  0
CIRCLE
  8
_1-1_
  6
CONTINUOUS
 62
    7
 10
317.35419196051521
 20
97.87328771642737
 40
0.1502702042863175
  0
CIRCLE
  8
_1-1_
  6
CONTINUOUS
 62
    7
 10
317.77211782094594
 20
98.342879011824323
 40
0.1502702042863175
  0
CIRCLE
  8
_1-1_
  6
CONTINUOUS
 62
    7
 10
316.72025113492401
 20
99.394733325855157
 40
0.1502702042863175
  0
CIRCLE
  8
_1-1_
  6
CONTINUOUS
 62
    7
 10
318.96482725401182
 20
97.793463629645274
 40
0.1502702042863175
  0
CIRCLE
  8
_1-1_
  6
CONTINUOUS
 62
    7
 10
321.06856062605578
 20
96.44106890704181
 40
0.1502702042863175
  0
CIRCLE
  8
_1-1_
  6
CONTINUOUS
 62
    7
 10
319.41563786687078
 20
98.84533031566724
 40
0.1502702042863175
  0
CIRCLE
  8
_1-1_
  6
CONTINUOUS
 62
    7
 10
320.0166939400338
 20
97.492923221072644
 40
0.1502702042863175
  0
CIRCLE
  8
_1-1_
  6
CONTINUOUS
 62
    7
 10
322.76847220755911
 20
94.750584782780834
 40
0.1502702042863175
  0
CIRCLE
  8
_1-1_
  6
CONTINUOUS
 62
    7
 10
324.87218083562078
 20
93.39819006017737
 40
0.1502702042863175
  0
CIRCLE
  8
_1-1_
  6
CONTINUOUS
 62
    7
 10
323.21925807643584
 20
95.802451468802786
 40
0.1502702042863175
  0
CIRCLE
  8
_1-1_
  6
CONTINUOUS
 62
    7
 10
323.82033889358109
 20
94.450044374208204
 40
0.1502702042863175
  0
CIRCLE
  8
_1-1_
  6
CONTINUOUS
 62
    7
 10
324.28988070101354
 20
93.482715503589532
 40
0.1502702042863175
  0
CIRCLE
  8
_1-1_
  6
CONTINUOUS
 62
    7
 10
326.39361407305745
 20
92.130320780986068
 40
0.1502702042863175
  0
CIRCLE
  8
_1-1_
  6
CONTINUOUS
 62
    7
 10
324.7406913138725
 20
94.534582189611498
 40
0.1502702042863175
  0
CIRCLE
  8
_1-1_
  6
CONTINUOUS
 62
    7
 10
325.34174738703547
 20
93.182175095016902
 40
0.1502702042863175
  0
CIRCLE
  8
_1-1_
  6
CONTINUOUS
 62
    7
 10
324.03632911475933
 20
95.63808956661741
 40
0.1502702042863175
  0
CIRCLE
  8
_1-1_
  6
CONTINUOUS
 62
    7
 10
326.14003774282094
 20
94.285694844013946
 40
0.1502702042863175
  0
CIRCLE
  8
_1-1_
  6
CONTINUOUS
 62
    7
 10
324.48713972761828
 20
96.689956252639362
 40
0.1502702042863175
  0
CIRCLE
  8
_1-1_
  6
CONTINUOUS
 62
    7
 10
325.08819580078125
 20
95.337549158044766
 40
0.1502702042863175
  0
CIRCLE
  8
_1-1_
  6
CONTINUOUS
 62
    7
 10
324.79703336148651
 20
95.63808956661741
 40
0.1502702042863175
  0
CIRCLE
  8
_1-1_
  6
CONTINUOUS
 62
    7
 10
326.90076673353042
 20
94.285694844013946
 40
0.1502702042863175
  0
CIRCLE
  8
_1-1_
  6
CONTINUOUS
 62
    7
 10
325.24784397434547
 20
96.689956252639362
 40
0.1502702042863175
  0
CIRCLE
  8
_1-1_
  6
CONTINUOUS
 62
    7
 10
325.84890004750844
 20
95.337549158044766
 40
0.1502702042863175
  0
CIRCLE
  8
_1-1_
  6
CONTINUOUS
 62
    7
 10
328.47389014991558
 20
93.102351008234805
 40
0.1502702042863175
  0
CIRCLE
  8
_1-1_
  6
CONTINUOUS
 62
    7
 10
328.92467601879224
 20
94.154217694256758
 40
0.1502702042863175
  0
CIRCLE
  8
_1-1_
  6
CONTINUOUS
 62
    7
 10
329.5257568359375
 20
92.801810599662161
 40
0.1502702042863175
  0
CIRCLE
  8
_1-1_
  6
CONTINUOUS
 62
    7
 10
328.85422990128802
 20
91.834481729043503
 40
0.1502702042863175
  0
CIRCLE
  8
_1-1_
  6
CONTINUOUS
 62
    7
 10
329.30504051414698
 20
92.886348415065456
 40
0.1502702042863175
  0
CIRCLE
  8
_1-1_
  6
CONTINUOUS
 62
    7
 10
329.90609658731
 20
91.533941320470873
 40
0.1502702042863175
  0
CIRCLE
  8
_1-1_
  6
CONTINUOUS
 62
    7
 10
328.92937737542229
 20
94.285694844013946
 40
0.1502702042863175
  0
CIRCLE
  8
_1-1_
  6
CONTINUOUS
 62
    7
 10
321.44894986539276
 20
98.723243507179063
 40
0.1502702042863175
  0
CIRCLE
  8
_1-1_
  6
CONTINUOUS
 62
    7
 10
321.32216170027453
 20
95.29998779296875
 40
0.1502702042863175
  0
CIRCLE
  8
_1-3_
  6
CONTINUOUS
 62
    7
 10
176.56421145877323
 20
198.68038280590162
 40
0.3036581503378378
  0
CIRCLE
  8
_1-3_
  6
CONTINUOUS
 62
    7
 10
174.43857966242612
 20
197.76939598289698
 40
0.3036581503378378
  0
CIRCLE
  8
_1-3_
  6
CONTINUOUS
 62
    7
 10
180.35382657437711
 20
201.38966328388938
 40
0.3036581503378378
  0
CIRCLE
  8
_1-3_
  6
CONTINUOUS
 62
    7
 10
187.99095772408151
 20
198.09637533651818
 40
0.3036581503378378
  0
CIRCLE
  8
_1-3_
  6
CONTINUOUS
 62
    7
 10
186.61320041965794
 20
191.58019607131547
 40
0.3036581503378378
  0
CIRCLE
  8
_1-3_
  6
CONTINUOUS
 62
    7
 10
184.63939769847974
 20
191.58019607131547
 40
0.3036581503378378
  0
CIRCLE
  8
_1-3_
  6
CONTINUOUS
 62
    7
 10
184.03208139780406
 20
192.03569566881336
 40
0.3036581503378378
  0
CIRCLE
  8
_1-3_
  6
CONTINUOUS
 62
    7
 10
184.48756862331081
 20
190.66920924831084
 40
0.3036581503378378
  0
ARC
  8
_1-2_
  6
CONTINUOUS
 62
    3
 10
184.07071912610854
 20
164.07806396484375
 40
41.612016832506335
 50
95
 51
124.5146484375
  0
ARC
  8
_1-2_
  6
CONTINUOUS
 62
    3
 10
185.3742197397593
 20
149.17896992451438
 40
60.168024011560391
 50
95
 51
114.92028808593749
  0
ARC
  8
_1-2_
  6
CONTINUOUS
 62
    3
 10
183.13811843459672
 20
157.9630588840794
 40
41.612016832506335
 50
95
 51
124.5146484375
  0
ARC
  8
_1-2_
  6
CONTINUOUS
 62
    3
 10
181.99290507548565
 20
204.26727707321581
 40
15.228569443161424
 50
9.939453125
 51
170.06054687499997
  0
ARC
  8
_1-2_
  6
CONTINUOUS
 62
    3
 10
181.99290507548565
 20
204.19584119642104
 40
12.300003928107184
 50
15.562728881835937
 51
164.43727111816406
  0
ARC
  8
_1-2_
  6
CONTINUOUS
 62
    3
 10
182.13409423828125
 20
151.82948344462628
 40
41.612016832506335
 50
95
 51
124.5146484375
  0
ARC
  8
_1-2_
  6
CONTINUOUS
 62
    3
 10
183.43759485193203
 20
136.93038940429687
 40
60.168024011560391
 50
95
 51
114.92028808593749
  0
ARC
  8
_1-2_
  6
CONTINUOUS
 62
    3
 10
178.00792384792018
 20
144.32589556719807
 40
41.612016832506335
 50
95
 51
124.5146484375
  0
ARC
  8
_1-2_
  6
CONTINUOUS
 62
    3
 10
179.31142446157097
 20
129.42680152686867
 40
60.168024011560391
 50
95
 51
114.92028808593749
  0
ARC
  8
_1-2_
  6
CONTINUOUS
 62
    3
 10
174.72869048247466
 20
121.8366591994827
 40
60.168024011560391
 50
95
 51
114.92028808593749
  0
ARC
  8
_1-2_
  6
CONTINUOUS
 62
    3
 10
179.91509102486276
 20
164.07806396484375
 40
41.612016832506335
 50
55.485351562500036
 51
85.000000000000028
  0
ARC
  8
_1-2_
  6
CONTINUOUS
 62
    3
 10
178.61159041121201
 20
149.17896992451438
 40
60.168024011560391
 50
65.079711914062472
 51
84.999999999999972
  0
ARC
  8
_1-2_
  6
CONTINUOUS
 62
    3
 10
180.84769171637458
 20
157.9630588840794
 40
41.612016832506335
 50
55.485351562500036
 51
85.000000000000028
  0
ARC
  8
_1-2_
  6
CONTINUOUS
 62
    3
 10
179.54419110272383
 20
143.06396484375
 40
60.168024011560391
 50
65.079711914062472
 51
84.999999999999972
  0
ARC
  8
_1-2_
  6
CONTINUOUS
 62
    3
 10
181.85171591269005
 20
151.82948344462628
 40
41.612016832506335
 50
55.485351562500036
 51
85.000000000000028
  0
ARC
  8
_1-2_
  6
CONTINUOUS
 62
    3
 10
180.54821529903927
 20
136.93038940429687
 40
60.168024011560391
 50
65.079711914062472
 51
84.999999999999972
  0
ARC
  8
_1-2_
  6
CONTINUOUS
 62
    3
 10
185.97788630305112
 20
144.32589556719807
 40
41.612016832506335
 50
55.485351562500036
 51
85.000000000000028
  0
ARC
  8
_1-2_
  6
CONTINUOUS
 62
    3
 10
184.67438568940034
 20
129.42680152686867
 40
60.168024011560391
 50
65.079711914062472
 51
84.999999999999972
  0
ARC
  8
_1-2_
  6
CONTINUOUS
 62
    3
 10
190.5606202821474
 20
136.73575323981208
 40
41.612016832506335
 50
55.485351562500036
 51
85.000000000000028
  0
ARC
  8
_1-2_
  6
CONTINUOUS
 62
    3
 10
189.25711966849664
 20
121.8366591994827
 40
60.168024011560391
 50
65.079711914062472
 51
84.999999999999972
  0
CIRCLE
  8
_1-0_
  6
CONTINUOUS
 62
    7
 10
183.89404709274706
 20
210.61372499208193
 40
0.899999914942561
  0
ARC
  8
_1-2_
  6
CONTINUOUS
 62
    3
 10
146.94017152528505
 20
169.49720640440245
 40
8.1180466832341374
 50
325.75968933105469
 51
29.773605346679695
  0
ARC
  8
_1-2_
  6
CONTINUOUS
 62
    3
 10
222.16208793021539
 20
170.22585482210727
 40
11.878211820447767
 50
165.62867736816409
 51
209.46801757812503
  0
CIRCLE
  8
_1-3_
  6
CONTINUOUS
 62
    7
 10
158.75418585699958
 20
171.79113439611487
 40
0.3036581503378378
  0
CIRCLE
  8
_1-3_
  6
CONTINUOUS
 62
    7
 10
156.78038313582138
 20
171.79113439611487
 40
0.3036581503378378
  0
CIRCLE
  8
_1-3_
  6
CONTINUOUS
 62
    7
 10
156.1730668351457
 20
172.24663399361276
 40
0.3036581503378378
  0
CIRCLE
  8
_1-3_
  6
CONTINUOUS
 62
    7
 10
156.32489591031461
 20
173.76493711729307
 40
0.3036581503378378
  0
CIRCLE
  8
_1-3_
  6
CONTINUOUS
 62
    7
 10
158.75418585699958
 20
172.70212121911953
 40
0.3036581503378378
  0
CIRCLE
  8
_1-3_
  6
CONTINUOUS
 62
    7
 10
162.86215704840583
 20
172.98185193860854
 40
0.3036581503378378
  0
CIRCLE
  8
_1-3_
  6
CONTINUOUS
 62
    7
 10
160.88835432722763
 20
172.98185193860854
 40
0.3036581503378378
  0
CIRCLE
  8
_1-3_
  6
CONTINUOUS
 62
    7
 10
160.28103802655195
 20
173.43735153610643
 40
0.3036581503378378
  0
CIRCLE
  8
_1-3_
  6
CONTINUOUS
 62
    7
 10
160.43286710172086
 20
174.95565465978675
 40
0.3036581503378378
  0
CIRCLE
  8
_1-3_
  6
CONTINUOUS
 62
    7
 10
162.86215704840583
 20
173.89283876161318
 40
0.3036581503378378
  0
CIRCLE
  8
_1-3_
  6
CONTINUOUS
 62
    7
 10
159.46861885689401
 20
168.69527868322425
 40
0.3036581503378378
  0
CIRCLE
  8
_1-3_
  6
CONTINUOUS
 62
    7
 10
157.49481613571581
 20
168.69527868322425
 40
0.3036581503378378
  0
CIRCLE
  8
_1-3_
  6
CONTINUOUS
 62
    7
 10
156.88749983504013
 20
169.15077828072214
 40
0.3036581503378378
  0
CIRCLE
  8
_1-3_
  6
CONTINUOUS
 62
    7
 10
157.03932891020904
 20
170.66908140440245
 40
0.3036581503378378
  0
CIRCLE
  8
_1-3_
  6
CONTINUOUS
 62
    7
 10
159.46861885689401
 20
169.60626550622891
 40
0.3036581503378378
  0
CIRCLE
  8
_1-3_
  6
CONTINUOUS
 62
    7
 10
158.69465183567357
 20
167.32595907675255
 40
0.3036581503378378
  0
CIRCLE
  8
_1-3_
  6
CONTINUOUS
 62
    7
 10
156.72084911449537
 20
167.32595907675255
 40
0.3036581503378378
  0
CIRCLE
  8
_1-3_
  6
CONTINUOUS
 62
    7
 10
156.11353281381969
 20
167.78145867425044
 40
0.3036581503378378
  0
CIRCLE
  8
_1-3_
  6
CONTINUOUS
 62
    7
 10
156.26536188898859
 20
169.29976179793076
 40
0.3036581503378378
  0
CIRCLE
  8
_1-3_
  6
CONTINUOUS
 62
    7
 10
158.69465183567357
 20
168.23694589975719
 40
0.3036581503378378
  0
CIRCLE
  8
_1-3_
  6
CONTINUOUS
 62
    7
 10
163.99334056957349
 20
169.35016528980154
 40
0.3036581503378378
  0
CIRCLE
  8
_1-3_
  6
CONTINUOUS
 62
    7
 10
162.01953784839529
 20
169.35016528980154
 40
0.3036581503378378
  0
CIRCLE
  8
_1-3_
  6
CONTINUOUS
 62
    7
 10
161.41222154771961
 20
169.80566488729943
 40
0.3036581503378378
  0
CIRCLE
  8
_1-3_
  6
CONTINUOUS
 62
    7
 10
161.56405062288852
 20
171.32396801097974
 40
0.3036581503378378
  0
CIRCLE
  8
_1-3_
  6
CONTINUOUS
 62
    7
 10
163.99334056957349
 20
170.26115211280617
 40
0.3036581503378378
  0
CIRCLE
  8
_1-3_
  6
CONTINUOUS
 62
    7
 10
202.98927513328761
 20
172.44603337468328
 40
0.3036581503378378
  0
CIRCLE
  8
_1-3_
  6
CONTINUOUS
 62
    7
 10
201.01547241210937
 20
172.44603337468328
 40
0.3036581503378378
  0
CIRCLE
  8
_1-3_
  6
CONTINUOUS
 62
    7
 10
200.4081561114337
 20
172.90153297218117
 40
0.3036581503378378
  0
CIRCLE
  8
_1-3_
  6
CONTINUOUS
 62
    7
 10
200.55998518660263
 20
174.41983609586148
 40
0.3036581503378378
  0
CIRCLE
  8
_1-3_
  6
CONTINUOUS
 62
    7
 10
202.98927513328761
 20
173.35702019768794
 40
0.3036581503378378
  0
CIRCLE
  8
_1-3_
  6
CONTINUOUS
 62
    7
 10
208.40703190983953
 20
171.73160037478885
 40
0.3036581503378378
  0
CIRCLE
  8
_1-3_
  6
CONTINUOUS
 62
    7
 10
206.43322918866133
 20
171.73160037478885
 40
0.3036581503378378
  0
CIRCLE
  8
_1-3_
  6
CONTINUOUS
 62
    7
 10
205.82591288798565
 20
172.18709997228675
 40
0.3036581503378378
  0
CIRCLE
  8
_1-3_
  6
CONTINUOUS
 62
    7
 10
205.97774196315459
 20
173.70540309596706
 40
0.3036581503378378
  0
CIRCLE
  8
_1-3_
  6
CONTINUOUS
 62
    7
 10
208.40703190983953
 20
172.64258719779352
 40
0.3036581503378378
  0
CIRCLE
  8
_1-3_
  6
CONTINUOUS
 62
    7
 10
209.41913501636404
 20
167.38549309807857
 40
0.3036581503378378
  0
CIRCLE
  8
_1-3_
  6
CONTINUOUS
 62
    7
 10
207.44533229518584
 20
167.38549309807857
 40
0.3036581503378378
  0
CIRCLE
  8
_1-3_
  6
CONTINUOUS
 62
    7
 10
206.83801599451016
 20
167.84099269557643
 40
0.3036581503378378
  0
CIRCLE
  8
_1-3_
  6
CONTINUOUS
 62
    7
 10
206.98984506967906
 20
169.35929581925677
 40
0.3036581503378378
  0
CIRCLE
  8
_1-3_
  6
CONTINUOUS
 62
    7
 10
209.41913501636404
 20
168.2964799210832
 40
0.3036581503378378
  0
CIRCLE
  8
_1-3_
  6
CONTINUOUS
 62
    7
 10
206.14467723949537
 20
168.69527868322425
 40
0.3036581503378378
  0
CIRCLE
  8
_1-3_
  6
CONTINUOUS
 62
    7
 10
204.17087451831716
 20
168.69527868322425
 40
0.3036581503378378
  0
CIRCLE
  8
_1-3_
  6
CONTINUOUS
 62
    7
 10
203.56355821764149
 20
169.15077828072214
 40
0.3036581503378378
  0
CIRCLE
  8
_1-3_
  6
CONTINUOUS
 62
    7
 10
203.71538729281039
 20
170.66908140440245
 40
0.3036581503378378
  0
CIRCLE
  8
_1-3_
  6
CONTINUOUS
 62
    7
 10
206.14467723949537
 20
169.60626550622891
 40
0.3036581503378378
  0
CIRCLE
  8
_1-3_
  6
CONTINUOUS
 62
    7
 10
204.12045865445523
 20
168.75481270455026
 40
0.3036581503378378
  0
CIRCLE
  8
_1-3_
  6
CONTINUOUS
 62
    7
 10
202.14665593327703
 20
168.75481270455026
 40
0.3036581503378378
  0
CIRCLE
  8
_1-3_
  6
CONTINUOUS
 62
    7
 10
201.53933963260135
 20
169.21031230204815
 40
0.3036581503378378
  0
CIRCLE
  8
_1-3_
  6
CONTINUOUS
 62
    7
 10
201.69116870777029
 20
170.72861542572846
 40
0.3036581503378378
  0
CIRCLE
  8
_1-3_
  6
CONTINUOUS
 62
    7
 10
204.12045865445523
 20
169.6657995275549
 40
0.3036581503378378
  0
CIRCLE
  8
_1-3_
  6
CONTINUOUS
 62
    7
 10
190.54629351641682
 20
182.26943144927154
 40
0.3036581503378378
  0
CIRCLE
  8
_1-3_
  6
CONTINUOUS
 62
    7
 10
188.57249079523862
 20
182.26943144927154
 40
0.3036581503378378
  0
CIRCLE
  8
_1-3_
  6
CONTINUOUS
 62
    7
 10
187.96517449456294
 20
182.72493104676943
 40
0.3036581503378378
  0
CIRCLE
  8
_1-3_
  6
CONTINUOUS
 62
    7
 10
188.11700356973185
 20
184.24323417044977
 40
0.3036581503378378
  0
CIRCLE
  8
_1-3_
  6
CONTINUOUS
 62
    7
 10
190.54629351641682
 20
183.1804182722762
 40
0.3036581503378378
  0
CIRCLE
  8
_1-3_
  6
CONTINUOUS
 62
    7
 10
175.06699020798143
 20
181.19779432142104
 40
0.3036581503378378
  0
CIRCLE
  8
_1-3_
  6
CONTINUOUS
 62
    7
 10
173.09318748680323
 20
181.19779432142104
 40
0.3036581503378378
  0
CIRCLE
  8
_1-3_
  6
CONTINUOUS
 62
    7
 10
172.48587118612755
 20
181.65329391891893
 40
0.3036581503378378
  0
CIRCLE
  8
_1-3_
  6
CONTINUOUS
 62
    7
 10
172.63770026129646
 20
183.17159704259925
 40
0.3036581503378378
  0
CIRCLE
  8
_1-3_
  6
CONTINUOUS
 62
    7
 10
175.06699020798143
 20
182.10878114442568
 40
0.3036581503378378
  0
CIRCLE
  8
_1-3_
  6
CONTINUOUS
 62
    7
 10
178.69867685678844
 20
189.29465628959039
 40
0.3036581503378378
  0
CIRCLE
  8
_1-3_
  6
CONTINUOUS
 62
    7
 10
176.72487413561024
 20
189.29465628959039
 40
0.3036581503378378
  0
CIRCLE
  8
_1-3_
  6
CONTINUOUS
 62
    7
 10
176.11755783493456
 20
189.75015588708828
 40
0.3036581503378378
  0
CIRCLE
  8
_1-3_
  6
CONTINUOUS
 62
    7
 10
176.26938691010346
 20
191.26845901076859
 40
0.3036581503378378
  0
CIRCLE
  8
_1-3_
  6
CONTINUOUS
 62
    7
 10
178.69867685678844
 20
190.20564311259503
 40
0.3036581503378378
  0
CIRCLE
  8
_1-3_
  6
CONTINUOUS
 62
    7
 10
179.05589335673565
 20
183.102932491818
 40
0.3036581503378378
  0
CIRCLE
  8
_1-3_
  6
CONTINUOUS
 62
    7
 10
177.08209063555745
 20
183.102932491818
 40
0.3036581503378378
  0
CIRCLE
  8
_1-3_
  6
CONTINUOUS
 62
    7
 10
176.47477433488177
 20
183.55843208931589
 40
0.3036581503378378
  0
CIRCLE
  8
_1-3_
  6
CONTINUOUS
 62
    7
 10
176.62660341005068
 20
185.0767352129962
 40
0.3036581503378378
  0
CIRCLE
  8
_1-3_
  6
CONTINUOUS
 62
    7
 10
179.05589335673565
 20
184.01391931482266
 40
0.3036581503378378
  0
CIRCLE
  8
_1-3_
  6
CONTINUOUS
 62
    7
 10
189.11743988861909
 20
188.6397696830131
 40
0.3036581503378378
  0
CIRCLE
  8
_1-3_
  6
CONTINUOUS
 62
    7
 10
187.14363716744089
 20
188.6397696830131
 40
0.3036581503378378
  0
CIRCLE
  8
_1-3_
  6
CONTINUOUS
 62
    7
 10
186.53632086676521
 20
189.09526928051099
 40
0.3036581503378378
  0
CIRCLE
  8
_1-3_
  6
CONTINUOUS
 62
    7
 10
186.68814994193414
 20
190.6135724041913
 40
0.3036581503378378
  0
CIRCLE
  8
_1-3_
  6
CONTINUOUS
 62
    7
 10
189.11743988861909
 20
189.55075650601773
 40
0.3036581503378378
  0
CIRCLE
  8
_1-3_
  6
CONTINUOUS
 62
    7
 10
179.6047643713049
 20
210.30388084617823
 40
0.3036581503378378
  0
CIRCLE
  8
_1-3_
  6
CONTINUOUS
 62
    7
 10
177.63096165012669
 20
210.30388084617823
 40
0.3036581503378378
  0
CIRCLE
  8
_1-3_
  6
CONTINUOUS
 62
    7
 10
177.02364534945102
 20
210.75936807168497
 40
0.3036581503378378
  0
CIRCLE
  8
_1-3_
  6
CONTINUOUS
 62
    7
 10
177.17547442461995
 20
212.27768356735643
 40
0.3036581503378378
  0
CIRCLE
  8
_1-3_
  6
CONTINUOUS
 62
    7
 10
179.6047643713049
 20
211.21485529719175
 40
0.3036581503378378
  0
CIRCLE
  8
_1-3_
  6
CONTINUOUS
 62
    7
 10
188.89139123865078
 20
210.47119965424409
 40
0.3036581503378378
  0
CIRCLE
  8
_1-3_
  6
CONTINUOUS
 62
    7
 10
186.91758851747255
 20
210.47119965424409
 40
0.3036581503378378
  0
CIRCLE
  8
_1-3_
  6
CONTINUOUS
 62
    7
 10
186.31027221679687
 20
210.92671162373313
 40
0.3036581503378378
  0
CIRCLE
  8
_1-3_
  6
CONTINUOUS
 62
    7
 10
186.46210129196581
 20
212.44500237542232
 40
0.3036581503378378
  0
CIRCLE
  8
_1-3_
  6
CONTINUOUS
 62
    7
 10
188.89139123865078
 20
211.38219884923987
 40
0.3036581503378378
  0
ARC
  8
_1-2_
  6
CONTINUOUS
 62
    3
 10
184.44161904824747
 20
143.06396484375
 40
60.168024011560391
 50
98.884109497070298
 51
114.92028808593749
  0
ARC
  8
_1-2_
  6
CONTINUOUS
 62
    3
 10
184.44161904824747
 20
143.06396484375
 40
60.168024011560391
 50
95
 51
98.855010986328125
  0
ARC
  8
_1-2_
  6
CONTINUOUS
 62
    3
 10
184.44161904824747
 20
143.06396484375
 40
60.168024011560391
 50
98.855010986328139
 51
98.884109497070327
  0
ARC
  8
_1-2_
  6
CONTINUOUS
 62
    3
 10
173.42518986882391
 20
136.73575323981208
 40
41.612016832506335
 50
99.756179809570313
 51
124.5146484375
  0
ARC
  8
_1-2_
  6
CONTINUOUS
 62
    3
 10
173.42518986882391
 20
136.73575323981208
 40
41.612016832506335
 50
95
 51
99.325698852539063
  0
ARC
  8
_1-2_
  6
CONTINUOUS
 62
    3
 10
173.42518986882391
 20
136.73575323981208
 40
41.612016832506335
 50
99.325698852539077
 51
99.756179809570313
  0
ARC
  8
_1-3_
  6
CONTINUOUS
 62
    3
 10
181.905422726193
 20
188.00803107184333
 40
21.390614380707614
 50
75.615737915039063
 51
105.011474609375
  0
ARC
  8
_1-3_
  6
CONTINUOUS
 62
    3
 10
181.67649140229096
 20
240.76627164273651
 40
35.645692155167865
 50
264.515625
 51
276.07321166992187
  0
ARC
  8
_1-3_
  6
CONTINUOUS
 62
    3
 10
181.93845594251479
 20
185.66622347445102
 40
17.761680499927419
 50
75.038497924804688
 51
105.24601745605469
  0
ARC
  8
_1-3_
  6
CONTINUOUS
 62
    3
 10
181.70724817224453
 20
111.10135877454604
 40
88.057578834327501
 50
85.764450073242188
 51
93.622558593750014
  0
ARC
  8
_1-3_
  6
CONTINUOUS
 62
    3
 10
182.30957856049409
 20
183.16631420238599
 40
14.545072607091956
 50
68.189544677734375
 51
110.72341918945311
  0
ARC
  8
_1-3_
  6
CONTINUOUS
 62
    3
 10
183.18709914748734
 20
340.61583647856844
 40
147.79046135979732
 50
267.23890686035156
 51
272.03266906738281
  0
ARC
  8
_1-3_
  6
CONTINUOUS
 62
    3
 10
181.73906893343539
 20
162.45974566485432
 40
28.298739871463262
 50
71.448760986328125
 51
109.05319213867187
  0
ARC
  8
_1-3_
  6
CONTINUOUS
 62
    3
 10
181.97148915883659
 20
586.84669288429052
 40
401.8245800121411
 50
268.31849670410156
 51
271.68678283691406
  0
ARC
  8
_1-3_
  6
CONTINUOUS
 62
    3
 10
182.43390469937711
 20
139.5353245090794
 40
44.214786838840794
 50
72.185211181640625
 51
107.25019836425781
  0
ARC
  8
_1-3_
  6
CONTINUOUS
 62
    3
 10
179.44468317805112
 20
-42.314312909100522
 40
220.59505153346709
 50
84.765548706054687
 51
93.002731323242188
  0
TEXT
  8
_0-0_
 62
    7
 10
141.89189395389042
 20
14.594594594594582
 40
2.5
 41
1
 50
0
  1
縮尺
  0
TEXT
  8
_0-0_
 62
    7
 10
377.10214563318203
 20
22.865493362014362
 40
2.5
 41
1
 50
0
  1
ＮＯ
  0
TEXT
  8
_0-0_
 62
    7
 10
14.594594336844779
 20
24.324324324324323
 40
2.5
 41
1
 50
0
  1
和形
  0
TEXT
  8
_0-0_
 62
    7
 10
383.23801896378802
 20
18.523427086907475
 40
3
 41
1
 50
0
  1
Ｊ
  0
TEXT
  8
_1-0_
 62
    7
 10
169.90681828679266
 20
13.3181144095756
 40
2.5
 41
1
 50
0
  1
1/5
  0
TEXT
  8
_1-5_
 62
    7
 10
77.173497999036641
 20
174.37339164115289
 40
2.5
 41
1
 50
0
  1
桟瓦
  0
TEXT
  8
_1-5_
 62
    7
 10
269.76520435230151
 20
182.18276565139359
 40
2.5
 41
1
 50
0
  1
瓦桟　
  0
TEXT
  8
_1-5_
 62
    7
 10
269.76676322318411
 20
175.1827673009924
 40
2.5
 41
1
 50
0
  1
流し桟
  0
TEXT
  8
_1-5_
 62
    7
 10
269.76676734718114
 20
168.18276895059122
 40
2.5
 41
1
 50
0
  1
下葺き材
  0
TEXT
  8
_1-5_
 62
    7
 10
39.721903414339636
 20
15.395235628695104
 40
2.5
 41
1
 50
0
  1
棟　　1
  0
TEXT
  8
_1-5_
 62
    7
 10
269.09446510108739
 20
188.60953253668708
 40
2.5
 41
1
 50
0
  1
桟瓦
  0
TEXT
  8
_1-3_
 62
    7
 10
215.05531929634714
 20
202.72265872439823
 40
2.5
 41
1
 50
0
  1
のし瓦
  0
TEXT
  8
_1-3_
 62
    7
 10
25.556194717819636
 20
20.211577544341225
 40
2.5
 41
1
 50
0
  1
ＲＣ
  0
TEXT
  8
_1-1_
 62
    7
 10
269.76675909918708
 20
162.31008168813347
 40
2.5
 41
1
 50
0
  1
パーライト系モルタル　ｔ＝50
  0
TEXT
  8
_1-3_
 62
    7
 10
173.76432296895754
 20
121.46002067649843
 40
2.5
 41
1
 50
24.227641889855295
  1
250
  0
TEXT
  8
_1-3_
 62
    7
 10
187.09802094307372
 20
123.43594968899009
 40
2.5
 41
1
 50
-24.227719460851677
  1
250
  0
TEXT
  8
_1-3_
 62
    7
 10
394.05561704893375
 20
15.640980488545182
 40
2.5
 41
1
 50
0
  1
28
  0
TEXT
  8
_1-2_
 62
    7
 10
280.92209274704396
 20
181.94935566670188
 40
2.5
 41
1
 50
0
  1
15×21以上　（防腐処理）
  0
TEXT
  8
_1-2_
 62
    7
 10
280.92332994615708
 20
178.99930386929898
 40
2.5
 41
1
 50
0
  1
※　地域により瓦桟木の大きさは、異なります
  0
TEXT
  8
_1-1_
 62
    7
 10
283.77126332875844
 20
167.48721560916385
 40
2.5
 41
1
 50
0
  1
アスファルトルーフィング９４０
  0
TEXT
  8
_1-2_
 62
    7
 10
138.02694372228675
 20
232.81838081978464
 40
2.5
 41
1
 50
0
  1
鉄筋　９Φ　＠1000
  0
TEXT
  8
_1-1_
 62
    7
 10
147.06703392235011
 20
243.38636243665542
 40
2.5
 41
1
 50
0
  1
横鉄筋　９φ
  0
TEXT
  8
_1-3_
 62
    7
 10
208.43779692778716
 20
243.76833529085727
 40
2.5
 41
1
 50
0
  1
冠瓦
  0
TEXT
  8
_1-1_
 62
    7
 10
209.45640357764995
 20
230.65385148331927
 40
2.5
 41
1
 50
0
  1
銅線緊結
  0
TEXT
  8
_1-1_
 62
    7
 10
104.44917421083193
 20
196.26180700353675
 40
2.5
 41
1
 50
0
  1
面戸漆喰及び葺き土
  0
POINT
  8
_1-3_
 62
    7
 10
152.96411875131969
 20
111.55163739178633
  0
POINT
  8
_1-3_
 62
    7
 10
198.39458981075802
 20
131.99535060573268
  0
POINT
  8
_1-3_
 62
    7
 10
165.96880113756336
 20
132.39580721468539
  0
POINT
  8
_1-3_
 62
    7
 10
211.23658051361909
 20
112.02529907226562
  0
TEXT
  8
_1-3_
 62
    7
 10
116.70735745816619
 20
67.394262777792449
 40
2.5
 41
1
 50
0
  1
棟部分の下葺き材（アスフルトルーフィング）は、両方向へそれぞれ250ｍｍ以上重ね合わせること。
  0
TEXT
  8
_1-3_
 62
    7
 10
116.79514910723712
 20
63.282938776789479
 40
2.5
 41
1
 50
0
  1
隅棟部分の下葺き材（アスファルトルーフィング）は、重ね貼りの上に両方向へそれぞれ250ｍｍ以上増し貼りをすること。
  0
ENDSEC
  0
EOF
