  0
SECTION
  2
HEADER
  9
$ACADVER
  1
AC1009
  9
$INSBASE
 10
0
 20
0
 30
0
  9
$EXTMIN
 10
0
 20
0
  9
$EXTMAX
 10
420
 20
297
  9
$LIMMIN
 10
0
 20
0
  9
$LIMMAX
 10
420
 20
297
  9
$LTSCALE
 40
1
  0
ENDSEC
  0
SECTION
  2
TABLES
  0
TABLE
  2
LTYPE
 70
     9
  0
LTYPE
  2
CONTINUOUS
 70
    64
  3
実線
 72
    65
 73
     0
 40
0.0
  0
LTYPE
  2
DASHED1
 70
    64
  3
--  --  --  --  --  --  --  --  
 72
    65
 73
     2
 40
2.5
 49
1.25
 49
-1.25
  0
LTYPE
  2
DASHED2
 70
    64
  3
----    ----    ----    ----    
 72
    65
 73
     2
 40
5.0
 49
2.5
 49
-2.5
  0
LTYPE
  2
DASHED3
 70
    64
  3
------  ------  ------  ------  
 72
    65
 73
     2
 40
5.0
 49
3.75
 49
-1.25
  0
LTYPE
  2
CENTER1
 70
    64
  3
----- - ----- - ----- - ----- - 
 72
    65
 73
     4
 40
10.0
 49
6.25
 49
-1.25
 49
1.25
 49
-1.25
  0
LTYPE
  2
CENTER2
 70
    64
  3
----------  --  ----------  --  
 72
    65
 73
     4
 40
20.0
 49
12.5
 49
-2.5
 49
2.5
 49
-2.5
  0
LTYPE
  2
PHANTOM1
 70
    64
  3
--- - - --- - - --- - - --- - - 
 72
    65
 73
     6
 40
10.0
 49
3.25
 49
-1.25
 49
1.25
 49
-1.25
 49
1.25
 49
-1.25
  0
LTYPE
  2
PHANTOM2
 70
    64
  3
--------  -  -  --------  -  -  
 72
    65
 73
     6
 40
20.0
 49
10.0
 49
-2.5
 49
1.25
 49
-2.5
 49
1.25
 49
-2.5
  0
LTYPE
  2
DOT
 70
    64
  3
-   -   -   -   -   -   -   -   
 72
    65
 73
     2
 40
2.5
 49
0.625
 49
-1.875
  0
LTYPE
  2
DUMMY
 70
    64
  3
ダミー
 72
    65
 73
     0
 40
0.0
  0
LTYPE
  2
RAND1
 70
    64
  3
ランダム線1
 72
    65
 73
     4
 40
10.0
 49
1.0
 49
-2.0
 49
3.0
 49
-4.0
  0
LTYPE
  2
RAND2
 70
    64
  3
ランダム線2
 72
    65
 73
     4
 40
14.0
 49
2.0
 49
-3.0
 49
4.0
 49
-5.0
  0
LTYPE
  2
RAND3
 70
    64
  3
ランダム線3
 72
    65
 73
     4
 40
18.0
 49
3.0
 49
-4.0
 49
5.0
 49
-6.0
  0
LTYPE
  2
RAND4
 70
    64
  3
ランダム線4
 72
    65
 73
     4
 40
22.0
 49
4.0
 49
-5.0
 49
6.0
 49
-7.0
  0
LTYPE
  2
RAND5
 70
    64
  3
ランダム線5
 72
    65
 73
     4
 40
26.0
 49
5.0
 49
-6.0
 49
7.0
 49
-8.0
  0
LTYPE
  2
LONG1
 70
    64
  3
----------  --  ----------  --  
 72
    65
 73
     4
 40
40.0
 49
32.5
 49
-2.5
 49
2.5
 49
-2.5
  0
LTYPE
  2
LONG2
 70
    64
  3
--------  -  -  --------  -  -  
 72
    65
 73
     6
 40
40.0
 49
30.0
 49
-2.5
 49
1.25
 49
-2.5
 49
1.25
 49
-2.5
  0
LTYPE
  2
LONG3
 70
    64
  3
+++++++++++++++..+++++++++++++++
 72
    65
 73
     2
 40
40.0
 49
37.5
 49
-2.5
  0
LTYPE
  2
LONG4
 70
    64
  3
+++++++++++++++..+++++++++++++++
 72
    65
 73
     2
 40
80.0
 49
75.0
 49
-5.0
  0
LTYPE
  2
LONG5
 70
    64
  3
----------  --  ----------  --  
 72
    65
 73
     4
 40
60.0
 49
37.5
 49
-7.5
 49
7.5
 49
-7.5
  0
LTYPE
  2
dashed
 70
   64
  3
-------   -------------   ------
 72
   65
 73
    2
 40
7.5
 49
6
 49
-1.5
  0
LTYPE
  2
dashed_spaced
 70
   64
  3
----        --------        ----
 72
   65
 73
    2
 40
12
 49
6
 49
-6
  0
LTYPE
  2
long_dashed_dotted
 70
   64
  3
------------- --- --------------
 72
   65
 73
    4
 40
15.25
 49
12
 49
-1.5
 49
0.25
 49
-1.5
  0
LTYPE
  2
long_dashed_double-dotted
 70
   64
  3
----------- --- --- ------------
 72
   65
 73
    6
 40
17
 49
12
 49
-1.5
 49
0.25
 49
-1.5
 49
0.25
 49
-1.5
  0
LTYPE
  2
long_dashed_triplicate-dotted
 70
   64
  3
--------- --- --- --- ----------
 72
   65
 73
    8
 40
18.75
 49
12
 49
-1.5
 49
0.25
 49
-1.5
 49
0.25
 49
-1.5
 49
0.25
 49
-1.5
  0
LTYPE
  2
dotted
 70
   64
  3
   -       -       -       -    
 72
   65
 73
    2
 40
1.75
 49
0.25
 49
-1.5
  0
LTYPE
  2
chain
 70
   64
  3
-------------- -- --------------
 72
   65
 73
    4
 40
18.5
 49
12
 49
-1.5
 49
3.5
 49
-1.5
  0
LTYPE
  2
chain_double_dash
 70
   64
  3
------------ -- -- -------------
 72
   65
 73
    6
 40
23.5
 49
12
 49
-1.5
 49
3.5
 49
-1.5
 49
3.5
 49
-1.5
  0
LTYPE
  2
dashed_dotted
 70
   64
  3
-----------     -     ----------
 72
   65
 73
    4
 40
9.25
 49
6
 49
-1.5
 49
0.25
 49
-1.5
  0
LTYPE
  2
double-dashed_dotted
 70
   64
  3
------   -----------   -   -----
 72
   65
 73
    6
 40
16.75
 49
6
 49
-1.5
 49
6
 49
-1.5
 49
0.25
 49
-1.5
  0
LTYPE
  2
dashed_double-dotted
 70
   64
  3
---------    -    -    ---------
 72
   65
 73
    6
 40
11
 49
6
 49
-1.5
 49
0.25
 49
-1.5
 49
0.25
 49
-1.5
  0
LTYPE
  2
double-dashed_double-dotted
 70
   64
  3
-----   ---------   -   -   ----
 72
   65
 73
    8
 40
18.5
 49
6
 49
-1.5
 49
6
 49
-1.5
 49
0.25
 49
-1.5
 49
0.25
 49
-1.5
  0
LTYPE
  2
dashed_triplicate-dotted
 70
   64
  3
-------    -    -    -    ------
 72
   65
 73
    8
 40
12.75
 49
6
 49
-1.5
 49
0.25
 49
-1.5
 49
0.25
 49
-1.5
 49
0.25
 49
-1.5
  0
LTYPE
  2
double-dashed_triplicate-dotted
 70
   64
  3
-----  ---------  -  -  -  -----
 72
   65
 73
   10
 40
20.25
 49
6
 49
-1.5
 49
6
 49
-1.5
 49
0.25
 49
-1.5
 49
0.25
 49
-1.5
 49
0.25
 49
-1.5
  0
LTYPE
  2
undefined
 70
   64
  3
--------------------------------
 72
   65
 73
    0
 40
0
  0
ENDTAB
  0
TABLE
  2
STYLE
  5
3
100
AcDbSymbolTable
 70
     1
  0
STYLE
  5
10
100
AcDbSymbolTableRecord
100
AcDbTextStyleTableRecord
  2
STANDARD
 70
     0
 40
0.0
 41
1.0
 50
0.0
 71
     0
 42
0.2
  3
txt
  4
bigfont.shx
  0
STYLE
  5
26
100
AcDbSymbolTableRecord
100
AcDbTextStyleTableRecord
  2
TATEGAKI
 70
    68
 40
0.0
 41
1.0
 50
0.0
 71
     0
 42
1.0
  3
txt
  4
bigfont.shx
  0
ENDTAB
  0
TABLE
  2
LAYER
 70
    6
  0
LAYER
  2
_0-0_
 70
   64
 62
    7
  6
CONTINUOUS
  0
LAYER
  2
_1-0_
 70
   64
 62
    7
  6
CONTINUOUS
  0
LAYER
  2
_1-1_
 70
   64
 62
    7
  6
CONTINUOUS
  0
LAYER
  2
_1-2_
 70
   64
 62
    7
  6
CONTINUOUS
  0
LAYER
  2
_1-3_
 70
   64
 62
    7
  6
CONTINUOUS
  0
LAYER
  2
ADD_LINE
 70
   64
 62
    7
  6
CONTINUOUS
  0
ENDTAB
  0
ENDSEC
  0
SECTION
  2
BLOCKS
  0
ENDSEC
  0
SECTION
  2
ENTITIES
  0
TEXT
  8
_1-3_
 62
    7
 10
211.75310701937292
 20
71.844412313925261
 40
2.5
 41
1
 50
0
  1
捨谷
  0
LINE
  8
_0-0_
  6
CONTINUOUS
 62
    5
 10
6.7567526327597136
 20
280.13513513513516
 11
406.75677325274495
 21
280.13513513513516
  0
LINE
  8
_0-0_
  6
CONTINUOUS
 62
    5
 10
406.75677325274495
 20
30.135133073136615
 11
6.7567402607685949
 21
30.135133073136615
  0
LINE
  8
_0-0_
  6
CONTINUOUS
 62
    5
 10
371.75678150073907
 20
10.13513513513513
 11
371.75678150073907
 21
30.135133073136615
  0
LINE
  8
_0-0_
  6
CONTINUOUS
 62
    5
 10
137.02703939901818
 20
30.135133073136615
 11
137.02703939901818
 21
10.13513513513513
  0
LINE
  8
_0-0_
  6
CONTINUOUS
 62
    5
 10
214.86486486486487
 20
30.135133073136615
 11
214.86486486486487
 21
10.13513513513513
  0
LINE
  8
_0-0_
  6
CONTINUOUS
 62
    5
 10
137.02703939901818
 20
20.135134104135886
 11
214.86486486486487
 21
20.135134104135886
  0
LINE
  8
_0-0_
  6
CONTINUOUS
 62
    5
 10
396.48648648648651
 20
25.945945945945951
 11
383.91891891891896
 21
13.378379924877265
  0
LINE
  8
_1-1_
  6
CONTINUOUS
 62
    7
 10
126.31341470254435
 20
136.32645065720018
 11
66.486474114495365
 21
136.32645065720018
  0
LINE
  8
_1-1_
  6
CONTINUOUS
 62
    7
 10
126.31341470254435
 20
136.32645065720018
 11
242.83313648120779
 21
136.32645065720018
  0
LINE
  8
_1-1_
  6
CONTINUOUS
 62
    7
 10
66.486474114495365
 20
133.32645313159841
 11
242.83313648120779
 21
133.32645313159841
  0
LINE
  8
_1-1_
  6
CONTINUOUS
 62
    7
 10
242.83313648120779
 20
136.32645065720018
 11
242.83313648120779
 21
133.32645313159841
  0
LINE
  8
_1-1_
  6
CONTINUOUS
 62
    7
 10
235.47618144267315
 20
132.72644867768159
 11
235.47618144267315
 21
133.32644075960727
  0
LINE
  8
_1-1_
  6
CONTINUOUS
 62
    7
 10
235.47618144267315
 20
133.32644075960727
 11
240.2761675860431
 21
133.32644075960727
  0
LINE
  8
_1-1_
  6
CONTINUOUS
 62
    7
 10
240.2761675860431
 20
133.32644075960727
 11
240.2761675860431
 21
132.72644867768159
  0
LINE
  8
_1-1_
  6
CONTINUOUS
 62
    7
 10
240.2761675860431
 20
132.72644867768159
 11
235.47618144267315
 21
132.72644867768159
  0
LINE
  8
_1-1_
  6
CONTINUOUS
 62
    7
 10
235.47618144267315
 20
132.72644867768159
 11
240.2761675860431
 21
133.32644075960727
  0
LINE
  8
_1-1_
  6
CONTINUOUS
 62
    7
 10
66.486474114495365
 20
132.72644867768159
 11
240.2761675860431
 21
132.72644867768159
  0
LINE
  8
_1-1_
  6
CONTINUOUS
 62
    3
 10
243.88814565297722
 20
132.47366415487755
 11
243.88814565297722
 21
136.32645065720018
  0
LINE
  8
_1-1_
  6
CONTINUOUS
 62
    3
 10
243.88814565297722
 20
136.32645065720018
 11
247.99698288376268
 21
136.32645065720018
  0
LINE
  8
_1-1_
  6
CONTINUOUS
 62
    7
 10
272.27033460462417
 20
131.49927087732263
 11
66.486474114495365
 21
131.49927087732263
  0
LINE
  8
_1-1_
  6
CONTINUOUS
 62
    3
 10
243.88814565297722
 20
132.47366415487755
 11
267.80305604676943
 21
132.47366415487755
  0
LINE
  8
_1-1_
  6
DASHED1
 62
    3
 10
271.80579108160896
 20
131.99859206740922
 11
66.486474114495365
 21
131.99859206740922
  0
LINE
  8
_1-1_
  6
DASHED1
 62
    3
 10
271.80579108160896
 20
131.99859206740922
 11
271.80579108160896
 21
191.49927087732266
  0
LINE
  8
_1-1_
  6
CONTINUOUS
 62
    7
 10
271.30925358952703
 20
132.3484348606419
 11
268.30924369193411
 21
132.3484348606419
  0
LINE
  8
_1-1_
  6
CONTINUOUS
 62
    7
 10
203.09510514542865
 20
132.72644867768159
 11
203.09510514542865
 21
133.32644075960727
  0
LINE
  8
_1-1_
  6
CONTINUOUS
 62
    7
 10
203.09510514542865
 20
133.32644075960727
 11
207.89507891680745
 21
133.32644075960727
  0
LINE
  8
_1-1_
  6
CONTINUOUS
 62
    7
 10
207.89507891680745
 20
133.32644075960727
 11
207.89507891680745
 21
132.72644867768159
  0
LINE
  8
_1-1_
  6
CONTINUOUS
 62
    7
 10
207.89507891680745
 20
132.72644867768159
 11
203.09510514542865
 21
132.72644867768159
  0
LINE
  8
_1-1_
  6
CONTINUOUS
 62
    7
 10
203.09510514542865
 20
132.72644867768159
 11
207.89507891680745
 21
133.32644075960727
  0
LINE
  8
_1-1_
  6
CONTINUOUS
 62
    7
 10
141.45506162901182
 20
132.72644867768159
 11
141.45506162901182
 21
133.32644075960727
  0
LINE
  8
_1-1_
  6
CONTINUOUS
 62
    7
 10
141.45506162901182
 20
133.32644075960727
 11
146.25504777238177
 21
133.32644075960727
  0
LINE
  8
_1-1_
  6
CONTINUOUS
 62
    7
 10
146.25504777238177
 20
133.32644075960727
 11
146.25504777238177
 21
132.72644867768159
  0
LINE
  8
_1-1_
  6
CONTINUOUS
 62
    7
 10
146.25504777238177
 20
132.72644867768159
 11
141.45506162901182
 21
132.72644867768159
  0
LINE
  8
_1-1_
  6
CONTINUOUS
 62
    7
 10
141.45506162901182
 20
132.72644867768159
 11
146.25504777238177
 21
133.32644075960727
  0
LINE
  8
_1-1_
  6
CONTINUOUS
 62
    7
 10
80.341879354940886
 20
132.72644867768159
 11
80.341879354940886
 21
133.32644075960727
  0
LINE
  8
_1-1_
  6
CONTINUOUS
 62
    7
 10
80.341879354940886
 20
133.32644075960727
 11
85.141865498310821
 21
133.32644075960727
  0
LINE
  8
_1-1_
  6
CONTINUOUS
 62
    7
 10
85.141865498310821
 20
133.32644075960727
 11
85.141865498310821
 21
132.72644867768159
  0
LINE
  8
_1-1_
  6
CONTINUOUS
 62
    7
 10
85.141865498310821
 20
132.72644867768159
 11
80.341879354940886
 21
132.72644867768159
  0
LINE
  8
_1-1_
  6
CONTINUOUS
 62
    7
 10
80.341879354940886
 20
132.72644867768159
 11
85.141865498310821
 21
133.32644075960727
  0
LINE
  8
_1-3_
  6
CONTINUOUS
 62
    7
 10
265.74245143581084
 20
190.65011926599453
 11
256.08108932907516
 21
217.19448605099242
  0
LINE
  8
_1-3_
  6
CONTINUOUS
 62
    7
 10
255.03286000844597
 20
133.70864868164062
 11
232.83733471019849
 21
72.726918813344597
  0
LINE
  8
_1-3_
  6
CONTINUOUS
 62
    7
 10
255.03286000844597
 20
133.70864868164062
 11
255.9741953256968
 21
132.41811391469597
  0
LINE
  8
_1-3_
  6
CONTINUOUS
 62
    7
 10
256.08108932907516
 20
217.19448605099242
 11
252.56088669235643
 21
217.19448605099242
  0
LINE
  8
_1-3_
  6
CONTINUOUS
 62
    7
 10
250.53831358213685
 20
193.93055271457982
 11
247.74122908308701
 21
193.93055271457982
  0
LINE
  8
_1-3_
  6
CONTINUOUS
 62
    7
 10
245.17686173722552
 20
162.21657417915964
 11
241.64621713999156
 21
162.21657417915964
  0
LINE
  8
_1-3_
  6
CONTINUOUS
 62
    7
 10
232.83733471019849
 20
72.726918813344597
 11
223.7837837837838
 21
72.726918813344597
  0
LINE
  8
_1-3_
  6
CONTINUOUS
 62
    7
 10
245.17686173722552
 20
162.21657417915964
 11
250.46135979729732
 21
147.69756007838893
  0
LINE
  8
_1-3_
  6
CONTINUOUS
 62
    7
 10
250.46135979729732
 20
147.69756007838893
 11
258.78830368454391
 21
147.87592707453547
  0
LINE
  8
_1-3_
  6
CONTINUOUS
 62
    7
 10
242.99763447529563
 20
182.10510666305956
 11
240.80175451330237
 21
182.10510666305956
  0
LINE
  8
_1-1_
  6
CONTINUOUS
 62
    7
 10
267.27034285261828
 20
191.49927087732266
 11
272.27033460462417
 21
191.49927087732266
  0
LINE
  8
_1-1_
  6
CONTINUOUS
 62
    7
 10
267.27034285261828
 20
191.49927087732266
 11
267.27034285261828
 21
215.13150601773651
  0
LINE
  8
_1-1_
  6
DASHED1
 62
    7
 10
272.27033460462417
 20
191.49927087732266
 11
272.27033460462417
 21
214.99001992715372
  0
LINE
  8
_1-1_
  6
CONTINUOUS
 62
    7
 10
272.27033460462417
 20
191.49927087732266
 11
272.27033460462417
 21
115.94594594594595
  0
LINE
  8
_1-1_
  6
DASHED1
 62
    7
 10
272.27033460462417
 20
191.49927087732266
 11
272.27033460462417
 21
215.27843578441724
  0
LINE
  8
_1-1_
  6
CONTINUOUS
 62
    3
 10
267.27034285261828
 20
187.38262692013302
 11
271.64149103937922
 21
187.38262692013302
  0
LINE
  8
_1-1_
  6
CONTINUOUS
 62
    3
 10
271.64149103937922
 20
187.38262692013302
 11
271.64149103937922
 21
191.33587399044552
  0
LINE
  8
_1-1_
  6
CONTINUOUS
 62
    7
 10
268.15716717694261
 20
186.1485579207137
 11
271.15717707453547
 21
186.1485579207137
  0
LINE
  8
_1-1_
  6
CONTINUOUS
 62
    7
 10
271.38690020586995
 20
187.38262692013302
 11
271.64149103937922
 21
187.6372053816512
  0
LINE
  8
_1-1_
  6
CONTINUOUS
 62
    7
 10
270.53837956608953
 20
187.38262692013302
 11
271.64149103937922
 21
188.48572602143159
  0
LINE
  8
_1-1_
  6
CONTINUOUS
 62
    7
 10
269.68985892630911
 20
187.38262692013302
 11
271.64149103937922
 21
189.33424666121201
  0
LINE
  8
_1-1_
  6
CONTINUOUS
 62
    7
 10
268.84133828652875
 20
187.38262692013302
 11
271.64149103937922
 21
190.18277967298354
  0
LINE
  8
_1-1_
  6
CONTINUOUS
 62
    7
 10
268.62784720755911
 20
188.01765648094386
 11
271.64149103937922
 21
191.03130031276396
  0
LINE
  8
_1-1_
  6
CONTINUOUS
 62
    7
 10
268.90025370829818
 20
189.1385959934544
 11
271.26092859216641
 21
191.49927087732266
  0
LINE
  8
_1-1_
  6
CONTINUOUS
 62
    7
 10
268.88897045238599
 20
189.97584574931378
 11
270.41240795238599
 21
191.49927087732266
  0
LINE
  8
_1-1_
  6
CONTINUOUS
 62
    7
 10
268.74008591110646
 20
190.67548184781461
 11
269.56388731260557
 21
191.49927087732266
  0
LINE
  8
_1-1_
  6
CONTINUOUS
 62
    7
 10
268.49667935758026
 20
191.28060830605997
 11
268.71534192884292
 21
191.49927087732266
  0
LINE
  8
ADD_LINE
  6
DOT
 62
    4
 10
272.27033460462417
 20
191.49927087732266
 11
272.27033460462417
 21
125.49927582611909
  0
LINE
  8
_1-3_
  6
CONTINUOUS
 62
    7
 10
144.10585970491977
 20
128.45915098448057
 11
117.64015403953759
 21
201.17309157912797
  0
LINE
  8
_1-1_
  6
CONTINUOUS
 62
    7
 10
267.27034285261828
 20
196.10056284311656
 11
283.7837837837838
 21
212.61400377428211
  0
LINE
  8
_1-1_
  6
CONTINUOUS
 62
    7
 10
267.27034285261828
 20
198.36330104518584
 11
283.7837837837838
 21
214.87674197635135
  0
LINE
  8
_1-1_
  6
CONTINUOUS
 62
    7
 10
267.27034285261828
 20
200.62603924725508
 11
283.7837837837838
 21
217.13948017842063
  0
LINE
  8
_1-1_
  6
CONTINUOUS
 62
    7
 10
274.60502830711573
 20
132.47366415487755
 11
294.41510999524917
 21
132.47366415487755
  0
LINE
  8
_1-1_
  6
CONTINUOUS
 62
    7
 10
308.91891891891896
 20
132.47366415487755
 11
308.91891891891896
 21
191.49927087732266
  0
LINE
  8
_1-1_
  6
CONTINUOUS
 62
    7
 10
278.91891891891896
 20
132.47366415487755
 11
308.91891891891896
 21
132.47366415487755
  0
LINE
  8
_1-1_
  6
CONTINUOUS
 62
    7
 10
278.91891891891896
 20
191.49927087732266
 11
308.91891891891896
 21
191.49927087732266
  0
LINE
  8
_1-1_
  6
CONTINUOUS
 62
    7
 10
265.74245143581084
 20
190.65011926599453
 11
270.28175972603464
 21
190.65011926599453
  0
LINE
  8
_1-1_
  6
CONTINUOUS
 62
    7
 10
272.27033460462417
 20
121.49927500131969
 11
66.486474114495365
 21
121.49927500131969
  0
LINE
  8
_1-1_
  6
CONTINUOUS
 62
    7
 10
272.27033460462417
 20
97.499276238518803
 11
272.27033460462417
 21
125.49927582611909
  0
LINE
  8
_1-1_
  6
CONTINUOUS
 62
    7
 10
272.27033460462417
 20
97.499276238518803
 11
112.02338141364021
 21
97.499276238518803
  0
LINE
  8
_1-1_
  6
CONTINUOUS
 62
    7
 10
112.02338141364021
 20
97.499276238518803
 11
66.486474114495365
 21
97.499276238518803
  0
LINE
  8
_1-1_
  6
CONTINUOUS
 62
    7
 10
104.94367032437712
 20
121.49927500131969
 11
80.943671561576224
 21
97.499276238518803
  0
LINE
  8
_1-1_
  6
CONTINUOUS
 62
    7
 10
100.41819392023861
 20
121.49927500131969
 11
76.418195157437708
 21
97.499276238518803
  0
LINE
  8
_1-1_
  6
CONTINUOUS
 62
    7
 10
102.68093212230787
 20
121.49927500131969
 11
78.68093335950698
 21
97.499276238518803
  0
LINE
  8
_1-1_
  6
CONTINUOUS
 62
    7
 10
193.2767053552576
 20
121.49927500131969
 11
169.27671277845229
 21
97.499276238518803
  0
LINE
  8
_1-1_
  6
CONTINUOUS
 62
    7
 10
188.75122895111909
 20
121.49927500131969
 11
164.75123637431378
 21
97.499276238518803
  0
LINE
  8
_1-1_
  6
CONTINUOUS
 62
    7
 10
191.01396715318836
 20
121.49927500131969
 11
167.01397457638302
 21
97.499276238518803
  0
LINE
  8
_0-0_
  6
CONTINUOUS
 62
    5
 10
406.75677325274495
 20
10.13513513513513
 11
6.7567526327597136
 21
10.13513513513513
  0
LINE
  8
_1-3_
  6
CONTINUOUS
 62
    7
 10
101.32602588550465
 20
176.82719050226987
 11
126.5013328758446
 21
176.82719050226987
  0
LINE
  8
_1-3_
  6
CONTINUOUS
 62
    7
 10
101.32602588550465
 20
182.51539900496201
 11
124.43100387985642
 21
182.51539900496201
  0
LINE
  8
_1-3_
  6
CONTINUOUS
 62
    7
 10
101.32602588550465
 20
187.95627903293919
 11
122.45068111935178
 21
187.95627903293919
  0
LINE
  8
_1-3_
  6
CONTINUOUS
 62
    7
 10
101.32602588550465
 20
193.89179126636404
 11
120.29033351588895
 21
193.89179126636404
  0
LINE
  8
_1-1_
  6
CONTINUOUS
 62
    7
 10
117.64015403953759
 20
201.17309157912797
 11
101.32602588550465
 21
201.17309157912797
  0
LINE
  8
_1-0_
  6
CONTINUOUS
 62
    3
 10
106.39718133050043
 20
146.16986661343961
 11
107.78665491052577
 21
146.16986661343961
  0
LINE
  8
_1-0_
  6
CONTINUOUS
 62
    3
 10
107.78665491052577
 20
146.16986661343961
 11
107.78665491052577
 21
142.98863178974875
  0
LINE
  8
_1-0_
  6
CONTINUOUS
 62
    3
 10
105.45824617952914
 20
149.05204566749367
 11
99.78658521497573
 21
145.82708822714318
  0
LINE
  8
_1-0_
  6
CONTINUOUS
 62
    3
 10
159.39715823611698
 20
146.16986661343961
 11
160.78663181614232
 21
146.16986661343961
  0
LINE
  8
_1-0_
  6
CONTINUOUS
 62
    3
 10
99.78658521497573
 20
145.82708822714318
 11
99.78658521497573
 21
143.02713342615075
  0
LINE
  8
_1-0_
  6
CONTINUOUS
 62
    3
 10
104.35904425543708
 20
145.39577587230787
 11
99.78658521497573
 21
143.02713342615075
  0
LINE
  8
_1-0_
  6
CONTINUOUS
 62
    3
 10
160.78663181614232
 20
146.16986661343961
 11
160.78663181614232
 21
142.98863178974875
  0
LINE
  8
_1-0_
  6
CONTINUOUS
 62
    3
 10
160.78663181614232
 20
146.16986661343961
 11
160.78663181614232
 21
142.98863178974875
  0
LINE
  8
_1-0_
  6
CONTINUOUS
 62
    3
 10
158.4582230851457
 20
149.05205803948482
 11
152.78658067857899
 21
145.82708822714318
  0
LINE
  8
_1-0_
  6
CONTINUOUS
 62
    3
 10
212.39717225770693
 20
146.16985424144849
 11
213.78667058171453
 21
146.16985424144849
  0
LINE
  8
_1-0_
  6
CONTINUOUS
 62
    3
 10
152.78658067857899
 20
145.82708822714318
 11
152.78658067857899
 21
143.02713342615075
  0
LINE
  8
_1-0_
  6
CONTINUOUS
 62
    3
 10
157.35904590503591
 20
145.39576350031672
 11
152.78658067857899
 21
143.02713342615075
  0
LINE
  8
_1-0_
  6
CONTINUOUS
 62
    3
 10
213.78667058171453
 20
146.16985424144849
 11
213.78667058171453
 21
142.98863178974875
  0
LINE
  8
_1-0_
  6
CONTINUOUS
 62
    3
 10
213.78667058171453
 20
146.16985424144849
 11
213.78667058171453
 21
142.98863178974875
  0
LINE
  8
_1-0_
  6
CONTINUOUS
 62
    3
 10
212.39724648965372
 20
146.16986661343961
 11
213.78672006967906
 21
146.16986661343961
  0
LINE
  8
_1-0_
  6
CONTINUOUS
 62
    3
 10
213.78672006967906
 20
146.16986661343961
 11
213.78672006967906
 21
142.98863178974875
  0
LINE
  8
_1-0_
  6
CONTINUOUS
 62
    3
 10
213.78672006967906
 20
146.16986661343961
 11
213.78672006967906
 21
142.98863178974875
  0
LINE
  8
_1-0_
  6
CONTINUOUS
 62
    3
 10
211.45831133868245
 20
149.05204566749367
 11
205.78663181614232
 21
145.82708822714318
  0
LINE
  8
_1-0_
  6
CONTINUOUS
 62
    3
 10
265.39722339527026
 20
146.16986661343961
 11
266.78669697529563
 21
146.16986661343961
  0
LINE
  8
_1-0_
  6
CONTINUOUS
 62
    3
 10
205.78663181614232
 20
145.82708822714318
 11
205.78663181614232
 21
143.02713342615075
  0
LINE
  8
_1-0_
  6
CONTINUOUS
 62
    3
 10
210.35910941459039
 20
145.39577587230787
 11
205.78663181614232
 21
143.02713342615075
  0
LINE
  8
_1-0_
  6
CONTINUOUS
 62
    3
 10
266.78669697529563
 20
146.16986661343961
 11
266.78669697529563
 21
142.98863178974875
  0
LINE
  8
_1-0_
  6
CONTINUOUS
 62
    3
 10
266.78669697529563
 20
146.16986661343961
 11
266.78669697529563
 21
142.98863178974875
  0
LINE
  8
_1-1_
  6
CONTINUOUS
 62
    7
 10
268.30924369193411
 20
132.3484348606419
 11
268.30924369193411
 21
153.13601519610432
  0
LINE
  8
_1-1_
  6
CONTINUOUS
 62
    7
 10
268.30924369193411
 20
153.13601519610432
 11
271.30925358952703
 21
153.13601519610432
  0
LINE
  8
_1-1_
  6
CONTINUOUS
 62
    7
 10
271.30925358952703
 20
153.13601519610432
 11
271.30925358952703
 21
132.3484348606419
  0
LINE
  8
_1-1_
  6
CONTINUOUS
 62
    7
 10
268.30924369193411
 20
153.13601519610432
 11
271.30925358952703
 21
132.3484348606419
  0
LINE
  8
_1-1_
  6
CONTINUOUS
 62
    3
 10
265.53145949904984
 20
153.26124449033995
 11
265.53145949904984
 21
149.75737288191513
  0
LINE
  8
_1-1_
  6
CONTINUOUS
 62
    3
 10
267.80305604676943
 20
132.47366415487755
 11
267.80305604676943
 21
153.26124449033995
  0
LINE
  8
_1-1_
  6
CONTINUOUS
 62
    7
 10
252.11836531355576
 20
151.02185223553633
 11
251.57785776499156
 21
153.97275770032729
  0
LINE
  8
_1-1_
  6
CONTINUOUS
 62
    7
 10
251.57785776499156
 20
153.97275770032729
 11
269.28329055373734
 21
157.21582773569469
  0
LINE
  8
_1-1_
  6
CONTINUOUS
 62
    7
 10
269.28329055373734
 20
157.21582773569469
 11
269.82379810230151
 21
154.26492227090372
  0
LINE
  8
_1-1_
  6
CONTINUOUS
 62
    7
 10
269.82379810230151
 20
154.26492227090372
 11
252.11836531355576
 21
151.02185223553633
  0
LINE
  8
_1-1_
  6
CONTINUOUS
 62
    7
 10
251.57785776499156
 20
153.97275770032729
 11
269.82379810230151
 21
154.26492227090372
  0
LINE
  8
_1-3_
  6
CONTINUOUS
 62
    3
 10
251.09010438661318
 20
154.4219970703125
 11
250.61400542388094
 21
149.30381568702492
  0
LINE
  8
_1-3_
  6
CONTINUOUS
 62
    3
 10
250.61400542388094
 20
149.30381568702492
 11
251.67332004856419
 21
150.49554773279138
  0
LINE
  8
_1-3_
  6
CONTINUOUS
 62
    7
 10
261.46198994404563
 20
154.70558785103464
 11
250.53831358213685
 21
193.93055271457982
  0
LINE
  8
_1-3_
  6
CONTINUOUS
 62
    7
 10
250.76726965002112
 20
151.54579368797511
 11
242.99763447529563
 21
182.10510666305956
  0
LINE
  8
_1-3_
  6
CONTINUOUS
 62
    3
 10
251.09010438661318
 20
154.4219970703125
 11
267.27034285261828
 21
157.3856951739337
  0
LINE
  8
_1-1_
  6
CONTINUOUS
 62
    3
 10
267.27034285261828
 20
187.38262692013302
 11
267.27034285261828
 21
157.3856951739337
  0
LINE
  8
_1-1_
  6
CONTINUOUS
 62
    7
 10
268.15716717694261
 20
158.9361283585832
 11
268.15716717694261
 21
186.1485579207137
  0
LINE
  8
_1-1_
  6
CONTINUOUS
 62
    7
 10
271.15717707453547
 20
186.1485579207137
 11
271.15717707453547
 21
158.9361283585832
  0
LINE
  8
_1-1_
  6
CONTINUOUS
 62
    7
 10
271.15717707453547
 20
158.9361283585832
 11
268.15716717694261
 21
158.9361283585832
  0
LINE
  8
_1-1_
  6
CONTINUOUS
 62
    7
 10
271.15717707453547
 20
186.1485579207137
 11
268.15716717694261
 21
159.59759686444258
  0
LINE
  8
_1-1_
  6
CONTINUOUS
 62
    3
 10
265.53145949904984
 20
153.26124449033995
 11
267.80305604676943
 21
153.26124449033995
  0
CIRCLE
  8
_1-2_
  6
CONTINUOUS
 62
    7
 10
259.15107520850933
 20
151.22655920080237
 40
0.2324253240147152
  0
CIRCLE
  8
_1-2_
  6
CONTINUOUS
 62
    7
 10
257.91454418285474
 20
148.17567567567568
 40
0.2324253240147152
  0
CIRCLE
  8
_1-2_
  6
CONTINUOUS
 62
    7
 10
260.26532147381761
 20
151.60383069837417
 40
0.2324253240147152
  0
CIRCLE
  8
_1-2_
  6
CONTINUOUS
 62
    7
 10
259.27919954866979
 20
151.76818022856841
 40
0.2324253240147152
  0
CIRCLE
  8
_1-2_
  6
CONTINUOUS
 62
    7
 10
256.27099939294766
 20
144.72424893765836
 40
0.2324253240147152
  0
CIRCLE
  8
_1-2_
  6
CONTINUOUS
 62
    7
 10
260.70853568412161
 20
146.03908229518581
 40
0.2324253240147152
  0
CIRCLE
  8
_1-2_
  6
CONTINUOUS
 62
    7
 10
261.36595854888094
 20
147.51826518290753
 40
0.2324253240147152
  0
CIRCLE
  8
_1-2_
  6
CONTINUOUS
 62
    7
 10
263.17385286898229
 20
148.50438710805534
 40
0.2324253240147152
  0
CIRCLE
  8
_1-2_
  6
CONTINUOUS
 62
    7
 10
260.87288521431589
 20
149.98356999577703
 40
0.2324253240147152
  0
CIRCLE
  8
_1-2_
  6
CONTINUOUS
 62
    7
 10
256.59969845333615
 20
150.31226905616555
 40
0.2324253240147152
  0
CIRCLE
  8
_1-2_
  6
CONTINUOUS
 62
    7
 10
259.39371469858531
 20
148.66873663824958
 40
0.2324253240147152
  0
CIRCLE
  8
_1-2_
  6
CONTINUOUS
 62
    7
 10
259.44354907886401
 20
150.78205830342063
 40
0.2324253240147152
  0
CIRCLE
  8
_1-2_
  6
CONTINUOUS
 62
    7
 10
263.22368724926099
 20
151.11075736380914
 40
0.2324253240147152
  0
CIRCLE
  8
_1-2_
  6
CONTINUOUS
 62
    7
 10
264.04545964421453
 20
151.76818022856841
 40
0.2324253240147152
  0
CIRCLE
  8
_1-2_
  6
CONTINUOUS
 62
    7
 10
258.4075927734375
 20
145.05296037003802
 40
0.2324253240147152
  0
CIRCLE
  8
_1-2_
  6
CONTINUOUS
 62
    7
 10
256.43534892314193
 20
144.06683844489021
 40
0.2324253240147152
  0
CIRCLE
  8
_1-2_
  6
CONTINUOUS
 62
    7
 10
257.58582037848396
 20
147.18955375052789
 40
0.2324253240147152
  0
CIRCLE
  8
_1-2_
  6
CONTINUOUS
 62
    7
 10
259.55806422877959
 20
147.51826518290753
 40
0.2324253240147152
  0
CIRCLE
  8
_1-2_
  6
CONTINUOUS
 62
    7
 10
261.20160901868667
 20
148.34002520586995
 40
0.2324253240147152
  0
CIRCLE
  8
_1-2_
  6
CONTINUOUS
 62
    7
 10
263.00947859480578
 20
149.49050903320312
 40
0.2324253240147152
  0
CIRCLE
  8
_1-2_
  6
CONTINUOUS
 62
    7
 10
257.25712131809547
 20
149.98356999577703
 40
0.2324253240147152
  0
CIRCLE
  8
_1-2_
  6
CONTINUOUS
 62
    7
 10
257.42147084828969
 20
149.49050903320312
 40
0.2324253240147152
  0
CIRCLE
  8
_1-2_
  6
CONTINUOUS
 62
    7
 10
258.62180142789276
 20
150.61770877322635
 40
0.2324253240147152
  0
CIRCLE
  8
_1-2_
  6
CONTINUOUS
 62
    7
 10
256.76535941459036
 20
147.44838817699537
 40
0.2324253240147152
  0
CIRCLE
  8
_1-2_
  6
CONTINUOUS
 62
    7
 10
259.53156342377537
 20
146.45256661080026
 40
0.2324253240147152
  0
CIRCLE
  8
_1-2_
  6
CONTINUOUS
 62
    7
 10
264.28941056535052
 20
147.66968598236909
 40
0.2324253240147152
  0
CIRCLE
  8
_1-2_
  6
CONTINUOUS
 62
    7
 10
265.72782774229307
 20
148.00162650443414
 40
0.2324253240147152
  0
CIRCLE
  8
_1-2_
  6
CONTINUOUS
 62
    7
 10
266.28105369774073
 20
146.56320932749156
 40
0.2324253240147152
  0
CIRCLE
  8
_1-2_
  6
CONTINUOUS
 62
    7
 10
263.62550477723818
 20
141.03082605310388
 40
0.2324253240147152
  0
CIRCLE
  8
_1-2_
  6
CONTINUOUS
 62
    7
 10
264.17875547666807
 20
139.70306396484375
 40
0.2324253240147152
  0
CIRCLE
  8
_1-2_
  6
CONTINUOUS
 62
    7
 10
264.73198143211573
 20
138.81788511533995
 40
0.2324253240147152
  0
CIRCLE
  8
_1-2_
  6
CONTINUOUS
 62
    7
 10
266.17039860905828
 20
139.03917054872255
 40
0.2324253240147152
  0
CIRCLE
  8
_1-2_
  6
CONTINUOUS
 62
    7
 10
266.50233913112334
 20
139.92434939822635
 40
0.2324253240147152
  0
CIRCLE
  8
_1-2_
  6
CONTINUOUS
 62
    7
 10
265.61717265361068
 20
136.6049318055849
 40
0.2324253240147152
  0
CIRCLE
  8
_1-2_
  6
CONTINUOUS
 62
    7
 10
260.85932551203547
 20
137.4901106550887
 40
0.2324253240147152
  0
CIRCLE
  8
_1-2_
  6
CONTINUOUS
 62
    7
 10
263.29356425517318
 20
138.4859322212838
 40
0.2324253240147152
  0
CIRCLE
  8
_1-2_
  6
CONTINUOUS
 62
    7
 10
265.17457704286318
 20
139.92434939822635
 40
0.2324253240147152
  0
CIRCLE
  8
_1-2_
  6
CONTINUOUS
 62
    7
 10
263.07227882179058
 20
140.36694500897383
 40
0.2324253240147152
  0
CIRCLE
  8
_1-2_
  6
CONTINUOUS
 62
    7
 10
262.40839777766047
 20
137.26881284971495
 40
0.2324253240147152
  0
CIRCLE
  8
_1-2_
  6
CONTINUOUS
 62
    7
 10
260.30609955658787
 20
135.60909786739865
 40
0.2324253240147152
  0
CIRCLE
  8
_1-2_
  6
CONTINUOUS
 62
    7
 10
261.85514707823057
 20
134.17068069045609
 40
0.2324253240147152
  0
CIRCLE
  8
_1-2_
  6
CONTINUOUS
 62
    7
 10
261.19126603410052
 20
133.39614455764359
 40
0.2324253240147152
  0
CIRCLE
  8
_1-2_
  6
CONTINUOUS
 62
    7
 10
265.50651756492823
 20
133.17485912426099
 40
0.2324253240147152
  0
CIRCLE
  8
_1-2_
  6
CONTINUOUS
 62
    7
 10
266.05976826435813
 20
134.06003797376479
 40
0.2324253240147152
  0
CIRCLE
  8
_1-2_
  6
CONTINUOUS
 62
    7
 10
264.28941056535052
 20
134.50262121252112
 40
0.2324253240147152
  0
CIRCLE
  8
_1-2_
  6
CONTINUOUS
 62
    7
 10
260.19544446790542
 20
134.72391901789484
 40
0.2324253240147152
  0
CIRCLE
  8
_1-2_
  6
CONTINUOUS
 62
    7
 10
258.20377659153297
 20
135.0558595399599
 40
0.2324253240147152
  0
CIRCLE
  8
_1-2_
  6
CONTINUOUS
 62
    7
 10
256.10147837046031
 20
134.28133577913852
 40
0.2324253240147152
  0
CIRCLE
  8
_1-2_
  6
CONTINUOUS
 62
    7
 10
255.99082328177789
 20
135.60909786739865
 40
0.2324253240147152
  0
CIRCLE
  8
_1-2_
  6
CONTINUOUS
 62
    7
 10
259.86350394584036
 20
138.04334898252745
 40
0.2324253240147152
  0
CIRCLE
  8
_1-2_
  6
CONTINUOUS
 62
    7
 10
257.42924045872047
 20
145.45673267261404
 40
0.2324253240147152
  0
CIRCLE
  8
_1-2_
  6
CONTINUOUS
 62
    7
 10
258.53571711359797
 20
146.56320932749156
 40
0.2324253240147152
  0
ARC
  8
_1-1_
  6
CONTINUOUS
 62
    7
 10
264.9538854650549
 20
189.50408935546875
 40
3.9632652901314405
 50
327.63697814941406
 51
30.226516723632795
  0
CIRCLE
  8
_1-1_
  6
CONTINUOUS
 62
    7
 10
77.765832849451016
 20
126.64770590292441
 40
0.1627906593116554
  0
CIRCLE
  8
_1-1_
  6
CONTINUOUS
 62
    7
 10
74.835644283810183
 20
125.99655563766892
 40
0.1627906593116554
  0
CIRCLE
  8
_1-1_
  6
CONTINUOUS
 62
    7
 10
74.02170335924302
 20
125.67097431904561
 40
0.1627906593116554
  0
CIRCLE
  8
_1-1_
  6
CONTINUOUS
 62
    7
 10
76.951891924883853
 20
126.81049656223607
 40
0.1627906593116554
  0
CIRCLE
  8
_1-1_
  6
CONTINUOUS
 62
    7
 10
74.835644283810183
 20
127.78722814611487
 40
0.1627906593116554
  0
CIRCLE
  8
_1-1_
  6
CONTINUOUS
 62
    7
 10
73.207762434675885
 20
127.95001880542652
 40
0.1627906593116554
  0
CIRCLE
  8
_1-1_
  6
CONTINUOUS
 62
    7
 10
70.277567683039479
 20
127.29885616817991
 40
0.1627906593116554
  0
CIRCLE
  8
_1-1_
  6
CONTINUOUS
 62
    7
 10
69.789208077095651
 20
125.34539300042231
 40
0.1627906593116554
  0
CIRCLE
  8
_1-1_
  6
CONTINUOUS
 62
    7
 10
78.742558247334273
 20
124.36867378853464
 40
0.1627906593116554
  0
CIRCLE
  8
_1-1_
  6
CONTINUOUS
 62
    7
 10
80.53323075578021
 20
124.20588312922298
 40
0.1627906593116554
  0
CIRCLE
  8
_1-1_
  6
CONTINUOUS
 62
    7
 10
82.4866939235378
 20
125.18261471310178
 40
0.1627906593116554
  0
CIRCLE
  8
_1-1_
  6
CONTINUOUS
 62
    7
 10
80.044871149836354
 20
125.99655563766892
 40
0.1627906593116554
  0
CIRCLE
  8
_1-1_
  6
CONTINUOUS
 62
    7
 10
79.068139565957551
 20
127.29885616817991
 40
0.1627906593116554
  0
CIRCLE
  8
_1-1_
  6
CONTINUOUS
 62
    7
 10
74.672853624498543
 20
127.46164682749156
 40
0.1627906593116554
  0
CIRCLE
  8
_1-1_
  6
CONTINUOUS
 62
    7
 10
73.370546907991979
 20
126.64770590292441
 40
0.1627906593116554
  0
CIRCLE
  8
_1-1_
  6
CONTINUOUS
 62
    7
 10
75.486794549065678
 20
124.69424273516681
 40
0.1627906593116554
  0
CIRCLE
  8
_1-1_
  6
CONTINUOUS
 62
    7
 10
72.719396642736484
 20
124.20588312922298
 40
0.1627906593116554
  0
CIRCLE
  8
_1-1_
  6
CONTINUOUS
 62
    7
 10
70.765939660974453
 20
123.39194220465583
 40
0.1627906593116554
  0
CIRCLE
  8
_1-1_
  6
CONTINUOUS
 62
    7
 10
68.812476493216849
 20
128.2755877520587
 40
0.1627906593116554
  0
CIRCLE
  8
_1-1_
  6
CONTINUOUS
 62
    7
 10
70.440358342351146
 20
129.2523193359375
 40
0.1627906593116554
  0
CIRCLE
  8
_1-1_
  6
CONTINUOUS
 62
    7
 10
78.416983114706511
 20
129.08952867662586
 40
0.1627906593116554
  0
CIRCLE
  8
_1-1_
  6
CONTINUOUS
 62
    7
 10
90.510276588233751
 20
126.92475190033784
 40
0.1627906593116554
  0
CIRCLE
  8
_1-1_
  6
CONTINUOUS
 62
    7
 10
87.580088022592903
 20
126.27360163508236
 40
0.1627906593116554
  0
CIRCLE
  8
_1-1_
  6
CONTINUOUS
 62
    7
 10
86.766147098025769
 20
125.94802031645905
 40
0.1627906593116554
  0
CIRCLE
  8
_1-1_
  6
CONTINUOUS
 62
    7
 10
89.696335663666602
 20
127.08754255964951
 40
0.1627906593116554
  0
CIRCLE
  8
_1-1_
  6
CONTINUOUS
 62
    7
 10
87.580088022592903
 20
128.06427414352831
 40
0.1627906593116554
  0
CIRCLE
  8
_1-1_
  6
CONTINUOUS
 62
    7
 10
85.95220617345862
 20
128.22706480283995
 40
0.1627906593116554
  0
CIRCLE
  8
_1-1_
  6
CONTINUOUS
 62
    7
 10
83.022011421822214
 20
127.57590216559333
 40
0.1627906593116554
  0
CIRCLE
  8
_1-1_
  6
CONTINUOUS
 62
    7
 10
82.533651815878386
 20
125.62243899783573
 40
0.1627906593116554
  0
CIRCLE
  8
_1-1_
  6
CONTINUOUS
 62
    7
 10
91.487001986116979
 20
124.64571978594806
 40
0.1627906593116554
  0
CIRCLE
  8
_1-1_
  6
CONTINUOUS
 62
    7
 10
93.27767449456293
 20
124.48292912663641
 40
0.1627906593116554
  0
CIRCLE
  8
_1-1_
  6
CONTINUOUS
 62
    7
 10
95.231137662320535
 20
125.45966071051521
 40
0.1627906593116554
  0
CIRCLE
  8
_1-1_
  6
CONTINUOUS
 62
    7
 10
92.789314888619089
 20
126.27360163508236
 40
0.1627906593116554
  0
CIRCLE
  8
_1-1_
  6
CONTINUOUS
 62
    7
 10
91.812583304740286
 20
127.57590216559333
 40
0.1627906593116554
  0
CIRCLE
  8
_1-1_
  6
CONTINUOUS
 62
    7
 10
87.41729736328125
 20
127.73869282490499
 40
0.1627906593116554
  0
CIRCLE
  8
_1-1_
  6
CONTINUOUS
 62
    7
 10
86.114990646774714
 20
126.92475190033784
 40
0.1627906593116554
  0
CIRCLE
  8
_1-1_
  6
CONTINUOUS
 62
    7
 10
88.231238287848399
 20
124.97128873258025
 40
0.1627906593116554
  0
CIRCLE
  8
_1-1_
  6
CONTINUOUS
 62
    7
 10
85.463840381519219
 20
124.48292912663641
 40
0.1627906593116554
  0
CIRCLE
  8
_1-1_
  6
CONTINUOUS
 62
    7
 10
83.510383399757188
 20
123.66898820206926
 40
0.1627906593116554
  0
CIRCLE
  8
_1-1_
  6
CONTINUOUS
 62
    7
 10
81.556920231999584
 20
128.55263374947214
 40
0.1627906593116554
  0
CIRCLE
  8
_1-1_
  6
CONTINUOUS
 62
    7
 10
83.184802081133867
 20
129.52936533335094
 40
0.1627906593116554
  0
CIRCLE
  8
_1-1_
  6
CONTINUOUS
 62
    7
 10
91.161426853489232
 20
129.36657467403927
 40
0.1627906593116554
  0
CIRCLE
  8
_1-1_
  6
CONTINUOUS
 62
    7
 10
96.051338814400339
 20
127.47886863914697
 40
0.1627906593116554
  0
CIRCLE
  8
_1-1_
  6
CONTINUOUS
 62
    7
 10
93.121150248759506
 20
126.82771837389147
 40
0.1627906593116554
  0
CIRCLE
  8
_1-1_
  6
CONTINUOUS
 62
    7
 10
92.307209324192357
 20
126.50213705526816
 40
0.1627906593116554
  0
CIRCLE
  8
_1-1_
  6
CONTINUOUS
 62
    7
 10
95.237397889833204
 20
127.64165929845862
 40
0.1627906593116554
  0
CIRCLE
  8
_1-1_
  6
CONTINUOUS
 62
    7
 10
93.121150248759506
 20
128.61839088233742
 40
0.1627906593116554
  0
CIRCLE
  8
_1-1_
  6
CONTINUOUS
 62
    7
 10
91.493268399625222
 20
128.78118154164909
 40
0.1627906593116554
  0
CIRCLE
  8
_1-1_
  6
CONTINUOUS
 62
    7
 10
88.563073647988816
 20
128.13001890440245
 40
0.1627906593116554
  0
CIRCLE
  8
_1-1_
  6
CONTINUOUS
 62
    7
 10
88.074714042044974
 20
126.17655573664486
 40
0.1627906593116554
  0
CIRCLE
  8
_1-1_
  6
CONTINUOUS
 62
    7
 10
97.028064212283581
 20
125.19983652475719
 40
0.1627906593116554
  0
CIRCLE
  8
_1-1_
  6
CONTINUOUS
 62
    7
 10
98.818736720729518
 20
125.03704586544553
 40
0.1627906593116554
  0
CIRCLE
  8
_1-1_
  6
CONTINUOUS
 62
    7
 10
100.77219988848712
 20
126.01377744932434
 40
0.1627906593116554
  0
CIRCLE
  8
_1-1_
  6
CONTINUOUS
 62
    7
 10
98.330377114785691
 20
126.82771837389147
 40
0.1627906593116554
  0
CIRCLE
  8
_1-1_
  6
CONTINUOUS
 62
    7
 10
97.353645530906888
 20
128.13001890440245
 40
0.1627906593116554
  0
CIRCLE
  8
_1-1_
  6
CONTINUOUS
 62
    7
 10
92.958359589447852
 20
128.29280956371412
 40
0.1627906593116554
  0
CIRCLE
  8
_1-1_
  6
CONTINUOUS
 62
    7
 10
91.656052872941302
 20
127.47886863914697
 40
0.1627906593116554
  0
CIRCLE
  8
_1-1_
  6
CONTINUOUS
 62
    7
 10
93.772300514015001
 20
125.52540547138936
 40
0.1627906593116554
  0
CIRCLE
  8
_1-1_
  6
CONTINUOUS
 62
    7
 10
91.004902607685821
 20
125.03704586544553
 40
0.1627906593116554
  0
CIRCLE
  8
_1-1_
  6
CONTINUOUS
 62
    7
 10
89.051445625923776
 20
124.22310494087839
 40
0.1627906593116554
  0
CIRCLE
  8
_1-1_
  6
CONTINUOUS
 62
    7
 10
87.097982458166186
 20
129.10675048828125
 40
0.1627906593116554
  0
CIRCLE
  8
_1-1_
  6
CONTINUOUS
 62
    7
 10
88.725864307300469
 20
130.08348207216005
 40
0.1627906593116554
  0
CIRCLE
  8
_1-1_
  6
CONTINUOUS
 62
    7
 10
96.702489079655834
 20
129.92069141284841
 40
0.1627906593116554
  0
CIRCLE
  8
_1-1_
  6
CONTINUOUS
 62
    7
 10
106.30230053051099
 20
126.92475190033784
 40
0.1627906593116554
  0
CIRCLE
  8
_1-1_
  6
CONTINUOUS
 62
    7
 10
103.37211196487014
 20
126.27360163508236
 40
0.1627906593116554
  0
CIRCLE
  8
_1-1_
  6
CONTINUOUS
 62
    7
 10
102.55817104030301
 20
125.94802031645905
 40
0.1627906593116554
  0
CIRCLE
  8
_1-1_
  6
CONTINUOUS
 62
    7
 10
105.48835960594384
 20
127.08754255964951
 40
0.1627906593116554
  0
CIRCLE
  8
_1-1_
  6
CONTINUOUS
 62
    7
 10
103.37211196487014
 20
128.06427414352831
 40
0.1627906593116554
  0
CIRCLE
  8
_1-1_
  6
CONTINUOUS
 62
    7
 10
101.74423011573586
 20
128.22706480283995
 40
0.1627906593116554
  0
CIRCLE
  8
_1-1_
  6
CONTINUOUS
 62
    7
 10
98.814035364099453
 20
127.57590216559333
 40
0.1627906593116554
  0
CIRCLE
  8
_1-1_
  6
CONTINUOUS
 62
    7
 10
98.325675758155626
 20
125.62243899783573
 40
0.1627906593116554
  0
CIRCLE
  8
_1-1_
  6
CONTINUOUS
 62
    7
 10
107.27901974239866
 20
124.64571978594806
 40
0.1627906593116554
  0
CIRCLE
  8
_1-1_
  6
CONTINUOUS
 62
    7
 10
109.0696922508446
 20
124.48292912663641
 40
0.1627906593116554
  0
CIRCLE
  8
_1-1_
  6
CONTINUOUS
 62
    7
 10
111.0231554186022
 20
125.45966071051521
 40
0.1627906593116554
  0
CIRCLE
  8
_1-1_
  6
CONTINUOUS
 62
    7
 10
108.5813450168919
 20
126.27360163508236
 40
0.1627906593116554
  0
CIRCLE
  8
_1-1_
  6
CONTINUOUS
 62
    7
 10
107.60460106102197
 20
127.57590216559333
 40
0.1627906593116554
  0
CIRCLE
  8
_1-1_
  6
CONTINUOUS
 62
    7
 10
103.20932130555849
 20
127.73869282490499
 40
0.1627906593116554
  0
CIRCLE
  8
_1-1_
  6
CONTINUOUS
 62
    7
 10
101.90701458905195
 20
126.92475190033784
 40
0.1627906593116554
  0
CIRCLE
  8
_1-1_
  6
CONTINUOUS
 62
    7
 10
104.02325604413008
 20
124.97128873258025
 40
0.1627906593116554
  0
CIRCLE
  8
_1-1_
  6
CONTINUOUS
 62
    7
 10
101.25586432379646
 20
124.48292912663641
 40
0.1627906593116554
  0
CIRCLE
  8
_1-1_
  6
CONTINUOUS
 62
    7
 10
99.302407342034428
 20
123.66898820206926
 40
0.1627906593116554
  0
CIRCLE
  8
_1-1_
  6
CONTINUOUS
 62
    7
 10
97.348944174276824
 20
128.55263374947214
 40
0.1627906593116554
  0
CIRCLE
  8
_1-1_
  6
CONTINUOUS
 62
    7
 10
98.976826023411107
 20
129.52936533335094
 40
0.1627906593116554
  0
CIRCLE
  8
_1-1_
  6
CONTINUOUS
 62
    7
 10
106.95345079576647
 20
129.36657467403927
 40
0.1627906593116554
  0
CIRCLE
  8
_1-1_
  6
CONTINUOUS
 62
    7
 10
110.4581018396326
 20
126.37065990551099
 40
0.1627906593116554
  0
CIRCLE
  8
_1-1_
  6
CONTINUOUS
 62
    7
 10
107.52791945998733
 20
125.7195096402555
 40
0.1627906593116554
  0
CIRCLE
  8
_1-1_
  6
CONTINUOUS
 62
    7
 10
106.71396616342906
 20
125.39392832163219
 40
0.1627906593116554
  0
CIRCLE
  8
_1-1_
  6
CONTINUOUS
 62
    7
 10
109.64416091506546
 20
126.53345056482264
 40
0.1627906593116554
  0
CIRCLE
  8
_1-1_
  6
CONTINUOUS
 62
    7
 10
107.52791945998733
 20
127.51018214870145
 40
0.1627906593116554
  0
CIRCLE
  8
_1-1_
  6
CONTINUOUS
 62
    7
 10
105.90003761085305
 20
127.6729728080131
 40
0.1627906593116554
  0
CIRCLE
  8
_1-1_
  6
CONTINUOUS
 62
    7
 10
102.96983667322108
 20
127.02181017076647
 40
0.1627906593116554
  0
CIRCLE
  8
_1-1_
  6
CONTINUOUS
 62
    7
 10
102.48147706727724
 20
125.06834700300888
 40
0.1627906593116554
  0
CIRCLE
  8
_1-1_
  6
CONTINUOUS
 62
    7
 10
111.43482105152027
 20
124.09162779112121
 40
0.1627906593116554
  0
CIRCLE
  8
_1-1_
  6
CONTINUOUS
 62
    7
 10
113.22549355996622
 20
123.92883713180954
 40
0.1627906593116554
  0
CIRCLE
  8
_1-1_
  6
CONTINUOUS
 62
    7
 10
115.17895672772383
 20
124.90556871568835
 40
0.1627906593116554
  0
CIRCLE
  8
_1-1_
  6
CONTINUOUS
 62
    7
 10
112.73714632601352
 20
125.7195096402555
 40
0.1627906593116554
  0
CIRCLE
  8
_1-1_
  6
CONTINUOUS
 62
    7
 10
111.76040237014358
 20
127.02181017076647
 40
0.1627906593116554
  0
CIRCLE
  8
_1-1_
  6
CONTINUOUS
 62
    7
 10
107.36512880067568
 20
127.18460083007813
 40
0.1627906593116554
  0
CIRCLE
  8
_1-1_
  6
CONTINUOUS
 62
    7
 10
106.06281589817357
 20
126.37065990551099
 40
0.1627906593116554
  0
CIRCLE
  8
_1-1_
  6
CONTINUOUS
 62
    7
 10
108.17905735325169
 20
124.41719673775339
 40
0.1627906593116554
  0
CIRCLE
  8
_1-1_
  6
CONTINUOUS
 62
    7
 10
105.41166563291809
 20
123.92883713180954
 40
0.1627906593116554
  0
CIRCLE
  8
_1-1_
  6
CONTINUOUS
 62
    7
 10
103.45820865115604
 20
123.11489620724241
 40
0.1627906593116554
  0
CIRCLE
  8
_1-1_
  6
CONTINUOUS
 62
    7
 10
101.50474548339844
 20
127.99854175464527
 40
0.1627906593116554
  0
CIRCLE
  8
_1-1_
  6
CONTINUOUS
 62
    7
 10
103.13262733253273
 20
128.97527333852409
 40
0.1627906593116554
  0
CIRCLE
  8
_1-1_
  6
CONTINUOUS
 62
    7
 10
111.1092521048881
 20
128.81248267921242
 40
0.1627906593116554
  0
CIRCLE
  8
_1-1_
  6
CONTINUOUS
 62
    7
 10
114.6138907767631
 20
126.37065990551099
 40
0.1627906593116554
  0
CIRCLE
  8
_1-1_
  6
CONTINUOUS
 62
    7
 10
111.68369602512669
 20
125.7195096402555
 40
0.1627906593116554
  0
CIRCLE
  8
_1-1_
  6
CONTINUOUS
 62
    7
 10
110.86976747255068
 20
125.39392832163219
 40
0.1627906593116554
  0
CIRCLE
  8
_1-1_
  6
CONTINUOUS
 62
    7
 10
113.79994985219595
 20
126.53345056482264
 40
0.1627906593116554
  0
CIRCLE
  8
_1-1_
  6
CONTINUOUS
 62
    7
 10
111.68369602512669
 20
127.51018214870145
 40
0.1627906593116554
  0
CIRCLE
  8
_1-1_
  6
CONTINUOUS
 62
    7
 10
110.05581417599241
 20
127.6729728080131
 40
0.1627906593116554
  0
CIRCLE
  8
_1-1_
  6
CONTINUOUS
 62
    7
 10
107.12563179634714
 20
127.02181017076647
 40
0.1627906593116554
  0
CIRCLE
  8
_1-1_
  6
CONTINUOUS
 62
    7
 10
106.63725981841216
 20
125.06834700300888
 40
0.1627906593116554
  0
CIRCLE
  8
_1-1_
  6
CONTINUOUS
 62
    7
 10
115.5906223606419
 20
124.09162779112121
 40
0.1627906593116554
  0
CIRCLE
  8
_1-1_
  6
CONTINUOUS
 62
    7
 10
117.38129486908784
 20
123.92883713180954
 40
0.1627906593116554
  0
CIRCLE
  8
_1-1_
  6
CONTINUOUS
 62
    7
 10
119.33475803684544
 20
124.90556871568835
 40
0.1627906593116554
  0
CIRCLE
  8
_1-1_
  6
CONTINUOUS
 62
    7
 10
116.89292289115288
 20
125.7195096402555
 40
0.1627906593116554
  0
CIRCLE
  8
_1-1_
  6
CONTINUOUS
 62
    7
 10
115.91620367926521
 20
127.02181017076647
 40
0.1627906593116554
  0
CIRCLE
  8
_1-1_
  6
CONTINUOUS
 62
    7
 10
111.52090536581504
 20
127.18460083007813
 40
0.1627906593116554
  0
CIRCLE
  8
_1-1_
  6
CONTINUOUS
 62
    7
 10
110.21860483530406
 20
126.37065990551099
 40
0.1627906593116554
  0
CIRCLE
  8
_1-1_
  6
CONTINUOUS
 62
    7
 10
112.33485866237332
 20
124.41719673775339
 40
0.1627906593116554
  0
CIRCLE
  8
_1-1_
  6
CONTINUOUS
 62
    7
 10
109.56745457004857
 20
123.92883713180954
 40
0.1627906593116554
  0
CIRCLE
  8
_1-1_
  6
CONTINUOUS
 62
    7
 10
107.6140037742821
 20
123.11489620724241
 40
0.1627906593116554
  0
CIRCLE
  8
_1-1_
  6
CONTINUOUS
 62
    7
 10
105.66054060652449
 20
127.99854175464527
 40
0.1627906593116554
  0
CIRCLE
  8
_1-1_
  6
CONTINUOUS
 62
    7
 10
107.28842245565879
 20
128.97527333852409
 40
0.1627906593116554
  0
CIRCLE
  8
_1-1_
  6
CONTINUOUS
 62
    7
 10
115.26504104201858
 20
128.81248267921242
 40
0.1627906593116554
  0
CIRCLE
  8
_1-1_
  6
CONTINUOUS
 62
    7
 10
122.09433065878379
 20
126.37065990551099
 40
0.1627906593116554
  0
CIRCLE
  8
_1-1_
  6
CONTINUOUS
 62
    7
 10
119.16414827913852
 20
125.7195096402555
 40
0.1627906593116554
  0
CIRCLE
  8
_1-1_
  6
CONTINUOUS
 62
    7
 10
118.35019498258025
 20
125.39392832163219
 40
0.1627906593116554
  0
CIRCLE
  8
_1-1_
  6
CONTINUOUS
 62
    7
 10
121.28038973421664
 20
126.53345056482264
 40
0.1627906593116554
  0
CIRCLE
  8
_1-1_
  6
CONTINUOUS
 62
    7
 10
119.16414827913852
 20
127.51018214870145
 40
0.1627906593116554
  0
CIRCLE
  8
_1-1_
  6
CONTINUOUS
 62
    7
 10
117.53626643000423
 20
127.6729728080131
 40
0.1627906593116554
  0
CIRCLE
  8
_1-1_
  6
CONTINUOUS
 62
    7
 10
114.60605930637669
 20
127.02181017076647
 40
0.1627906593116554
  0
CIRCLE
  8
_1-1_
  6
CONTINUOUS
 62
    7
 10
114.117712072424
 20
125.06834700300888
 40
0.1627906593116554
  0
CIRCLE
  8
_1-1_
  6
CONTINUOUS
 62
    7
 10
123.07104987067146
 20
124.09162779112121
 40
0.1627906593116554
  0
CIRCLE
  8
_1-1_
  6
CONTINUOUS
 62
    7
 10
124.86172237911741
 20
123.92883713180954
 40
0.1627906593116554
  0
CIRCLE
  8
_1-1_
  6
CONTINUOUS
 62
    7
 10
126.815185546875
 20
124.90556871568835
 40
0.1627906593116554
  0
CIRCLE
  8
_1-1_
  6
CONTINUOUS
 62
    7
 10
124.3733751451647
 20
125.7195096402555
 40
0.1627906593116554
  0
CIRCLE
  8
_1-1_
  6
CONTINUOUS
 62
    7
 10
123.39663118929477
 20
127.02181017076647
 40
0.1627906593116554
  0
CIRCLE
  8
_1-1_
  6
CONTINUOUS
 62
    7
 10
119.00135761982686
 20
127.18460083007813
 40
0.1627906593116554
  0
CIRCLE
  8
_1-1_
  6
CONTINUOUS
 62
    7
 10
117.69904471732475
 20
126.37065990551099
 40
0.1627906593116554
  0
CIRCLE
  8
_1-1_
  6
CONTINUOUS
 62
    7
 10
119.81528617240288
 20
124.41719673775339
 40
0.1627906593116554
  0
CIRCLE
  8
_1-1_
  6
CONTINUOUS
 62
    7
 10
117.04789445206926
 20
123.92883713180954
 40
0.1627906593116554
  0
CIRCLE
  8
_1-1_
  6
CONTINUOUS
 62
    7
 10
115.09443128431167
 20
123.11489620724241
 40
0.1627906593116554
  0
CIRCLE
  8
_1-1_
  6
CONTINUOUS
 62
    7
 10
113.14096811655406
 20
127.99854175464527
 40
0.1627906593116554
  0
CIRCLE
  8
_1-1_
  6
CONTINUOUS
 62
    7
 10
114.76884996568835
 20
128.97527333852409
 40
0.1627906593116554
  0
CIRCLE
  8
_1-1_
  6
CONTINUOUS
 62
    7
 10
122.74548092403928
 20
128.81248267921242
 40
0.1627906593116554
  0
CIRCLE
  8
_1-1_
  6
CONTINUOUS
 62
    7
 10
129.02065380199537
 20
126.64770590292441
 40
0.1627906593116554
  0
CIRCLE
  8
_1-1_
  6
CONTINUOUS
 62
    7
 10
126.09045905035896
 20
125.99655563766892
 40
0.1627906593116554
  0
CIRCLE
  8
_1-1_
  6
CONTINUOUS
 62
    7
 10
125.27653049778294
 20
125.67097431904561
 40
0.1627906593116554
  0
CIRCLE
  8
_1-1_
  6
CONTINUOUS
 62
    7
 10
128.2067128774282
 20
126.81049656223607
 40
0.1627906593116554
  0
CIRCLE
  8
_1-1_
  6
CONTINUOUS
 62
    7
 10
126.09045905035896
 20
127.78722814611487
 40
0.1627906593116554
  0
CIRCLE
  8
_1-1_
  6
CONTINUOUS
 62
    7
 10
124.46257720122468
 20
127.95001880542652
 40
0.1627906593116554
  0
CIRCLE
  8
_1-1_
  6
CONTINUOUS
 62
    7
 10
121.5323948215794
 20
127.29885616817991
 40
0.1627906593116554
  0
CIRCLE
  8
_1-1_
  6
CONTINUOUS
 62
    7
 10
121.04402284364443
 20
125.34539300042231
 40
0.1627906593116554
  0
CIRCLE
  8
_1-1_
  6
CONTINUOUS
 62
    7
 10
129.99738538587417
 20
124.36867378853464
 40
0.1627906593116554
  0
CIRCLE
  8
_1-1_
  6
CONTINUOUS
 62
    7
 10
131.7880578943201
 20
124.20588312922298
 40
0.1627906593116554
  0
CIRCLE
  8
_1-1_
  6
CONTINUOUS
 62
    7
 10
133.74152106207771
 20
125.18261471310178
 40
0.1627906593116554
  0
CIRCLE
  8
_1-1_
  6
CONTINUOUS
 62
    7
 10
131.29968591638513
 20
125.99655563766892
 40
0.1627906593116554
  0
CIRCLE
  8
_1-1_
  6
CONTINUOUS
 62
    7
 10
130.32296670449747
 20
127.29885616817991
 40
0.1627906593116554
  0
CIRCLE
  8
_1-1_
  6
CONTINUOUS
 62
    7
 10
125.92766839104731
 20
127.46164682749156
 40
0.1627906593116554
  0
CIRCLE
  8
_1-1_
  6
CONTINUOUS
 62
    7
 10
124.62536786053633
 20
126.64770590292441
 40
0.1627906593116554
  0
CIRCLE
  8
_1-1_
  6
CONTINUOUS
 62
    7
 10
126.74162168760559
 20
124.69424273516681
 40
0.1627906593116554
  0
CIRCLE
  8
_1-1_
  6
CONTINUOUS
 62
    7
 10
123.97421759528083
 20
124.20588312922298
 40
0.1627906593116554
  0
CIRCLE
  8
_1-1_
  6
CONTINUOUS
 62
    7
 10
122.02076679951436
 20
123.39194220465583
 40
0.1627906593116554
  0
CIRCLE
  8
_1-1_
  6
CONTINUOUS
 62
    7
 10
120.06730363175676
 20
128.2755877520587
 40
0.1627906593116554
  0
CIRCLE
  8
_1-1_
  6
CONTINUOUS
 62
    7
 10
121.69518548089106
 20
129.2523193359375
 40
0.1627906593116554
  0
CIRCLE
  8
_1-1_
  6
CONTINUOUS
 62
    7
 10
129.67180406725086
 20
129.08952867662586
 40
0.1627906593116554
  0
CIRCLE
  8
_1-1_
  6
CONTINUOUS
 62
    7
 10
135.94698931719807
 20
126.92475190033784
 40
0.1627906593116554
  0
CIRCLE
  8
_1-1_
  6
CONTINUOUS
 62
    7
 10
133.01679456556167
 20
126.27360163508236
 40
0.1627906593116554
  0
CIRCLE
  8
_1-1_
  6
CONTINUOUS
 62
    7
 10
132.20286601298565
 20
125.94802031645905
 40
0.1627906593116554
  0
CIRCLE
  8
_1-1_
  6
CONTINUOUS
 62
    7
 10
135.13304839263091
 20
127.08754255964951
 40
0.1627906593116554
  0
CIRCLE
  8
_1-1_
  6
CONTINUOUS
 62
    7
 10
133.01679456556167
 20
128.06427414352831
 40
0.1627906593116554
  0
CIRCLE
  8
_1-1_
  6
CONTINUOUS
 62
    7
 10
131.38891271642737
 20
128.22706480283995
 40
0.1627906593116554
  0
CIRCLE
  8
_1-1_
  6
CONTINUOUS
 62
    7
 10
128.45873033678211
 20
127.57590216559333
 40
0.1627906593116554
  0
CIRCLE
  8
_1-1_
  6
CONTINUOUS
 62
    7
 10
127.97035835884714
 20
125.62243899783573
 40
0.1627906593116554
  0
CIRCLE
  8
_1-1_
  6
CONTINUOUS
 62
    7
 10
136.92372090107688
 20
124.64571978594806
 40
0.1627906593116554
  0
CIRCLE
  8
_1-1_
  6
CONTINUOUS
 62
    7
 10
138.71439340952281
 20
124.48292912663641
 40
0.1627906593116554
  0
CIRCLE
  8
_1-1_
  6
CONTINUOUS
 62
    7
 10
140.66785657728042
 20
125.45966071051521
 40
0.1627906593116554
  0
CIRCLE
  8
_1-1_
  6
CONTINUOUS
 62
    7
 10
138.22602143158784
 20
126.27360163508236
 40
0.1627906593116554
  0
CIRCLE
  8
_1-1_
  6
CONTINUOUS
 62
    7
 10
137.24930221970018
 20
127.57590216559333
 40
0.1627906593116554
  0
CIRCLE
  8
_1-1_
  6
CONTINUOUS
 62
    7
 10
132.85400390625
 20
127.73869282490499
 40
0.1627906593116554
  0
CIRCLE
  8
_1-1_
  6
CONTINUOUS
 62
    7
 10
131.55170337573904
 20
126.92475190033784
 40
0.1627906593116554
  0
CIRCLE
  8
_1-1_
  6
CONTINUOUS
 62
    7
 10
133.66795720280828
 20
124.97128873258025
 40
0.1627906593116554
  0
CIRCLE
  8
_1-1_
  6
CONTINUOUS
 62
    7
 10
130.90055311048354
 20
124.48292912663641
 40
0.1627906593116554
  0
CIRCLE
  8
_1-1_
  6
CONTINUOUS
 62
    7
 10
128.94710231471706
 20
123.66898820206926
 40
0.1627906593116554
  0
CIRCLE
  8
_1-1_
  6
CONTINUOUS
 62
    7
 10
126.99363914695947
 20
128.55263374947214
 40
0.1627906593116554
  0
CIRCLE
  8
_1-1_
  6
CONTINUOUS
 62
    7
 10
128.62152099609375
 20
129.52936533335094
 40
0.1627906593116554
  0
CIRCLE
  8
_1-1_
  6
CONTINUOUS
 62
    7
 10
136.59813958245354
 20
129.36657467403927
 40
0.1627906593116554
  0
CIRCLE
  8
_1-1_
  6
CONTINUOUS
 62
    7
 10
144.53562556086359
 20
127.47886863914697
 40
0.1627906593116554
  0
CIRCLE
  8
_1-1_
  6
CONTINUOUS
 62
    7
 10
141.60543080922722
 20
126.82771837389147
 40
0.1627906593116554
  0
CIRCLE
  8
_1-1_
  6
CONTINUOUS
 62
    7
 10
140.7915022566512
 20
126.50213705526816
 40
0.1627906593116554
  0
CIRCLE
  8
_1-1_
  6
CONTINUOUS
 62
    7
 10
143.72168463629646
 20
127.64165929845862
 40
0.1627906593116554
  0
CIRCLE
  8
_1-1_
  6
CONTINUOUS
 62
    7
 10
141.60543080922722
 20
128.61839088233742
 40
0.1627906593116554
  0
CIRCLE
  8
_1-1_
  6
CONTINUOUS
 62
    7
 10
139.97754896009292
 20
128.78118154164909
 40
0.1627906593116554
  0
CIRCLE
  8
_1-1_
  6
CONTINUOUS
 62
    7
 10
137.04736658044763
 20
128.13001890440245
 40
0.1627906593116554
  0
CIRCLE
  8
_1-1_
  6
CONTINUOUS
 62
    7
 10
136.55899460251268
 20
126.17655573664486
 40
0.1627906593116554
  0
CIRCLE
  8
_1-1_
  6
CONTINUOUS
 62
    7
 10
145.5123571447424
 20
125.19983652475719
 40
0.1627906593116554
  0
CIRCLE
  8
_1-1_
  6
CONTINUOUS
 62
    7
 10
147.30302965318836
 20
125.03704586544553
 40
0.1627906593116554
  0
CIRCLE
  8
_1-1_
  6
CONTINUOUS
 62
    7
 10
149.25649282094597
 20
126.01377744932434
 40
0.1627906593116554
  0
CIRCLE
  8
_1-1_
  6
CONTINUOUS
 62
    7
 10
146.81465767525339
 20
126.82771837389147
 40
0.1627906593116554
  0
CIRCLE
  8
_1-1_
  6
CONTINUOUS
 62
    7
 10
145.83793846336573
 20
128.13001890440245
 40
0.1627906593116554
  0
CIRCLE
  8
_1-1_
  6
CONTINUOUS
 62
    7
 10
141.44264014991555
 20
128.29280956371412
 40
0.1627906593116554
  0
CIRCLE
  8
_1-1_
  6
CONTINUOUS
 62
    7
 10
140.14033961940456
 20
127.47886863914697
 40
0.1627906593116554
  0
CIRCLE
  8
_1-1_
  6
CONTINUOUS
 62
    7
 10
142.25659344647383
 20
125.52540547138936
 40
0.1627906593116554
  0
CIRCLE
  8
_1-1_
  6
CONTINUOUS
 62
    7
 10
139.48918935414909
 20
125.03704586544553
 40
0.1627906593116554
  0
CIRCLE
  8
_1-1_
  6
CONTINUOUS
 62
    7
 10
137.5357385583826
 20
124.22310494087839
 40
0.1627906593116554
  0
CIRCLE
  8
_1-1_
  6
CONTINUOUS
 62
    7
 10
135.582275390625
 20
129.10675048828125
 40
0.1627906593116554
  0
CIRCLE
  8
_1-1_
  6
CONTINUOUS
 62
    7
 10
137.2101572397593
 20
130.08348207216005
 40
0.1627906593116554
  0
CIRCLE
  8
_1-1_
  6
CONTINUOUS
 62
    7
 10
145.18677582611909
 20
129.92069141284841
 40
0.1627906593116554
  0
CIRCLE
  8
_1-1_
  6
CONTINUOUS
 62
    7
 10
151.4619610760663
 20
127.47886863914697
 40
0.1627906593116554
  0
CIRCLE
  8
_1-1_
  6
CONTINUOUS
 62
    7
 10
148.5317663244299
 20
126.82771837389147
 40
0.1627906593116554
  0
CIRCLE
  8
_1-1_
  6
CONTINUOUS
 62
    7
 10
147.71783777185388
 20
126.50213705526816
 40
0.1627906593116554
  0
CIRCLE
  8
_1-1_
  6
CONTINUOUS
 62
    7
 10
150.64802015149917
 20
127.64165929845862
 40
0.1627906593116554
  0
CIRCLE
  8
_1-1_
  6
CONTINUOUS
 62
    7
 10
148.5317663244299
 20
128.61839088233742
 40
0.1627906593116554
  0
CIRCLE
  8
_1-1_
  6
CONTINUOUS
 62
    7
 10
146.90388447529563
 20
128.78118154164909
 40
0.1627906593116554
  0
CIRCLE
  8
_1-1_
  6
CONTINUOUS
 62
    7
 10
143.97370209565034
 20
128.13001890440245
 40
0.1627906593116554
  0
CIRCLE
  8
_1-1_
  6
CONTINUOUS
 62
    7
 10
143.48533011771539
 20
126.17655573664486
 40
0.1627906593116554
  0
CIRCLE
  8
_1-1_
  6
CONTINUOUS
 62
    7
 10
152.4386926599451
 20
125.19983652475719
 40
0.1627906593116554
  0
CIRCLE
  8
_1-1_
  6
CONTINUOUS
 62
    7
 10
154.22936516839107
 20
125.03704586544553
 40
0.1627906593116554
  0
CIRCLE
  8
_1-1_
  6
CONTINUOUS
 62
    7
 10
156.18282833614865
 20
126.01377744932434
 40
0.1627906593116554
  0
CIRCLE
  8
_1-1_
  6
CONTINUOUS
 62
    7
 10
153.74099319045609
 20
126.82771837389147
 40
0.1627906593116554
  0
CIRCLE
  8
_1-1_
  6
CONTINUOUS
 62
    7
 10
152.76427397856841
 20
128.13001890440245
 40
0.1627906593116554
  0
CIRCLE
  8
_1-1_
  6
CONTINUOUS
 62
    7
 10
148.36897566511826
 20
128.29280956371412
 40
0.1627906593116554
  0
CIRCLE
  8
_1-1_
  6
CONTINUOUS
 62
    7
 10
147.06667513460727
 20
127.47886863914697
 40
0.1627906593116554
  0
CIRCLE
  8
_1-1_
  6
CONTINUOUS
 62
    7
 10
149.18292896167654
 20
125.52540547138936
 40
0.1627906593116554
  0
CIRCLE
  8
_1-1_
  6
CONTINUOUS
 62
    7
 10
146.41552486935177
 20
125.03704586544553
 40
0.1627906593116554
  0
CIRCLE
  8
_1-1_
  6
CONTINUOUS
 62
    7
 10
144.46207407358531
 20
124.22310494087839
 40
0.1627906593116554
  0
CIRCLE
  8
_1-1_
  6
CONTINUOUS
 62
    7
 10
142.50861090582771
 20
129.10675048828125
 40
0.1627906593116554
  0
CIRCLE
  8
_1-1_
  6
CONTINUOUS
 62
    7
 10
144.13649275496201
 20
130.08348207216005
 40
0.1627906593116554
  0
CIRCLE
  8
_1-1_
  6
CONTINUOUS
 62
    7
 10
152.1131113413218
 20
129.92069141284841
 40
0.1627906593116554
  0
CIRCLE
  8
_1-1_
  6
CONTINUOUS
 62
    7
 10
158.11123822186445
 20
128.03297300596495
 40
0.1627906593116554
  0
CIRCLE
  8
_1-1_
  6
CONTINUOUS
 62
    7
 10
155.18104347022805
 20
127.38182274070947
 40
0.1627906593116554
  0
CIRCLE
  8
_1-1_
  6
CONTINUOUS
 62
    7
 10
154.36711491765203
 20
127.05624142208616
 40
0.1627906593116554
  0
CIRCLE
  8
_1-1_
  6
CONTINUOUS
 62
    7
 10
157.29729729729732
 20
128.19576366527662
 40
0.1627906593116554
  0
CIRCLE
  8
_1-1_
  6
CONTINUOUS
 62
    7
 10
155.18104347022805
 20
129.17249524915542
 40
0.1627906593116554
  0
CIRCLE
  8
_1-1_
  6
CONTINUOUS
 62
    7
 10
153.55316162109375
 20
129.33528590846706
 40
0.1627906593116554
  0
CIRCLE
  8
_1-1_
  6
CONTINUOUS
 62
    7
 10
150.62297924144849
 20
128.68412327122044
 40
0.1627906593116554
  0
CIRCLE
  8
_1-1_
  6
CONTINUOUS
 62
    7
 10
150.13460726351352
 20
126.73066010346284
 40
0.1627906593116554
  0
CIRCLE
  8
_1-1_
  6
CONTINUOUS
 62
    7
 10
159.08796980574326
 20
125.75394089157517
 40
0.1627906593116554
  0
CIRCLE
  8
_1-1_
  6
CONTINUOUS
 62
    7
 10
160.87864231418919
 20
125.59115023226352
 40
0.1627906593116554
  0
CIRCLE
  8
_1-1_
  6
CONTINUOUS
 62
    7
 10
162.8321054819468
 20
126.56788181614232
 40
0.1627906593116554
  0
CIRCLE
  8
_1-1_
  6
CONTINUOUS
 62
    7
 10
160.39027033625422
 20
127.38182274070947
 40
0.1627906593116554
  0
CIRCLE
  8
_1-1_
  6
CONTINUOUS
 62
    7
 10
159.41355112436656
 20
128.68412327122044
 40
0.1627906593116554
  0
CIRCLE
  8
_1-1_
  6
CONTINUOUS
 62
    7
 10
155.01825281091638
 20
128.84691393053211
 40
0.1627906593116554
  0
CIRCLE
  8
_1-1_
  6
CONTINUOUS
 62
    7
 10
153.71595228040542
 20
128.03297300596495
 40
0.1627906593116554
  0
CIRCLE
  8
_1-1_
  6
CONTINUOUS
 62
    7
 10
155.83220610747466
 20
126.07950983820736
 40
0.1627906593116554
  0
CIRCLE
  8
_1-1_
  6
CONTINUOUS
 62
    7
 10
153.06480201514992
 20
125.59115023226352
 40
0.1627906593116554
  0
CIRCLE
  8
_1-1_
  6
CONTINUOUS
 62
    7
 10
151.11135121938347
 20
124.77720930769638
 40
0.1627906593116554
  0
CIRCLE
  8
_1-1_
  6
CONTINUOUS
 62
    7
 10
149.15788805162586
 20
129.66085485509925
 40
0.1627906593116554
  0
CIRCLE
  8
_1-1_
  6
CONTINUOUS
 62
    7
 10
150.78576990076013
 20
130.63758643897805
 40
0.1627906593116554
  0
CIRCLE
  8
_1-1_
  6
CONTINUOUS
 62
    7
 10
158.76238848711995
 20
130.47479577966638
 40
0.1627906593116554
  0
CIRCLE
  8
_1-1_
  6
CONTINUOUS
 62
    7
 10
166.97693283493456
 20
127.20181026974241
 40
0.1627906593116554
  0
CIRCLE
  8
_1-1_
  6
CONTINUOUS
 62
    7
 10
164.04673808329815
 20
126.55066000448691
 40
0.1627906593116554
  0
CIRCLE
  8
_1-1_
  6
CONTINUOUS
 62
    7
 10
163.23280953072214
 20
126.22507868586361
 40
0.1627906593116554
  0
CIRCLE
  8
_1-1_
  6
CONTINUOUS
 62
    7
 10
166.1629919103674
 20
127.36460092905406
 40
0.1627906593116554
  0
CIRCLE
  8
_1-1_
  6
CONTINUOUS
 62
    7
 10
164.04673808329815
 20
128.34133251293287
 40
0.1627906593116554
  0
CIRCLE
  8
_1-1_
  6
CONTINUOUS
 62
    7
 10
162.41885623416385
 20
128.5041231722445
 40
0.1627906593116554
  0
CIRCLE
  8
_1-1_
  6
CONTINUOUS
 62
    7
 10
159.48867385451859
 20
127.85296053499789
 40
0.1627906593116554
  0
CIRCLE
  8
_1-1_
  6
CONTINUOUS
 62
    7
 10
159.00030187658362
 20
125.8994973672403
 40
0.1627906593116554
  0
CIRCLE
  8
_1-1_
  6
CONTINUOUS
 62
    7
 10
167.95366441881336
 20
124.92277815535263
 40
0.1627906593116554
  0
CIRCLE
  8
_1-1_
  6
CONTINUOUS
 62
    7
 10
169.7443369272593
 20
124.75998749604096
 40
0.1627906593116554
  0
CIRCLE
  8
_1-1_
  6
CONTINUOUS
 62
    7
 10
171.6978000950169
 20
125.73671907991977
 40
0.1627906593116554
  0
CIRCLE
  8
_1-1_
  6
CONTINUOUS
 62
    7
 10
169.25596494932432
 20
126.55066000448691
 40
0.1627906593116554
  0
CIRCLE
  8
_1-1_
  6
CONTINUOUS
 62
    7
 10
168.27924573743667
 20
127.85296053499789
 40
0.1627906593116554
  0
CIRCLE
  8
_1-1_
  6
CONTINUOUS
 62
    7
 10
163.88394742398648
 20
128.01575119430956
 40
0.1627906593116554
  0
CIRCLE
  8
_1-1_
  6
CONTINUOUS
 62
    7
 10
162.58164689347552
 20
127.20181026974241
 40
0.1627906593116554
  0
CIRCLE
  8
_1-1_
  6
CONTINUOUS
 62
    7
 10
164.69790072054477
 20
125.24834710198481
 40
0.1627906593116554
  0
CIRCLE
  8
_1-1_
  6
CONTINUOUS
 62
    7
 10
161.93049662822003
 20
124.75998749604096
 40
0.1627906593116554
  0
CIRCLE
  8
_1-1_
  6
CONTINUOUS
 62
    7
 10
159.97704583245357
 20
123.94604657147383
 40
0.1627906593116554
  0
CIRCLE
  8
_1-1_
  6
CONTINUOUS
 62
    7
 10
158.02358266469597
 20
128.82969211887669
 40
0.1627906593116554
  0
CIRCLE
  8
_1-1_
  6
CONTINUOUS
 62
    7
 10
159.65146451383023
 20
129.8064237027555
 40
0.1627906593116554
  0
CIRCLE
  8
_1-1_
  6
CONTINUOUS
 62
    7
 10
167.62808310019005
 20
129.64363304344383
 40
0.1627906593116554
  0
CIRCLE
  8
_1-1_
  6
CONTINUOUS
 62
    7
 10
174.18031434755068
 20
126.64770590292441
 40
0.1627906593116554
  0
CIRCLE
  8
_1-1_
  6
CONTINUOUS
 62
    7
 10
171.25013196790542
 20
125.99655563766892
 40
0.1627906593116554
  0
CIRCLE
  8
_1-1_
  6
CONTINUOUS
 62
    7
 10
170.43617867134714
 20
125.67097431904561
 40
0.1627906593116554
  0
CIRCLE
  8
_1-1_
  6
CONTINUOUS
 62
    7
 10
173.36637342298354
 20
126.81049656223607
 40
0.1627906593116554
  0
CIRCLE
  8
_1-1_
  6
CONTINUOUS
 62
    7
 10
171.25013196790542
 20
127.78722814611487
 40
0.1627906593116554
  0
CIRCLE
  8
_1-1_
  6
CONTINUOUS
 62
    7
 10
169.62225011877112
 20
127.95001880542652
 40
0.1627906593116554
  0
CIRCLE
  8
_1-1_
  6
CONTINUOUS
 62
    7
 10
166.69204299514359
 20
127.29885616817991
 40
0.1627906593116554
  0
CIRCLE
  8
_1-1_
  6
CONTINUOUS
 62
    7
 10
166.20369576119089
 20
125.34539300042231
 40
0.1627906593116554
  0
CIRCLE
  8
_1-1_
  6
CONTINUOUS
 62
    7
 10
175.15703355943836
 20
124.36867378853464
 40
0.1627906593116554
  0
CIRCLE
  8
_1-1_
  6
CONTINUOUS
 62
    7
 10
176.9477060678843
 20
124.20588312922298
 40
0.1627906593116554
  0
CIRCLE
  8
_1-1_
  6
CONTINUOUS
 62
    7
 10
178.9011692356419
 20
125.18261471310178
 40
0.1627906593116554
  0
CIRCLE
  8
_1-1_
  6
CONTINUOUS
 62
    7
 10
176.45935883393159
 20
125.99655563766892
 40
0.1627906593116554
  0
CIRCLE
  8
_1-1_
  6
CONTINUOUS
 62
    7
 10
175.48261487806167
 20
127.29885616817991
 40
0.1627906593116554
  0
CIRCLE
  8
_1-1_
  6
CONTINUOUS
 62
    7
 10
171.08734130859375
 20
127.46164682749156
 40
0.1627906593116554
  0
CIRCLE
  8
_1-1_
  6
CONTINUOUS
 62
    7
 10
169.78502840609164
 20
126.64770590292441
 40
0.1627906593116554
  0
CIRCLE
  8
_1-1_
  6
CONTINUOUS
 62
    7
 10
171.90126986116977
 20
124.69424273516681
 40
0.1627906593116554
  0
CIRCLE
  8
_1-1_
  6
CONTINUOUS
 62
    7
 10
169.13387814083615
 20
124.20588312922298
 40
0.1627906593116554
  0
CIRCLE
  8
_1-1_
  6
CONTINUOUS
 62
    7
 10
167.18041497307857
 20
123.39194220465583
 40
0.1627906593116554
  0
CIRCLE
  8
_1-1_
  6
CONTINUOUS
 62
    7
 10
165.22695180532097
 20
128.2755877520587
 40
0.1627906593116554
  0
CIRCLE
  8
_1-1_
  6
CONTINUOUS
 62
    7
 10
166.85483365445523
 20
129.2523193359375
 40
0.1627906593116554
  0
CIRCLE
  8
_1-1_
  6
CONTINUOUS
 62
    7
 10
174.83146461280617
 20
129.08952867662586
 40
0.1627906593116554
  0
CIRCLE
  8
_1-1_
  6
CONTINUOUS
 62
    7
 10
180.82959149334883
 20
126.92475190033784
 40
0.1627906593116554
  0
CIRCLE
  8
_1-1_
  6
CONTINUOUS
 62
    7
 10
177.89940911370357
 20
126.27360163508236
 40
0.1627906593116554
  0
CIRCLE
  8
_1-1_
  6
CONTINUOUS
 62
    7
 10
177.08545581714529
 20
125.94802031645905
 40
0.1627906593116554
  0
CIRCLE
  8
_1-1_
  6
CONTINUOUS
 62
    7
 10
180.01565056878169
 20
127.08754255964951
 40
0.1627906593116554
  0
CIRCLE
  8
_1-1_
  6
CONTINUOUS
 62
    7
 10
177.89940911370357
 20
128.06427414352831
 40
0.1627906593116554
  0
CIRCLE
  8
_1-1_
  6
CONTINUOUS
 62
    7
 10
176.27152726456927
 20
128.22706480283995
 40
0.1627906593116554
  0
CIRCLE
  8
_1-1_
  6
CONTINUOUS
 62
    7
 10
173.34132014094175
 20
127.57590216559333
 40
0.1627906593116554
  0
CIRCLE
  8
_1-1_
  6
CONTINUOUS
 62
    7
 10
172.85297290698904
 20
125.62243899783573
 40
0.1627906593116554
  0
CIRCLE
  8
_1-1_
  6
CONTINUOUS
 62
    7
 10
181.80631070523648
 20
124.64571978594806
 40
0.1627906593116554
  0
CIRCLE
  8
_1-1_
  6
CONTINUOUS
 62
    7
 10
183.59698321368245
 20
124.48292912663641
 40
0.1627906593116554
  0
CIRCLE
  8
_1-1_
  6
CONTINUOUS
 62
    7
 10
185.55044638144005
 20
125.45966071051521
 40
0.1627906593116554
  0
CIRCLE
  8
_1-1_
  6
CONTINUOUS
 62
    7
 10
183.10863597972974
 20
126.27360163508236
 40
0.1627906593116554
  0
CIRCLE
  8
_1-1_
  6
CONTINUOUS
 62
    7
 10
182.13189202385982
 20
127.57590216559333
 40
0.1627906593116554
  0
CIRCLE
  8
_1-1_
  6
CONTINUOUS
 62
    7
 10
177.7366184543919
 20
127.73869282490499
 40
0.1627906593116554
  0
CIRCLE
  8
_1-1_
  6
CONTINUOUS
 62
    7
 10
176.43430555188979
 20
126.92475190033784
 40
0.1627906593116554
  0
CIRCLE
  8
_1-1_
  6
CONTINUOUS
 62
    7
 10
178.55054700696792
 20
124.97128873258025
 40
0.1627906593116554
  0
CIRCLE
  8
_1-1_
  6
CONTINUOUS
 62
    7
 10
175.7831552866343
 20
124.48292912663641
 40
0.1627906593116554
  0
CIRCLE
  8
_1-1_
  6
CONTINUOUS
 62
    7
 10
173.82969211887669
 20
123.66898820206926
 40
0.1627906593116554
  0
CIRCLE
  8
_1-1_
  6
CONTINUOUS
 62
    7
 10
171.87622895111909
 20
128.55263374947214
 40
0.1627906593116554
  0
CIRCLE
  8
_1-1_
  6
CONTINUOUS
 62
    7
 10
173.50411080025339
 20
129.52936533335094
 40
0.1627906593116554
  0
CIRCLE
  8
_1-1_
  6
CONTINUOUS
 62
    7
 10
181.48074175860432
 20
129.36657467403927
 40
0.1627906593116554
  0
CIRCLE
  8
_1-1_
  6
CONTINUOUS
 62
    7
 10
189.14118173960094
 20
127.75592700855152
 40
0.1627906593116554
  0
CIRCLE
  8
_1-1_
  6
CONTINUOUS
 62
    7
 10
186.21098698796453
 20
127.10477674329604
 40
0.1627906593116554
  0
CIRCLE
  8
_1-1_
  6
CONTINUOUS
 62
    7
 10
185.39705843538852
 20
126.77919542467272
 40
0.1627906593116554
  0
CIRCLE
  8
_1-1_
  6
CONTINUOUS
 62
    7
 10
188.3272408150338
 20
127.91871766786318
 40
0.1627906593116554
  0
CIRCLE
  8
_1-1_
  6
CONTINUOUS
 62
    7
 10
186.21098698796453
 20
128.89544925174198
 40
0.1627906593116554
  0
CIRCLE
  8
_1-1_
  6
CONTINUOUS
 62
    7
 10
184.58310513883023
 20
129.05823991105365
 40
0.1627906593116554
  0
CIRCLE
  8
_1-1_
  6
CONTINUOUS
 62
    7
 10
181.65292275918497
 20
128.407077273807
 40
0.1627906593116554
  0
CIRCLE
  8
_1-1_
  6
CONTINUOUS
 62
    7
 10
181.16455078125
 20
126.45361410604941
 40
0.1627906593116554
  0
CIRCLE
  8
_1-1_
  6
CONTINUOUS
 62
    7
 10
190.11791332347974
 20
125.47689489416175
 40
0.1627906593116554
  0
CIRCLE
  8
_1-1_
  6
CONTINUOUS
 62
    7
 10
191.90858583192568
 20
125.31410423485009
 40
0.1627906593116554
  0
CIRCLE
  8
_1-1_
  6
CONTINUOUS
 62
    7
 10
193.86204899968328
 20
126.29083581872889
 40
0.1627906593116554
  0
CIRCLE
  8
_1-1_
  6
CONTINUOUS
 62
    7
 10
191.42021385399073
 20
127.10477674329604
 40
0.1627906593116554
  0
CIRCLE
  8
_1-1_
  6
CONTINUOUS
 62
    7
 10
190.44349464210305
 20
128.407077273807
 40
0.1627906593116554
  0
CIRCLE
  8
_1-1_
  6
CONTINUOUS
 62
    7
 10
186.04819632865289
 20
128.56986793311867
 40
0.1627906593116554
  0
CIRCLE
  8
_1-1_
  6
CONTINUOUS
 62
    7
 10
184.7458957981419
 20
127.75592700855152
 40
0.1627906593116554
  0
CIRCLE
  8
_1-1_
  6
CONTINUOUS
 62
    7
 10
186.86214962521115
 20
125.80246384079392
 40
0.1627906593116554
  0
CIRCLE
  8
_1-1_
  6
CONTINUOUS
 62
    7
 10
184.09474553288641
 20
125.31410423485009
 40
0.1627906593116554
  0
CIRCLE
  8
_1-1_
  6
CONTINUOUS
 62
    7
 10
182.14129473711995
 20
124.50016331028294
 40
0.1627906593116554
  0
CIRCLE
  8
_1-1_
  6
CONTINUOUS
 62
    7
 10
180.18783156936234
 20
129.38380885768581
 40
0.1627906593116554
  0
CIRCLE
  8
_1-1_
  6
CONTINUOUS
 62
    7
 10
181.81571341849664
 20
130.36054044156461
 40
0.1627906593116554
  0
CIRCLE
  8
_1-1_
  6
CONTINUOUS
 62
    7
 10
189.79233200485643
 20
130.19774978225297
 40
0.1627906593116554
  0
CIRCLE
  8
_1-1_
  6
CONTINUOUS
 62
    7
 10
203.27088639542865
 20
125.26243879988388
 40
0.1627906593116554
  0
CIRCLE
  8
_1-1_
  6
CONTINUOUS
 62
    7
 10
200.34069164379224
 20
124.61128853462839
 40
0.1627906593116554
  0
CIRCLE
  8
_1-1_
  6
CONTINUOUS
 62
    7
 10
199.52676309121622
 20
124.28570721600508
 40
0.1627906593116554
  0
CIRCLE
  8
_1-1_
  6
CONTINUOUS
 62
    7
 10
202.45694547086148
 20
125.42522945919553
 40
0.1627906593116554
  0
CIRCLE
  8
_1-1_
  6
CONTINUOUS
 62
    7
 10
200.34069164379224
 20
126.40196104307434
 40
0.1627906593116554
  0
CIRCLE
  8
_1-1_
  6
CONTINUOUS
 62
    7
 10
198.71280979465794
 20
126.56475170238599
 40
0.1627906593116554
  0
CIRCLE
  8
_1-1_
  6
CONTINUOUS
 62
    7
 10
195.78262741501268
 20
125.91358906513936
 40
0.1627906593116554
  0
CIRCLE
  8
_1-1_
  6
CONTINUOUS
 62
    7
 10
195.29425543707771
 20
123.96012589738176
 40
0.1627906593116554
  0
CIRCLE
  8
_1-1_
  6
CONTINUOUS
 62
    7
 10
204.24761797930745
 20
122.98340668549409
 40
0.1627906593116554
  0
CIRCLE
  8
_1-1_
  6
CONTINUOUS
 62
    7
 10
206.03829048775339
 20
122.82061602618244
 40
0.1627906593116554
  0
CIRCLE
  8
_1-1_
  6
CONTINUOUS
 62
    7
 10
207.99175365551099
 20
123.79734761006124
 40
0.1627906593116554
  0
CIRCLE
  8
_1-1_
  6
CONTINUOUS
 62
    7
 10
205.54991850981841
 20
124.61128853462839
 40
0.1627906593116554
  0
CIRCLE
  8
_1-1_
  6
CONTINUOUS
 62
    7
 10
204.57319929793076
 20
125.91358906513936
 40
0.1627906593116554
  0
CIRCLE
  8
_1-1_
  6
CONTINUOUS
 62
    7
 10
200.17790098448057
 20
126.07637972445102
 40
0.1627906593116554
  0
CIRCLE
  8
_1-1_
  6
CONTINUOUS
 62
    7
 10
198.87560045396961
 20
125.26243879988388
 40
0.1627906593116554
  0
CIRCLE
  8
_1-1_
  6
CONTINUOUS
 62
    7
 10
200.99185428103885
 20
123.30897563212628
 40
0.1627906593116554
  0
CIRCLE
  8
_1-1_
  6
CONTINUOUS
 62
    7
 10
198.22445018871412
 20
122.82061602618244
 40
0.1627906593116554
  0
CIRCLE
  8
_1-1_
  6
CONTINUOUS
 62
    7
 10
196.27099939294766
 20
122.0066751016153
 40
0.1627906593116554
  0
CIRCLE
  8
_1-1_
  6
CONTINUOUS
 62
    7
 10
194.31753622519005
 20
126.89032064901816
 40
0.1627906593116554
  0
CIRCLE
  8
_1-1_
  6
CONTINUOUS
 62
    7
 10
195.94541807432432
 20
127.86705223289697
 40
0.1627906593116554
  0
CIRCLE
  8
_1-1_
  6
CONTINUOUS
 62
    7
 10
203.92203666068414
 20
127.70426157358531
 40
0.1627906593116554
  0
CIRCLE
  8
_1-1_
  6
CONTINUOUS
 62
    7
 10
192.74286630991344
 20
127.75592700855152
 40
0.1627906593116554
  0
CIRCLE
  8
_1-1_
  6
CONTINUOUS
 62
    7
 10
189.81267155827703
 20
127.10477674329604
 40
0.1627906593116554
  0
CIRCLE
  8
_1-1_
  6
CONTINUOUS
 62
    7
 10
188.99874300570102
 20
126.77919542467272
 40
0.1627906593116554
  0
CIRCLE
  8
_1-1_
  6
CONTINUOUS
 62
    7
 10
191.9289253853463
 20
127.91871766786318
 40
0.1627906593116554
  0
CIRCLE
  8
_1-1_
  6
CONTINUOUS
 62
    7
 10
189.81267155827703
 20
128.89544925174198
 40
0.1627906593116554
  0
CIRCLE
  8
_1-1_
  6
CONTINUOUS
 62
    7
 10
188.18478970914273
 20
129.05823991105365
 40
0.1627906593116554
  0
CIRCLE
  8
_1-1_
  6
CONTINUOUS
 62
    7
 10
185.25460732949747
 20
128.407077273807
 40
0.1627906593116554
  0
CIRCLE
  8
_1-1_
  6
CONTINUOUS
 62
    7
 10
184.7662353515625
 20
126.45361410604941
 40
0.1627906593116554
  0
CIRCLE
  8
_1-1_
  6
CONTINUOUS
 62
    7
 10
193.71959789379224
 20
125.47689489416175
 40
0.1627906593116554
  0
CIRCLE
  8
_1-1_
  6
CONTINUOUS
 62
    7
 10
195.51027040223818
 20
125.31410423485009
 40
0.1627906593116554
  0
CIRCLE
  8
_1-1_
  6
CONTINUOUS
 62
    7
 10
197.46373356999578
 20
126.29083581872889
 40
0.1627906593116554
  0
CIRCLE
  8
_1-1_
  6
CONTINUOUS
 62
    7
 10
195.02189842430323
 20
127.10477674329604
 40
0.1627906593116554
  0
CIRCLE
  8
_1-1_
  6
CONTINUOUS
 62
    7
 10
194.04517921241555
 20
128.407077273807
 40
0.1627906593116554
  0
CIRCLE
  8
_1-1_
  6
CONTINUOUS
 62
    7
 10
189.64988089896539
 20
128.56986793311867
 40
0.1627906593116554
  0
CIRCLE
  8
_1-1_
  6
CONTINUOUS
 62
    7
 10
188.3475803684544
 20
127.75592700855152
 40
0.1627906593116554
  0
CIRCLE
  8
_1-1_
  6
CONTINUOUS
 62
    7
 10
190.46383419552365
 20
125.80246384079392
 40
0.1627906593116554
  0
CIRCLE
  8
_1-1_
  6
CONTINUOUS
 62
    7
 10
187.69643010319891
 20
125.31410423485009
 40
0.1627906593116554
  0
CIRCLE
  8
_1-1_
  6
CONTINUOUS
 62
    7
 10
185.74297930743245
 20
124.50016331028294
 40
0.1627906593116554
  0
CIRCLE
  8
_1-1_
  6
CONTINUOUS
 62
    7
 10
183.78951613967484
 20
129.38380885768581
 40
0.1627906593116554
  0
CIRCLE
  8
_1-1_
  6
CONTINUOUS
 62
    7
 10
185.41739798880914
 20
130.36054044156461
 40
0.1627906593116554
  0
CIRCLE
  8
_1-1_
  6
CONTINUOUS
 62
    7
 10
193.39401657516893
 20
130.19774978225297
 40
0.1627906593116554
  0
CIRCLE
  8
_1-1_
  6
CONTINUOUS
 62
    7
 10
236.24020138302367
 20
127.47886863914697
 40
0.1627906593116554
  0
CIRCLE
  8
_1-1_
  6
CONTINUOUS
 62
    7
 10
233.31001900337839
 20
126.82771837389147
 40
0.1627906593116554
  0
CIRCLE
  8
_1-1_
  6
CONTINUOUS
 62
    7
 10
232.49609045080237
 20
126.50213705526816
 40
0.1627906593116554
  0
CIRCLE
  8
_1-1_
  6
CONTINUOUS
 62
    7
 10
235.42627283044766
 20
127.64165929845862
 40
0.1627906593116554
  0
CIRCLE
  8
_1-1_
  6
CONTINUOUS
 62
    7
 10
233.31001900337839
 20
128.61839088233742
 40
0.1627906593116554
  0
CIRCLE
  8
_1-1_
  6
CONTINUOUS
 62
    7
 10
231.68213715424409
 20
128.78118154164909
 40
0.1627906593116554
  0
CIRCLE
  8
_1-1_
  6
CONTINUOUS
 62
    7
 10
228.75195477459883
 20
128.13001890440245
 40
0.1627906593116554
  0
CIRCLE
  8
_1-1_
  6
CONTINUOUS
 62
    7
 10
228.26358279666385
 20
126.17655573664486
 40
0.1627906593116554
  0
CIRCLE
  8
_1-1_
  6
CONTINUOUS
 62
    7
 10
237.21694533889359
 20
125.19983652475719
 40
0.1627906593116554
  0
CIRCLE
  8
_1-1_
  6
CONTINUOUS
 62
    7
 10
239.00761784733953
 20
125.03704586544553
 40
0.1627906593116554
  0
CIRCLE
  8
_1-1_
  6
CONTINUOUS
 62
    7
 10
240.96108101509714
 20
126.01377744932434
 40
0.1627906593116554
  0
CIRCLE
  8
_1-1_
  6
CONTINUOUS
 62
    7
 10
238.51924586940459
 20
126.82771837389147
 40
0.1627906593116554
  0
CIRCLE
  8
_1-1_
  6
CONTINUOUS
 62
    7
 10
237.5425266575169
 20
128.13001890440245
 40
0.1627906593116554
  0
CIRCLE
  8
_1-1_
  6
CONTINUOUS
 62
    7
 10
233.14722834406675
 20
128.29280956371412
 40
0.1627906593116554
  0
CIRCLE
  8
_1-1_
  6
CONTINUOUS
 62
    7
 10
231.84492781355576
 20
127.47886863914697
 40
0.1627906593116554
  0
CIRCLE
  8
_1-1_
  6
CONTINUOUS
 62
    7
 10
233.961181640625
 20
125.52540547138936
 40
0.1627906593116554
  0
CIRCLE
  8
_1-1_
  6
CONTINUOUS
 62
    7
 10
231.19376517630914
 20
125.03704586544553
 40
0.1627906593116554
  0
CIRCLE
  8
_1-1_
  6
CONTINUOUS
 62
    7
 10
229.2403267525338
 20
124.22310494087839
 40
0.1627906593116554
  0
CIRCLE
  8
_1-1_
  6
CONTINUOUS
 62
    7
 10
227.2868635847762
 20
129.10675048828125
 40
0.1627906593116554
  0
CIRCLE
  8
_1-1_
  6
CONTINUOUS
 62
    7
 10
228.9147454339105
 20
130.08348207216005
 40
0.1627906593116554
  0
CIRCLE
  8
_1-1_
  6
CONTINUOUS
 62
    7
 10
236.89136402027029
 20
129.92069141284841
 40
0.1627906593116554
  0
CIRCLE
  8
_1-1_
  6
CONTINUOUS
 62
    7
 10
227.92859876478042
 20
127.20181026974241
 40
0.1627906593116554
  0
CIRCLE
  8
_1-1_
  6
CONTINUOUS
 62
    7
 10
224.99841638513516
 20
126.55066000448691
 40
0.1627906593116554
  0
CIRCLE
  8
_1-1_
  6
CONTINUOUS
 62
    7
 10
224.18448783255914
 20
126.22507868586361
 40
0.1627906593116554
  0
CIRCLE
  8
_1-1_
  6
CONTINUOUS
 62
    7
 10
227.1146702122044
 20
127.36460092905406
 40
0.1627906593116554
  0
CIRCLE
  8
_1-1_
  6
CONTINUOUS
 62
    7
 10
224.99841638513516
 20
128.34133251293287
 40
0.1627906593116554
  0
CIRCLE
  8
_1-1_
  6
CONTINUOUS
 62
    7
 10
223.37053453600086
 20
128.5041231722445
 40
0.1627906593116554
  0
CIRCLE
  8
_1-1_
  6
CONTINUOUS
 62
    7
 10
220.44035215635557
 20
127.85296053499789
 40
0.1627906593116554
  0
CIRCLE
  8
_1-1_
  6
CONTINUOUS
 62
    7
 10
219.95198017842063
 20
125.8994973672403
 40
0.1627906593116554
  0
CIRCLE
  8
_1-1_
  6
CONTINUOUS
 62
    7
 10
228.90534272065034
 20
124.92277815535263
 40
0.1627906593116554
  0
CIRCLE
  8
_1-1_
  6
CONTINUOUS
 62
    7
 10
230.6960152290963
 20
124.75998749604096
 40
0.1627906593116554
  0
CIRCLE
  8
_1-1_
  6
CONTINUOUS
 62
    7
 10
232.64947839685391
 20
125.73671907991977
 40
0.1627906593116554
  0
CIRCLE
  8
_1-1_
  6
CONTINUOUS
 62
    7
 10
230.20764325116133
 20
126.55066000448691
 40
0.1627906593116554
  0
CIRCLE
  8
_1-1_
  6
CONTINUOUS
 62
    7
 10
229.23092403927367
 20
127.85296053499789
 40
0.1627906593116554
  0
CIRCLE
  8
_1-1_
  6
CONTINUOUS
 62
    7
 10
224.83562572582349
 20
128.01575119430956
 40
0.1627906593116554
  0
CIRCLE
  8
_1-1_
  6
CONTINUOUS
 62
    7
 10
223.5333251953125
 20
127.20181026974241
 40
0.1627906593116554
  0
CIRCLE
  8
_1-1_
  6
CONTINUOUS
 62
    7
 10
225.64957902238177
 20
125.24834710198481
 40
0.1627906593116554
  0
CIRCLE
  8
_1-1_
  6
CONTINUOUS
 62
    7
 10
222.88216255806589
 20
124.75998749604096
 40
0.1627906593116554
  0
CIRCLE
  8
_1-1_
  6
CONTINUOUS
 62
    7
 10
220.92872413429055
 20
123.94604657147383
 40
0.1627906593116554
  0
CIRCLE
  8
_1-1_
  6
CONTINUOUS
 62
    7
 10
218.97526096653294
 20
128.82969211887669
 40
0.1627906593116554
  0
CIRCLE
  8
_1-1_
  6
CONTINUOUS
 62
    7
 10
220.60314281566724
 20
129.8064237027555
 40
0.1627906593116554
  0
CIRCLE
  8
_1-1_
  6
CONTINUOUS
 62
    7
 10
228.57976140202703
 20
129.64363304344383
 40
0.1627906593116554
  0
CIRCLE
  8
_1-1_
  6
CONTINUOUS
 62
    7
 10
219.06292889569258
 20
126.37065990551099
 40
0.1627906593116554
  0
CIRCLE
  8
_1-1_
  6
CONTINUOUS
 62
    7
 10
216.13272177206505
 20
125.7195096402555
 40
0.1627906593116554
  0
CIRCLE
  8
_1-1_
  6
CONTINUOUS
 62
    7
 10
215.31879321948904
 20
125.39392832163219
 40
0.1627906593116554
  0
CIRCLE
  8
_1-1_
  6
CONTINUOUS
 62
    7
 10
218.2489755991343
 20
126.53345056482264
 40
0.1627906593116554
  0
CIRCLE
  8
_1-1_
  6
CONTINUOUS
 62
    7
 10
216.13272177206505
 20
127.51018214870145
 40
0.1627906593116554
  0
CIRCLE
  8
_1-1_
  6
CONTINUOUS
 62
    7
 10
214.50483992293076
 20
127.6729728080131
 40
0.1627906593116554
  0
CIRCLE
  8
_1-1_
  6
CONTINUOUS
 62
    7
 10
211.5746575432855
 20
127.02181017076647
 40
0.1627906593116554
  0
CIRCLE
  8
_1-1_
  6
CONTINUOUS
 62
    7
 10
211.08628556535052
 20
125.06834700300888
 40
0.1627906593116554
  0
CIRCLE
  8
_1-1_
  6
CONTINUOUS
 62
    7
 10
220.03964810758026
 20
124.09162779112121
 40
0.1627906593116554
  0
CIRCLE
  8
_1-1_
  6
CONTINUOUS
 62
    7
 10
221.8303206160262
 20
123.92883713180954
 40
0.1627906593116554
  0
CIRCLE
  8
_1-1_
  6
CONTINUOUS
 62
    7
 10
223.7837837837838
 20
124.90556871568835
 40
0.1627906593116554
  0
CIRCLE
  8
_1-1_
  6
CONTINUOUS
 62
    7
 10
221.34194863809122
 20
125.7195096402555
 40
0.1627906593116554
  0
CIRCLE
  8
_1-1_
  6
CONTINUOUS
 62
    7
 10
220.36522942620357
 20
127.02181017076647
 40
0.1627906593116554
  0
CIRCLE
  8
_1-1_
  6
CONTINUOUS
 62
    7
 10
215.96993111275339
 20
127.18460083007813
 40
0.1627906593116554
  0
CIRCLE
  8
_1-1_
  6
CONTINUOUS
 62
    7
 10
214.66763058224242
 20
126.37065990551099
 40
0.1627906593116554
  0
CIRCLE
  8
_1-1_
  6
CONTINUOUS
 62
    7
 10
216.78388440931167
 20
124.41719673775339
 40
0.1627906593116554
  0
CIRCLE
  8
_1-1_
  6
CONTINUOUS
 62
    7
 10
214.01649268897805
 20
123.92883713180954
 40
0.1627906593116554
  0
CIRCLE
  8
_1-1_
  6
CONTINUOUS
 62
    7
 10
212.06302952122044
 20
123.11489620724241
 40
0.1627906593116554
  0
CIRCLE
  8
_1-1_
  6
CONTINUOUS
 62
    7
 10
210.10956635346284
 20
127.99854175464527
 40
0.1627906593116554
  0
CIRCLE
  8
_1-1_
  6
CONTINUOUS
 62
    7
 10
211.73744820259714
 20
128.97527333852409
 40
0.1627906593116554
  0
CIRCLE
  8
_1-1_
  6
CONTINUOUS
 62
    7
 10
219.71406678895693
 20
128.81248267921242
 40
0.1627906593116554
  0
CIRCLE
  8
_1-1_
  6
CONTINUOUS
 62
    7
 10
209.64309279983109
 20
126.64770590292441
 40
0.1627906593116554
  0
CIRCLE
  8
_1-1_
  6
CONTINUOUS
 62
    7
 10
206.71291042018584
 20
125.99655563766892
 40
0.1627906593116554
  0
CIRCLE
  8
_1-1_
  6
CONTINUOUS
 62
    7
 10
205.89898186760982
 20
125.67097431904561
 40
0.1627906593116554
  0
CIRCLE
  8
_1-1_
  6
CONTINUOUS
 62
    7
 10
208.82916424725508
 20
126.81049656223607
 40
0.1627906593116554
  0
CIRCLE
  8
_1-1_
  6
CONTINUOUS
 62
    7
 10
206.71291042018584
 20
127.78722814611487
 40
0.1627906593116554
  0
CIRCLE
  8
_1-1_
  6
CONTINUOUS
 62
    7
 10
205.08502857105154
 20
127.95001880542652
 40
0.1627906593116554
  0
CIRCLE
  8
_1-1_
  6
CONTINUOUS
 62
    7
 10
202.15484619140625
 20
127.29885616817991
 40
0.1627906593116554
  0
CIRCLE
  8
_1-1_
  6
CONTINUOUS
 62
    7
 10
201.6664742134713
 20
125.34539300042231
 40
0.1627906593116554
  0
CIRCLE
  8
_1-1_
  6
CONTINUOUS
 62
    7
 10
210.61983675570102
 20
124.36867378853464
 40
0.1627906593116554
  0
CIRCLE
  8
_1-1_
  6
CONTINUOUS
 62
    7
 10
212.41050926414698
 20
124.20588312922298
 40
0.1627906593116554
  0
CIRCLE
  8
_1-1_
  6
CONTINUOUS
 62
    7
 10
214.36397243190459
 20
125.18261471310178
 40
0.1627906593116554
  0
CIRCLE
  8
_1-1_
  6
CONTINUOUS
 62
    7
 10
211.92213728621201
 20
125.99655563766892
 40
0.1627906593116554
  0
CIRCLE
  8
_1-1_
  6
CONTINUOUS
 62
    7
 10
210.94541807432432
 20
127.29885616817991
 40
0.1627906593116554
  0
CIRCLE
  8
_1-1_
  6
CONTINUOUS
 62
    7
 10
206.55011976087417
 20
127.46164682749156
 40
0.1627906593116554
  0
CIRCLE
  8
_1-1_
  6
CONTINUOUS
 62
    7
 10
205.24781923036318
 20
126.64770590292441
 40
0.1627906593116554
  0
CIRCLE
  8
_1-1_
  6
CONTINUOUS
 62
    7
 10
207.36407305743245
 20
124.69424273516681
 40
0.1627906593116554
  0
CIRCLE
  8
_1-1_
  6
CONTINUOUS
 62
    7
 10
204.59666896510771
 20
124.20588312922298
 40
0.1627906593116554
  0
CIRCLE
  8
_1-1_
  6
CONTINUOUS
 62
    7
 10
202.64321816934122
 20
123.39194220465583
 40
0.1627906593116554
  0
CIRCLE
  8
_1-1_
  6
CONTINUOUS
 62
    7
 10
200.68975500158362
 20
128.2755877520587
 40
0.1627906593116554
  0
CIRCLE
  8
_1-1_
  6
CONTINUOUS
 62
    7
 10
202.31763685071792
 20
129.2523193359375
 40
0.1627906593116554
  0
CIRCLE
  8
_1-1_
  6
CONTINUOUS
 62
    7
 10
210.29425543707771
 20
129.08952867662586
 40
0.1627906593116554
  0
CIRCLE
  8
_1-1_
  6
CONTINUOUS
 62
    7
 10
247.87645494615711
 20
128.58707737278294
 40
0.1627906593116554
  0
CIRCLE
  8
_1-1_
  6
CONTINUOUS
 62
    7
 10
244.94624782252959
 20
127.93592710752746
 40
0.1627906593116554
  0
CIRCLE
  8
_1-1_
  6
CONTINUOUS
 62
    7
 10
244.13231926995357
 20
127.61034578890414
 40
0.1627906593116554
  0
CIRCLE
  8
_1-1_
  6
CONTINUOUS
 62
    7
 10
247.06250164959883
 20
128.74986803209461
 40
0.1627906593116554
  0
CIRCLE
  8
_1-1_
  6
CONTINUOUS
 62
    7
 10
244.94624782252959
 20
129.72659961597341
 40
0.1627906593116554
  0
CIRCLE
  8
_1-1_
  6
CONTINUOUS
 62
    7
 10
243.31836597339529
 20
129.88939027528505
 40
0.1627906593116554
  0
CIRCLE
  8
_1-1_
  6
CONTINUOUS
 62
    7
 10
240.38818359375
 20
129.23822763803844
 40
0.1627906593116554
  0
CIRCLE
  8
_1-1_
  6
CONTINUOUS
 62
    7
 10
239.89981161581505
 20
127.28476447028083
 40
0.1627906593116554
  0
CIRCLE
  8
_1-1_
  6
CONTINUOUS
 62
    7
 10
248.85317415804477
 20
126.30804525839316
 40
0.1627906593116554
  0
CIRCLE
  8
_1-1_
  6
CONTINUOUS
 62
    7
 10
250.64384666649073
 20
126.14525459908151
 40
0.1627906593116554
  0
CIRCLE
  8
_1-1_
  6
CONTINUOUS
 62
    7
 10
252.59730983424834
 20
127.12198618296031
 40
0.1627906593116554
  0
CIRCLE
  8
_1-1_
  6
CONTINUOUS
 62
    7
 10
250.15547468855576
 20
127.93592710752746
 40
0.1627906593116554
  0
CIRCLE
  8
_1-1_
  6
CONTINUOUS
 62
    7
 10
249.1787554766681
 20
129.23822763803844
 40
0.1627906593116554
  0
CIRCLE
  8
_1-1_
  6
CONTINUOUS
 62
    7
 10
244.78345716321792
 20
129.40101829735008
 40
0.1627906593116554
  0
CIRCLE
  8
_1-1_
  6
CONTINUOUS
 62
    7
 10
243.48115663270693
 20
128.58707737278294
 40
0.1627906593116554
  0
CIRCLE
  8
_1-1_
  6
CONTINUOUS
 62
    7
 10
245.5974104597762
 20
126.63361420502534
 40
0.1627906593116554
  0
CIRCLE
  8
_1-1_
  6
CONTINUOUS
 62
    7
 10
242.83001873944258
 20
126.14525459908151
 40
0.1627906593116554
  0
CIRCLE
  8
_1-1_
  6
CONTINUOUS
 62
    7
 10
240.87655557168497
 20
125.33131367451436
 40
0.1627906593116554
  0
CIRCLE
  8
_1-1_
  6
CONTINUOUS
 62
    7
 10
238.92309240392737
 20
130.21495922191724
 40
0.1627906593116554
  0
CIRCLE
  8
_1-1_
  6
CONTINUOUS
 62
    7
 10
240.55097425306167
 20
131.19169080579604
 40
0.1627906593116554
  0
CIRCLE
  8
_1-1_
  6
CONTINUOUS
 62
    7
 10
248.52759283942146
 20
131.02890014648437
 40
0.1627906593116554
  0
CIRCLE
  8
_1-1_
  6
CONTINUOUS
 62
    7
 10
259.23562539590375
 20
127.75592700855152
 40
0.1627906593116554
  0
CIRCLE
  8
_1-1_
  6
CONTINUOUS
 62
    7
 10
256.3054182722762
 20
127.10477674329604
 40
0.1627906593116554
  0
CIRCLE
  8
_1-1_
  6
CONTINUOUS
 62
    7
 10
255.49148971970018
 20
126.77919542467272
 40
0.1627906593116554
  0
CIRCLE
  8
_1-1_
  6
CONTINUOUS
 62
    7
 10
258.42167209934547
 20
127.91871766786318
 40
0.1627906593116554
  0
CIRCLE
  8
_1-1_
  6
CONTINUOUS
 62
    7
 10
256.3054182722762
 20
128.89544925174198
 40
0.1627906593116554
  0
CIRCLE
  8
_1-1_
  6
CONTINUOUS
 62
    7
 10
254.6775364231419
 20
129.05823991105365
 40
0.1627906593116554
  0
CIRCLE
  8
_1-1_
  6
CONTINUOUS
 62
    7
 10
251.74735404349664
 20
128.407077273807
 40
0.1627906593116554
  0
CIRCLE
  8
_1-1_
  6
CONTINUOUS
 62
    7
 10
251.25898206556167
 20
126.45361410604941
 40
0.1627906593116554
  0
CIRCLE
  8
_1-1_
  6
CONTINUOUS
 62
    7
 10
260.21234460779141
 20
125.47689489416175
 40
0.1627906593116554
  0
CIRCLE
  8
_1-1_
  6
CONTINUOUS
 62
    7
 10
262.00301711623734
 20
125.31410423485009
 40
0.1627906593116554
  0
CIRCLE
  8
_1-1_
  6
CONTINUOUS
 62
    7
 10
263.95648028399495
 20
126.29083581872889
 40
0.1627906593116554
  0
CIRCLE
  8
_1-1_
  6
CONTINUOUS
 62
    7
 10
261.5146451383024
 20
127.10477674329604
 40
0.1627906593116554
  0
CIRCLE
  8
_1-1_
  6
CONTINUOUS
 62
    7
 10
260.53792592641469
 20
128.407077273807
 40
0.1627906593116554
  0
CIRCLE
  8
_1-1_
  6
CONTINUOUS
 62
    7
 10
256.14262761296453
 20
128.56986793311867
 40
0.1627906593116554
  0
CIRCLE
  8
_1-1_
  6
CONTINUOUS
 62
    7
 10
254.84032708245357
 20
127.75592700855152
 40
0.1627906593116554
  0
CIRCLE
  8
_1-1_
  6
CONTINUOUS
 62
    7
 10
256.95658090952281
 20
125.80246384079392
 40
0.1627906593116554
  0
CIRCLE
  8
_1-1_
  6
CONTINUOUS
 62
    7
 10
254.18918918918919
 20
125.31410423485009
 40
0.1627906593116554
  0
CIRCLE
  8
_1-1_
  6
CONTINUOUS
 62
    7
 10
252.23572602143159
 20
124.50016331028294
 40
0.1627906593116554
  0
CIRCLE
  8
_1-1_
  6
CONTINUOUS
 62
    7
 10
250.28226285367401
 20
129.38380885768581
 40
0.1627906593116554
  0
CIRCLE
  8
_1-1_
  6
CONTINUOUS
 62
    7
 10
251.91014470280828
 20
130.36054044156461
 40
0.1627906593116554
  0
CIRCLE
  8
_1-1_
  6
CONTINUOUS
 62
    7
 10
259.88676328916807
 20
130.19774978225297
 40
0.1627906593116554
  0
CIRCLE
  8
_1-1_
  6
CONTINUOUS
 62
    7
 10
266.99311127533787
 20
128.03297300596495
 40
0.1627906593116554
  0
CIRCLE
  8
_1-1_
  6
CONTINUOUS
 62
    7
 10
264.06290415171031
 20
127.38182274070947
 40
0.1627906593116554
  0
CIRCLE
  8
_1-1_
  6
CONTINUOUS
 62
    7
 10
263.24897559913433
 20
127.05624142208616
 40
0.1627906593116554
  0
CIRCLE
  8
_1-1_
  6
CONTINUOUS
 62
    7
 10
266.17915797877959
 20
128.19576366527662
 40
0.1627906593116554
  0
CIRCLE
  8
_1-1_
  6
CONTINUOUS
 62
    7
 10
264.06290415171031
 20
129.17249524915542
 40
0.1627906593116554
  0
CIRCLE
  8
_1-1_
  6
CONTINUOUS
 62
    7
 10
262.43502230257604
 20
129.33528590846706
 40
0.1627906593116554
  0
CIRCLE
  8
_1-1_
  6
CONTINUOUS
 62
    7
 10
259.50483992293078
 20
128.68412327122044
 40
0.1627906593116554
  0
CIRCLE
  8
_1-1_
  6
CONTINUOUS
 62
    7
 10
259.01646794499578
 20
126.73066010346284
 40
0.1627906593116554
  0
CIRCLE
  8
_1-1_
  6
CONTINUOUS
 62
    7
 10
267.96983048722552
 20
125.75394089157517
 40
0.1627906593116554
  0
CIRCLE
  8
_1-1_
  6
CONTINUOUS
 62
    7
 10
269.76050299567146
 20
125.59115023226352
 40
0.1627906593116554
  0
CIRCLE
  8
_1-1_
  6
CONTINUOUS
 62
    7
 10
271.71396616342906
 20
126.56788181614232
 40
0.1627906593116554
  0
CIRCLE
  8
_1-1_
  6
CONTINUOUS
 62
    7
 10
269.27213101773651
 20
127.38182274070947
 40
0.1627906593116554
  0
CIRCLE
  8
_1-1_
  6
CONTINUOUS
 62
    7
 10
268.29541180584886
 20
128.68412327122044
 40
0.1627906593116554
  0
CIRCLE
  8
_1-1_
  6
CONTINUOUS
 62
    7
 10
263.90011349239865
 20
128.84691393053211
 40
0.1627906593116554
  0
CIRCLE
  8
_1-1_
  6
CONTINUOUS
 62
    7
 10
262.59781296188766
 20
128.03297300596495
 40
0.1627906593116554
  0
CIRCLE
  8
_1-1_
  6
CONTINUOUS
 62
    7
 10
264.71406678895693
 20
126.07950983820736
 40
0.1627906593116554
  0
CIRCLE
  8
_1-1_
  6
CONTINUOUS
 62
    7
 10
261.94667506862334
 20
125.59115023226352
 40
0.1627906593116554
  0
CIRCLE
  8
_1-1_
  6
CONTINUOUS
 62
    7
 10
259.99321190086573
 20
124.77720930769638
 40
0.1627906593116554
  0
CIRCLE
  8
_1-1_
  6
CONTINUOUS
 62
    7
 10
258.03974873310813
 20
129.66085485509925
 40
0.1627906593116554
  0
CIRCLE
  8
_1-1_
  6
CONTINUOUS
 62
    7
 10
259.6676305822424
 20
130.63758643897805
 40
0.1627906593116554
  0
CIRCLE
  8
_1-1_
  6
CONTINUOUS
 62
    7
 10
267.64424916860219
 20
130.47479577966638
 40
0.1627906593116554
  0
CIRCLE
  8
_1-1_
  6
CONTINUOUS
 62
    7
 10
248.98463893581084
 20
125.53948479729731
 40
0.1627906593116554
  0
CIRCLE
  8
_1-1_
  6
CONTINUOUS
 62
    7
 10
246.05445655616555
 20
124.88833453204181
 40
0.1627906593116554
  0
CIRCLE
  8
_1-1_
  6
CONTINUOUS
 62
    7
 10
245.24052800358953
 20
124.5627532134185
 40
0.1627906593116554
  0
CIRCLE
  8
_1-1_
  6
CONTINUOUS
 62
    7
 10
248.17071038323482
 20
125.70227545660896
 40
0.1627906593116554
  0
CIRCLE
  8
_1-1_
  6
CONTINUOUS
 62
    7
 10
246.05445655616555
 20
126.67900704048776
 40
0.1627906593116554
  0
CIRCLE
  8
_1-1_
  6
CONTINUOUS
 62
    7
 10
244.42657470703125
 20
126.84179769979941
 40
0.1627906593116554
  0
CIRCLE
  8
_1-1_
  6
CONTINUOUS
 62
    7
 10
241.49639232738599
 20
126.1906350625528
 40
0.1627906593116554
  0
CIRCLE
  8
_1-1_
  6
CONTINUOUS
 62
    7
 10
241.00802034945102
 20
124.2371718947952
 40
0.1627906593116554
  0
CIRCLE
  8
_1-1_
  6
CONTINUOUS
 62
    7
 10
249.96138289168076
 20
123.26045268290753
 40
0.1627906593116554
  0
CIRCLE
  8
_1-1_
  6
CONTINUOUS
 62
    7
 10
251.75205540012669
 20
123.09766202359587
 40
0.1627906593116554
  0
CIRCLE
  8
_1-1_
  6
CONTINUOUS
 62
    7
 10
253.7055185678843
 20
124.07439360747468
 40
0.1627906593116554
  0
CIRCLE
  8
_1-1_
  6
CONTINUOUS
 62
    7
 10
251.26368342219175
 20
124.88833453204181
 40
0.1627906593116554
  0
CIRCLE
  8
_1-1_
  6
CONTINUOUS
 62
    7
 10
250.28696421030406
 20
126.1906350625528
 40
0.1627906593116554
  0
CIRCLE
  8
_1-1_
  6
CONTINUOUS
 62
    7
 10
245.89166589685391
 20
126.35342572186445
 40
0.1627906593116554
  0
CIRCLE
  8
_1-1_
  6
CONTINUOUS
 62
    7
 10
244.58936536634292
 20
125.53948479729731
 40
0.1627906593116554
  0
CIRCLE
  8
_1-1_
  6
CONTINUOUS
 62
    7
 10
246.70561919341219
 20
123.5860216295397
 40
0.1627906593116554
  0
CIRCLE
  8
_1-1_
  6
CONTINUOUS
 62
    7
 10
243.9382027290963
 20
123.09766202359587
 40
0.1627906593116554
  0
CIRCLE
  8
_1-1_
  6
CONTINUOUS
 62
    7
 10
241.98476430532097
 20
122.28372109902872
 40
0.1627906593116554
  0
CIRCLE
  8
_1-1_
  6
CONTINUOUS
 62
    7
 10
240.03130113756336
 20
127.16736664643159
 40
0.1627906593116554
  0
CIRCLE
  8
_1-1_
  6
CONTINUOUS
 62
    7
 10
241.65918298669766
 20
128.14409823031039
 40
0.1627906593116554
  0
CIRCLE
  8
_1-1_
  6
CONTINUOUS
 62
    7
 10
249.63580157305745
 20
127.98130757099874
 40
0.1627906593116554
  0
CIRCLE
  8
_1-1_
  6
CONTINUOUS
 62
    7
 10
227.37453151393584
 20
125.26243879988388
 40
0.1627906593116554
  0
CIRCLE
  8
_1-1_
  6
CONTINUOUS
 62
    7
 10
224.44432439030828
 20
124.61128853462839
 40
0.1627906593116554
  0
CIRCLE
  8
_1-1_
  6
CONTINUOUS
 62
    7
 10
223.63039583773227
 20
124.28570721600508
 40
0.1627906593116554
  0
CIRCLE
  8
_1-1_
  6
CONTINUOUS
 62
    7
 10
226.56057821737755
 20
125.42522945919553
 40
0.1627906593116554
  0
CIRCLE
  8
_1-1_
  6
CONTINUOUS
 62
    7
 10
224.44432439030828
 20
126.40196104307434
 40
0.1627906593116554
  0
CIRCLE
  8
_1-1_
  6
CONTINUOUS
 62
    7
 10
222.81644254117401
 20
126.56475170238599
 40
0.1627906593116554
  0
CIRCLE
  8
_1-1_
  6
CONTINUOUS
 62
    7
 10
219.88626016152872
 20
125.91358906513936
 40
0.1627906593116554
  0
CIRCLE
  8
_1-1_
  6
CONTINUOUS
 62
    7
 10
219.39788818359375
 20
123.96012589738176
 40
0.1627906593116554
  0
CIRCLE
  8
_1-1_
  6
CONTINUOUS
 62
    7
 10
228.35125072582349
 20
122.98340668549409
 40
0.1627906593116554
  0
CIRCLE
  8
_1-1_
  6
CONTINUOUS
 62
    7
 10
230.14192323426943
 20
122.82061602618244
 40
0.1627906593116554
  0
CIRCLE
  8
_1-1_
  6
CONTINUOUS
 62
    7
 10
232.09538640202703
 20
123.79734761006124
 40
0.1627906593116554
  0
CIRCLE
  8
_1-1_
  6
CONTINUOUS
 62
    7
 10
229.65355125633448
 20
124.61128853462839
 40
0.1627906593116554
  0
CIRCLE
  8
_1-1_
  6
CONTINUOUS
 62
    7
 10
228.6768320444468
 20
125.91358906513936
 40
0.1627906593116554
  0
CIRCLE
  8
_1-1_
  6
CONTINUOUS
 62
    7
 10
224.28153373099664
 20
126.07637972445102
 40
0.1627906593116554
  0
CIRCLE
  8
_1-1_
  6
CONTINUOUS
 62
    7
 10
222.97923320048565
 20
125.26243879988388
 40
0.1627906593116554
  0
CIRCLE
  8
_1-1_
  6
CONTINUOUS
 62
    7
 10
225.09548702755492
 20
123.30897563212628
 40
0.1627906593116554
  0
CIRCLE
  8
_1-1_
  6
CONTINUOUS
 62
    7
 10
222.3280953072213
 20
122.82061602618244
 40
0.1627906593116554
  0
CIRCLE
  8
_1-1_
  6
CONTINUOUS
 62
    7
 10
220.3746321394637
 20
122.0066751016153
 40
0.1627906593116554
  0
CIRCLE
  8
_1-1_
  6
CONTINUOUS
 62
    7
 10
218.42116897170609
 20
126.89032064901816
 40
0.1627906593116554
  0
CIRCLE
  8
_1-1_
  6
CONTINUOUS
 62
    7
 10
220.04905082084039
 20
127.86705223289697
 40
0.1627906593116554
  0
CIRCLE
  8
_1-1_
  6
CONTINUOUS
 62
    7
 10
228.02566940720018
 20
127.70426157358531
 40
0.1627906593116554
  0
CIRCLE
  8
_1-1_
  6
CONTINUOUS
 62
    7
 10
214.63004447318414
 20
125.53948479729731
 40
0.1627906593116554
  0
CIRCLE
  8
_1-1_
  6
CONTINUOUS
 62
    7
 10
211.69986209353885
 20
124.88833453204181
 40
0.1627906593116554
  0
CIRCLE
  8
_1-1_
  6
CONTINUOUS
 62
    7
 10
210.88593354096284
 20
124.5627532134185
 40
0.1627906593116554
  0
CIRCLE
  8
_1-1_
  6
CONTINUOUS
 62
    7
 10
213.81611592060813
 20
125.70227545660896
 40
0.1627906593116554
  0
CIRCLE
  8
_1-1_
  6
CONTINUOUS
 62
    7
 10
211.69986209353885
 20
126.67900704048776
 40
0.1627906593116554
  0
CIRCLE
  8
_1-1_
  6
CONTINUOUS
 62
    7
 10
210.07198024440459
 20
126.84179769979941
 40
0.1627906593116554
  0
CIRCLE
  8
_1-1_
  6
CONTINUOUS
 62
    7
 10
207.1417978647593
 20
126.1906350625528
 40
0.1627906593116554
  0
CIRCLE
  8
_1-1_
  6
CONTINUOUS
 62
    7
 10
206.65342588682432
 20
124.2371718947952
 40
0.1627906593116554
  0
CIRCLE
  8
_1-1_
  6
CONTINUOUS
 62
    7
 10
215.60678842905406
 20
123.26045268290753
 40
0.1627906593116554
  0
CIRCLE
  8
_1-1_
  6
CONTINUOUS
 62
    7
 10
217.3974609375
 20
123.09766202359587
 40
0.1627906593116554
  0
CIRCLE
  8
_1-1_
  6
CONTINUOUS
 62
    7
 10
219.3509241052576
 20
124.07439360747468
 40
0.1627906593116554
  0
CIRCLE
  8
_1-1_
  6
CONTINUOUS
 62
    7
 10
216.90908895956505
 20
124.88833453204181
 40
0.1627906593116554
  0
CIRCLE
  8
_1-1_
  6
CONTINUOUS
 62
    7
 10
215.93236974767737
 20
126.1906350625528
 40
0.1627906593116554
  0
CIRCLE
  8
_1-1_
  6
CONTINUOUS
 62
    7
 10
211.53707143422722
 20
126.35342572186445
 40
0.1627906593116554
  0
CIRCLE
  8
_1-1_
  6
CONTINUOUS
 62
    7
 10
210.23477090371622
 20
125.53948479729731
 40
0.1627906593116554
  0
CIRCLE
  8
_1-1_
  6
CONTINUOUS
 62
    7
 10
212.3510247307855
 20
123.5860216295397
 40
0.1627906593116554
  0
CIRCLE
  8
_1-1_
  6
CONTINUOUS
 62
    7
 10
209.58360826646961
 20
123.09766202359587
 40
0.1627906593116554
  0
CIRCLE
  8
_1-1_
  6
CONTINUOUS
 62
    7
 10
207.63016984269427
 20
122.28372109902872
 40
0.1627906593116554
  0
CIRCLE
  8
_1-1_
  6
CONTINUOUS
 62
    7
 10
205.67670667493667
 20
127.16736664643159
 40
0.1627906593116554
  0
CIRCLE
  8
_1-1_
  6
CONTINUOUS
 62
    7
 10
207.30458852407097
 20
128.14409823031039
 40
0.1627906593116554
  0
CIRCLE
  8
_1-1_
  6
CONTINUOUS
 62
    7
 10
215.28120711043076
 20
127.98130757099874
 40
0.1627906593116554
  0
CIRCLE
  8
_1-1_
  6
CONTINUOUS
 62
    7
 10
200.50035218934755
 20
125.26243879988388
 40
0.1627906593116554
  0
CIRCLE
  8
_1-1_
  6
CONTINUOUS
 62
    7
 10
197.57015743771115
 20
124.61128853462839
 40
0.1627906593116554
  0
CIRCLE
  8
_1-1_
  6
CONTINUOUS
 62
    7
 10
196.75622888513516
 20
124.28570721600508
 40
0.1627906593116554
  0
CIRCLE
  8
_1-1_
  6
CONTINUOUS
 62
    7
 10
199.68641126478042
 20
125.42522945919553
 40
0.1627906593116554
  0
CIRCLE
  8
_1-1_
  6
CONTINUOUS
 62
    7
 10
197.57015743771115
 20
126.40196104307434
 40
0.1627906593116554
  0
CIRCLE
  8
_1-1_
  6
CONTINUOUS
 62
    7
 10
195.94227558857688
 20
126.56475170238599
 40
0.1627906593116554
  0
CIRCLE
  8
_1-1_
  6
CONTINUOUS
 62
    7
 10
193.01209320893159
 20
125.91358906513936
 40
0.1627906593116554
  0
CIRCLE
  8
_1-1_
  6
CONTINUOUS
 62
    7
 10
192.52372123099664
 20
123.96012589738176
 40
0.1627906593116554
  0
CIRCLE
  8
_1-1_
  6
CONTINUOUS
 62
    7
 10
201.47708377322635
 20
122.98340668549409
 40
0.1627906593116554
  0
CIRCLE
  8
_1-1_
  6
CONTINUOUS
 62
    7
 10
203.26775628167232
 20
122.82061602618244
 40
0.1627906593116554
  0
CIRCLE
  8
_1-1_
  6
CONTINUOUS
 62
    7
 10
205.22121944942992
 20
123.79734761006124
 40
0.1627906593116554
  0
CIRCLE
  8
_1-1_
  6
CONTINUOUS
 62
    7
 10
202.77938430373734
 20
124.61128853462839
 40
0.1627906593116554
  0
CIRCLE
  8
_1-1_
  6
CONTINUOUS
 62
    7
 10
201.80266509184966
 20
125.91358906513936
 40
0.1627906593116554
  0
CIRCLE
  8
_1-1_
  6
CONTINUOUS
 62
    7
 10
197.40736677839951
 20
126.07637972445102
 40
0.1627906593116554
  0
CIRCLE
  8
_1-1_
  6
CONTINUOUS
 62
    7
 10
196.10506624788852
 20
125.26243879988388
 40
0.1627906593116554
  0
CIRCLE
  8
_1-1_
  6
CONTINUOUS
 62
    7
 10
198.22132007495779
 20
123.30897563212628
 40
0.1627906593116554
  0
CIRCLE
  8
_1-1_
  6
CONTINUOUS
 62
    7
 10
195.45391598263302
 20
122.82061602618244
 40
0.1627906593116554
  0
CIRCLE
  8
_1-1_
  6
CONTINUOUS
 62
    7
 10
193.50046518686656
 20
122.0066751016153
 40
0.1627906593116554
  0
CIRCLE
  8
_1-1_
  6
CONTINUOUS
 62
    7
 10
191.54700201910896
 20
126.89032064901816
 40
0.1627906593116554
  0
CIRCLE
  8
_1-1_
  6
CONTINUOUS
 62
    7
 10
193.17488386824326
 20
127.86705223289697
 40
0.1627906593116554
  0
CIRCLE
  8
_1-1_
  6
CONTINUOUS
 62
    7
 10
201.15150245460305
 20
127.70426157358531
 40
0.1627906593116554
  0
CIRCLE
  8
_1-1_
  6
CONTINUOUS
 62
    7
 10
187.47885626715583
 20
124.98539280247044
 40
0.1627906593116554
  0
CIRCLE
  8
_1-1_
  6
CONTINUOUS
 62
    7
 10
184.54866151551943
 20
124.33424253721496
 40
0.1627906593116554
  0
CIRCLE
  8
_1-1_
  6
CONTINUOUS
 62
    7
 10
183.73473296294341
 20
124.00866121859164
 40
0.1627906593116554
  0
CIRCLE
  8
_1-1_
  6
CONTINUOUS
 62
    7
 10
186.6649153425887
 20
125.1481834617821
 40
0.1627906593116554
  0
CIRCLE
  8
_1-1_
  6
CONTINUOUS
 62
    7
 10
184.54866151551943
 20
126.1249150456609
 40
0.1627906593116554
  0
CIRCLE
  8
_1-1_
  6
CONTINUOUS
 62
    7
 10
182.92077966638516
 20
126.28770570497255
 40
0.1627906593116554
  0
CIRCLE
  8
_1-1_
  6
CONTINUOUS
 62
    7
 10
179.99059728673987
 20
125.63654306772594
 40
0.1627906593116554
  0
CIRCLE
  8
_1-1_
  6
CONTINUOUS
 62
    7
 10
179.5022253088049
 20
123.68307989996833
 40
0.1627906593116554
  0
CIRCLE
  8
_1-1_
  6
CONTINUOUS
 62
    7
 10
188.45558785103464
 20
122.70636068808066
 40
0.1627906593116554
  0
CIRCLE
  8
_1-1_
  6
CONTINUOUS
 62
    7
 10
190.24626035948057
 20
122.54357002876901
 40
0.1627906593116554
  0
CIRCLE
  8
_1-1_
  6
CONTINUOUS
 62
    7
 10
192.19972352723818
 20
123.52030161264781
 40
0.1627906593116554
  0
CIRCLE
  8
_1-1_
  6
CONTINUOUS
 62
    7
 10
189.75788838154563
 20
124.33424253721496
 40
0.1627906593116554
  0
CIRCLE
  8
_1-1_
  6
CONTINUOUS
 62
    7
 10
188.78116916965794
 20
125.63654306772594
 40
0.1627906593116554
  0
CIRCLE
  8
_1-1_
  6
CONTINUOUS
 62
    7
 10
184.38587085620779
 20
125.79933372703759
 40
0.1627906593116554
  0
CIRCLE
  8
_1-1_
  6
CONTINUOUS
 62
    7
 10
183.0835703256968
 20
124.98539280247044
 40
0.1627906593116554
  0
CIRCLE
  8
_1-1_
  6
CONTINUOUS
 62
    7
 10
185.19982415276607
 20
123.03192963471284
 40
0.1627906593116554
  0
CIRCLE
  8
_1-1_
  6
CONTINUOUS
 62
    7
 10
182.4324200604413
 20
122.54357002876901
 40
0.1627906593116554
  0
CIRCLE
  8
_1-1_
  6
CONTINUOUS
 62
    7
 10
180.47896926467484
 20
121.72962910420186
 40
0.1627906593116554
  0
CIRCLE
  8
_1-1_
  6
CONTINUOUS
 62
    7
 10
178.52550609691724
 20
126.61327465160474
 40
0.1627906593116554
  0
CIRCLE
  8
_1-1_
  6
CONTINUOUS
 62
    7
 10
180.15338794605154
 20
127.59000623548354
 40
0.1627906593116554
  0
CIRCLE
  8
_1-1_
  6
CONTINUOUS
 62
    7
 10
188.13000653241133
 20
127.42721557617187
 40
0.1627906593116554
  0
ARC
  8
_1-0_
  6
CONTINUOUS
 62
    3
 10
105.35729073189401
 20
146.14047076251057
 40
1.0402513194728542
 50
309.08184814453125
 51
1.6144714355468908
  0
ARC
  8
_1-0_
  6
CONTINUOUS
 62
    3
 10
107.29810972471496
 20
146.60362862251901
 40
3.0627306731971538
 50
42.6905517578125
 51
126.92074584960937
  0
ARC
  8
_1-0_
  6
CONTINUOUS
 62
    3
 10
158.35729238149284
 20
146.14047076251057
 40
1.0402513194728542
 50
309.08184814453125
 51
1.6144714355468908
  0
ARC
  8
_1-0_
  6
CONTINUOUS
 62
    3
 10
136.91932884422511
 20
185.99196562895904
 40
46.274049088761615
 50
233.73811340332031
 51
298.51937866210937
  0
ARC
  8
_1-0_
  6
CONTINUOUS
 62
    3
 10
107.11139163455448
 20
141.67720072978253
 40
4.6263270764737516
 50
47.123046875000007
 51
126.50717163085939
  0
ARC
  8
_1-0_
  6
CONTINUOUS
 62
    3
 10
137.22622845623945
 20
185.43134122281461
 40
48.543530025997683
 50
236.25315856933597
 51
299.03501892089844
  0
ARC
  8
_1-0_
  6
CONTINUOUS
 62
    3
 10
160.29811137431378
 20
146.60362862251901
 40
3.0627306731971538
 50
42.6905517578125
 51
126.92074584960937
  0
ARC
  8
_1-0_
  6
CONTINUOUS
 62
    3
 10
211.35730640308279
 20
146.14045839051943
 40
1.0402513194728542
 50
309.08184814453125
 51
1.6144714355468908
  0
ARC
  8
_1-0_
  6
CONTINUOUS
 62
    3
 10
189.91930574984164
 20
185.99196562895904
 40
46.274049088761615
 50
233.73811340332031
 51
298.51937866210937
  0
ARC
  8
_1-0_
  6
CONTINUOUS
 62
    3
 10
160.11139328415331
 20
141.67718835779138
 40
4.6263270764737516
 50
47.123046875000007
 51
126.50717163085939
  0
ARC
  8
_1-0_
  6
CONTINUOUS
 62
    3
 10
190.22623010583828
 20
185.43134122281461
 40
48.543530025997683
 50
236.25315856933597
 51
299.03501892089844
  0
ARC
  8
_1-0_
  6
CONTINUOUS
 62
    3
 10
83.91930863663957
 20
185.99196562895904
 40
46.274049088761615
 50
251.19485473632813
 51
298.51937866210937
  0
ARC
  8
_1-0_
  6
CONTINUOUS
 62
    3
 10
84.226232992636199
 20
185.43134122281461
 40
48.543530025997683
 50
251.72351074218753
 51
299.03501892089844
  0
ARC
  8
_1-0_
  6
CONTINUOUS
 62
    3
 10
211.35735589104732
 20
146.14047076251057
 40
1.0402513194728542
 50
309.08184814453125
 51
1.6144714355468908
  0
ARC
  8
_1-0_
  6
CONTINUOUS
 62
    3
 10
213.29817488386826
 20
146.60362862251901
 40
3.0627306731971538
 50
42.6905517578125
 51
126.92074584960937
  0
ARC
  8
_1-0_
  6
CONTINUOUS
 62
    3
 10
264.35735754064615
 20
146.14047076251057
 40
1.0402513194728542
 50
309.08184814453125
 51
1.6144714355468908
  0
ARC
  8
_1-0_
  6
CONTINUOUS
 62
    3
 10
242.91939400337839
 20
185.99196562895904
 40
46.274049088761615
 50
233.73811340332031
 51
298.51937866210937
  0
ARC
  8
_1-0_
  6
CONTINUOUS
 62
    3
 10
213.11145679370779
 20
141.67720072978253
 40
4.6263270764737516
 50
47.123046875000007
 51
126.50717163085939
  0
ARC
  8
_1-0_
  6
CONTINUOUS
 62
    3
 10
243.22629361539276
 20
185.43134122281461
 40
48.543530025997683
 50
236.25315856933597
 51
299.03501892089844
  0
ARC
  8
_1-1_
  6
CONTINUOUS
 62
    5
 10
211.4757805901605
 20
150.8237766575169
 40
44.628933055980788
 50
347.73908996582031
 51
1.1895294189452967
  0
TEXT
  8
_0-0_
 62
    7
 10
141.89189395389042
 20
14.594594594594582
 40
2.5
 41
1
 50
0
  1
縮尺
  0
TEXT
  8
_0-0_
 62
    7
 10
377.10214563318203
 20
22.865493362014362
 40
2.5
 41
1
 50
0
  1
ＮＯ
  0
TEXT
  8
_0-0_
 62
    7
 10
14.594594336844779
 20
24.324324324324323
 40
2.5
 41
1
 50
0
  1
和形
  0
TEXT
  8
_0-0_
 62
    7
 10
383.23801896378802
 20
18.523427086907475
 40
3
 41
1
 50
0
  1
Ｊ
  0
TEXT
  8
_1-0_
 62
    7
 10
169.90681828679266
 20
13.3181144095756
 40
2.5
 41
1
 50
0
  1
1/5
  0
TEXT
  8
_1-3_
 62
    7
 10
226.9314451475401
 20
192.69805495803422
 40
2.5
 41
1
 50
0
  1
雨押え板
  0
TEXT
  8
_1-3_
 62
    7
 10
239.40456081081084
 20
192.42394112251901
 40
2.5
 41
1
 50
0
  1
15ｘ90
  0
TEXT
  8
_1-3_
 62
    7
 10
230.73880169842698
 20
160.92598992425044
 40
2.5
 41
1
 50
0
  1
面土漆喰
  0
TEXT
  8
_1-3_
 62
    7
 10
228.27610737568625
 20
180.84916398331927
 40
2.5
 41
1
 50
0
  1
水切鉄板
  0
TEXT
  8
_1-3_
 62
    7
 10
39.721904445338907
 20
15.395235628695104
 40
2.5
 41
1
 50
0
  1
壁際　　3
  0
TEXT
  8
_1-3_
 62
    7
 10
25.556194717819636
 20
20.211577544341225
 40
2.5
 41
1
 50
0
  1
ＲＣ
  0
TEXT
  8
_1-1_
 62
    7
 10
308.4189172693201
 20
160.11146751610011
 40
2.5
 41
1
 50
90
  1
300
  0
TEXT
  8
_1-1_
 62
    7
 10
239.95929202517948
 20
215.7070015572213
 40
2.5
 41
1
 50
0
  1
コーキング
  0
TEXT
  8
_1-1_
 62
    7
 10
315.23479977169552
 20
159.43311124234586
 40
2.5
 41
1
 50
0
  1
下葺き材立上がり寸法
  0
TEXT
  8
_1-1_
 62
    7
 10
233.93299412082985
 20
157.76061599319047
 40
2.5
 41
1
 50
0
  1
及び葺き土
  0
TEXT
  8
_1-3_
 62
    7
 10
395.19982827676313
 20
15.87342236493086
 40
2.5
 41
1
 50
0
  1
23
  0
TEXT
  8
_1-1_
 62
    7
 10
59.510703215727943
 20
189.75632951066302
 40
2.5
 41
1
 50
0
  1
※　地域により瓦桟木の大きさは、異なります
  0
TEXT
  8
_1-3_
 62
    7
 10
51.057404698552318
 20
198.83803908889359
 40
2.5
 41
1
 50
0
  1
桟瓦
  0
TEXT
  8
_1-3_
 62
    7
 10
51.057404698552318
 20
192.83804403769005
 40
2.5
 41
1
 50
0
  1
瓦桟
  0
TEXT
  8
_1-3_
 62
    7
 10
51.057404698552318
 20
186.83804898648648
 40
2.5
 41
1
 50
0
  1
流桟
  0
TEXT
  8
_1-1_
 62
    7
 10
51.057398512556745
 20
180.83805393528294
 40
2.5
 41
1
 50
0
  1
下葺き材　　ゴムアス系ルーフィング
  0
TEXT
  8
_1-1_
 62
    7
 10
51.057402121054167
 20
174.8380588840794
 40
2.5
 41
1
 50
0
  1
パーライト系モルタル
  0
TEXT
  8
_1-1_
 62
    7
 10
81.213937707849453
 20
174.89407925992398
 40
2.5
 41
1
 50
0
  1
ｔ＝50
  0
TEXT
  8
_1-1_
 62
    7
 10
59.650752093340913
 20
192.95106217667865
 40
2.5
 41
1
 50
0
  1
15×30　（樹脂桟木）
  0
POINT
  8
_1-1_
 62
    7
 10
308.91891891891896
 20
132.47366415487755
  0
POINT
  8
_1-1_
 62
    7
 10
308.91891891891896
 20
191.49927087732266
  0
ENDSEC
  0
EOF
