  0
SECTION
  2
HEADER
  9
$ACADVER
  1
AC1009
  9
$INSBASE
 10
0
 20
0
 30
0
  9
$EXTMIN
 10
0
 20
0
  9
$EXTMAX
 10
420
 20
297
  9
$LIMMIN
 10
0
 20
0
  9
$LIMMAX
 10
420
 20
297
  9
$LTSCALE
 40
1
  0
ENDSEC
  0
SECTION
  2
TABLES
  0
TABLE
  2
LTYPE
 70
     9
  0
LTYPE
  2
CONTINUOUS
 70
    64
  3
実線
 72
    65
 73
     0
 40
0.0
  0
LTYPE
  2
DASHED1
 70
    64
  3
--  --  --  --  --  --  --  --  
 72
    65
 73
     2
 40
2.5
 49
1.25
 49
-1.25
  0
LTYPE
  2
DASHED2
 70
    64
  3
----    ----    ----    ----    
 72
    65
 73
     2
 40
5.0
 49
2.5
 49
-2.5
  0
LTYPE
  2
DASHED3
 70
    64
  3
------  ------  ------  ------  
 72
    65
 73
     2
 40
5.0
 49
3.75
 49
-1.25
  0
LTYPE
  2
CENTER1
 70
    64
  3
----- - ----- - ----- - ----- - 
 72
    65
 73
     4
 40
10.0
 49
6.25
 49
-1.25
 49
1.25
 49
-1.25
  0
LTYPE
  2
CENTER2
 70
    64
  3
----------  --  ----------  --  
 72
    65
 73
     4
 40
20.0
 49
12.5
 49
-2.5
 49
2.5
 49
-2.5
  0
LTYPE
  2
PHANTOM1
 70
    64
  3
--- - - --- - - --- - - --- - - 
 72
    65
 73
     6
 40
10.0
 49
3.25
 49
-1.25
 49
1.25
 49
-1.25
 49
1.25
 49
-1.25
  0
LTYPE
  2
PHANTOM2
 70
    64
  3
--------  -  -  --------  -  -  
 72
    65
 73
     6
 40
20.0
 49
10.0
 49
-2.5
 49
1.25
 49
-2.5
 49
1.25
 49
-2.5
  0
LTYPE
  2
DOT
 70
    64
  3
-   -   -   -   -   -   -   -   
 72
    65
 73
     2
 40
2.5
 49
0.625
 49
-1.875
  0
LTYPE
  2
DUMMY
 70
    64
  3
ダミー
 72
    65
 73
     0
 40
0.0
  0
LTYPE
  2
RAND1
 70
    64
  3
ランダム線1
 72
    65
 73
     4
 40
10.0
 49
1.0
 49
-2.0
 49
3.0
 49
-4.0
  0
LTYPE
  2
RAND2
 70
    64
  3
ランダム線2
 72
    65
 73
     4
 40
14.0
 49
2.0
 49
-3.0
 49
4.0
 49
-5.0
  0
LTYPE
  2
RAND3
 70
    64
  3
ランダム線3
 72
    65
 73
     4
 40
18.0
 49
3.0
 49
-4.0
 49
5.0
 49
-6.0
  0
LTYPE
  2
RAND4
 70
    64
  3
ランダム線4
 72
    65
 73
     4
 40
22.0
 49
4.0
 49
-5.0
 49
6.0
 49
-7.0
  0
LTYPE
  2
RAND5
 70
    64
  3
ランダム線5
 72
    65
 73
     4
 40
26.0
 49
5.0
 49
-6.0
 49
7.0
 49
-8.0
  0
LTYPE
  2
LONG1
 70
    64
  3
----------  --  ----------  --  
 72
    65
 73
     4
 40
40.0
 49
32.5
 49
-2.5
 49
2.5
 49
-2.5
  0
LTYPE
  2
LONG2
 70
    64
  3
--------  -  -  --------  -  -  
 72
    65
 73
     6
 40
40.0
 49
30.0
 49
-2.5
 49
1.25
 49
-2.5
 49
1.25
 49
-2.5
  0
LTYPE
  2
LONG3
 70
    64
  3
+++++++++++++++..+++++++++++++++
 72
    65
 73
     2
 40
40.0
 49
37.5
 49
-2.5
  0
LTYPE
  2
LONG4
 70
    64
  3
+++++++++++++++..+++++++++++++++
 72
    65
 73
     2
 40
80.0
 49
75.0
 49
-5.0
  0
LTYPE
  2
LONG5
 70
    64
  3
----------  --  ----------  --  
 72
    65
 73
     4
 40
60.0
 49
37.5
 49
-7.5
 49
7.5
 49
-7.5
  0
LTYPE
  2
dashed
 70
   64
  3
-------   -------------   ------
 72
   65
 73
    2
 40
7.5
 49
6
 49
-1.5
  0
LTYPE
  2
dashed_spaced
 70
   64
  3
----        --------        ----
 72
   65
 73
    2
 40
12
 49
6
 49
-6
  0
LTYPE
  2
long_dashed_dotted
 70
   64
  3
------------- --- --------------
 72
   65
 73
    4
 40
15.25
 49
12
 49
-1.5
 49
0.25
 49
-1.5
  0
LTYPE
  2
long_dashed_double-dotted
 70
   64
  3
----------- --- --- ------------
 72
   65
 73
    6
 40
17
 49
12
 49
-1.5
 49
0.25
 49
-1.5
 49
0.25
 49
-1.5
  0
LTYPE
  2
long_dashed_triplicate-dotted
 70
   64
  3
--------- --- --- --- ----------
 72
   65
 73
    8
 40
18.75
 49
12
 49
-1.5
 49
0.25
 49
-1.5
 49
0.25
 49
-1.5
 49
0.25
 49
-1.5
  0
LTYPE
  2
dotted
 70
   64
  3
   -       -       -       -    
 72
   65
 73
    2
 40
1.75
 49
0.25
 49
-1.5
  0
LTYPE
  2
chain
 70
   64
  3
-------------- -- --------------
 72
   65
 73
    4
 40
18.5
 49
12
 49
-1.5
 49
3.5
 49
-1.5
  0
LTYPE
  2
chain_double_dash
 70
   64
  3
------------ -- -- -------------
 72
   65
 73
    6
 40
23.5
 49
12
 49
-1.5
 49
3.5
 49
-1.5
 49
3.5
 49
-1.5
  0
LTYPE
  2
dashed_dotted
 70
   64
  3
-----------     -     ----------
 72
   65
 73
    4
 40
9.25
 49
6
 49
-1.5
 49
0.25
 49
-1.5
  0
LTYPE
  2
double-dashed_dotted
 70
   64
  3
------   -----------   -   -----
 72
   65
 73
    6
 40
16.75
 49
6
 49
-1.5
 49
6
 49
-1.5
 49
0.25
 49
-1.5
  0
LTYPE
  2
dashed_double-dotted
 70
   64
  3
---------    -    -    ---------
 72
   65
 73
    6
 40
11
 49
6
 49
-1.5
 49
0.25
 49
-1.5
 49
0.25
 49
-1.5
  0
LTYPE
  2
double-dashed_double-dotted
 70
   64
  3
-----   ---------   -   -   ----
 72
   65
 73
    8
 40
18.5
 49
6
 49
-1.5
 49
6
 49
-1.5
 49
0.25
 49
-1.5
 49
0.25
 49
-1.5
  0
LTYPE
  2
dashed_triplicate-dotted
 70
   64
  3
-------    -    -    -    ------
 72
   65
 73
    8
 40
12.75
 49
6
 49
-1.5
 49
0.25
 49
-1.5
 49
0.25
 49
-1.5
 49
0.25
 49
-1.5
  0
LTYPE
  2
double-dashed_triplicate-dotted
 70
   64
  3
-----  ---------  -  -  -  -----
 72
   65
 73
   10
 40
20.25
 49
6
 49
-1.5
 49
6
 49
-1.5
 49
0.25
 49
-1.5
 49
0.25
 49
-1.5
 49
0.25
 49
-1.5
  0
LTYPE
  2
undefined
 70
   64
  3
--------------------------------
 72
   65
 73
    0
 40
0
  0
ENDTAB
  0
TABLE
  2
STYLE
  5
3
100
AcDbSymbolTable
 70
     1
  0
STYLE
  5
10
100
AcDbSymbolTableRecord
100
AcDbTextStyleTableRecord
  2
STANDARD
 70
     0
 40
0.0
 41
1.0
 50
0.0
 71
     0
 42
0.2
  3
txt
  4
bigfont.shx
  0
STYLE
  5
26
100
AcDbSymbolTableRecord
100
AcDbTextStyleTableRecord
  2
TATEGAKI
 70
    68
 40
0.0
 41
1.0
 50
0.0
 71
     0
 42
1.0
  3
txt
  4
bigfont.shx
  0
ENDTAB
  0
TABLE
  2
LAYER
 70
   10
  0
LAYER
  2
_0-0_
 70
   64
 62
    7
  6
CONTINUOUS
  0
LAYER
  2
_1-0_
 70
   64
 62
    7
  6
CONTINUOUS
  0
LAYER
  2
_1-1_
 70
   64
 62
    7
  6
CONTINUOUS
  0
LAYER
  2
_1-2_
 70
   64
 62
    7
  6
CONTINUOUS
  0
LAYER
  2
_1-3_
 70
   64
 62
    7
  6
CONTINUOUS
  0
LAYER
  2
_1-4_
 70
   64
 62
    7
  6
CONTINUOUS
  0
LAYER
  2
_1-5_
 70
   64
 62
    7
  6
CONTINUOUS
  0
LAYER
  2
_1-b_
 70
   64
 62
    7
  6
CONTINUOUS
  0
LAYER
  2
_1-c_
 70
   64
 62
    7
  6
CONTINUOUS
  0
LAYER
  2
ADD_LINE
 70
   64
 62
    7
  6
CONTINUOUS
  0
ENDTAB
  0
ENDSEC
  0
SECTION
  2
BLOCKS
  0
ENDSEC
  0
SECTION
  2
ENTITIES
  0
LINE
  8
_1-2_
  6
CONTINUOUS
 62
    7
 10
183.80032925992398
 20
211.67573671083193
 11
163.65256644584039
 21
243.3673838022593
  0
LINE
  8
_0-0_
  6
CONTINUOUS
 62
    5
 10
6.7567526327597136
 20
280.13513513513516
 11
406.75677325274495
 21
280.13513513513516
  0
LINE
  8
_0-0_
  6
CONTINUOUS
 62
    5
 10
406.75677325274495
 20
10.13513513513513
 11
6.7567526327597136
 21
10.13513513513513
  0
LINE
  8
_0-0_
  6
CONTINUOUS
 62
    5
 10
371.75678150073907
 20
10.13513513513513
 11
371.75678150073907
 21
30.135133073136615
  0
LINE
  8
_0-0_
  6
CONTINUOUS
 62
    5
 10
137.02703939901818
 20
30.135133073136615
 11
137.02703939901818
 21
10.13513513513513
  0
LINE
  8
_0-0_
  6
CONTINUOUS
 62
    5
 10
214.86486486486487
 20
30.135133073136615
 11
214.86486486486487
 21
10.13513513513513
  0
LINE
  8
_0-0_
  6
CONTINUOUS
 62
    5
 10
137.02703939901818
 20
20.135134104135886
 11
214.86486486486487
 21
20.135134104135886
  0
LINE
  8
_0-0_
  6
CONTINUOUS
 62
    5
 10
396.48648648648651
 20
25.945945945945951
 11
383.91891891891896
 21
13.378379924877265
  0
LINE
  8
_1-1_
  6
CONTINUOUS
 62
    7
 10
40.483542777396536
 20
109.3699852195946
 11
44.860765611803203
 21
111.33974229967272
  0
LINE
  8
_1-1_
  6
CONTINUOUS
 62
    7
 10
44.860765611803203
 20
111.33974229967272
 11
46.091865333350938
 21
108.60397338867187
  0
LINE
  8
_1-1_
  6
CONTINUOUS
 62
    7
 10
46.091865333350938
 20
108.60397338867187
 11
41.714642498944272
 21
106.63421630859375
  0
LINE
  8
_1-1_
  6
CONTINUOUS
 62
    7
 10
84.574956120671459
 20
125.9213586755701
 11
83.343844027132604
 21
128.65712758657097
  0
LINE
  8
_1-1_
  6
CONTINUOUS
 62
    7
 10
83.343844027132604
 20
128.65712758657097
 11
87.721079233530403
 21
130.62688466664909
  0
LINE
  8
_1-1_
  6
CONTINUOUS
 62
    7
 10
87.721079233530403
 20
130.62688466664909
 11
88.952166583086992
 21
127.89111575564823
  0
LINE
  8
_1-1_
  6
CONTINUOUS
 62
    7
 10
88.952166583086992
 20
127.89111575564823
 11
84.574956120671459
 21
125.9213586755701
  0
LINE
  8
_1-1_
  6
CONTINUOUS
 62
    7
 10
127.43526974239866
 20
145.20850104254646
 11
126.20415764885981
 21
147.94426995354732
  0
LINE
  8
_1-1_
  6
CONTINUOUS
 62
    7
 10
126.20415764885981
 20
147.94426995354732
 11
130.5813928552576
 21
149.91402703362544
  0
LINE
  8
_1-1_
  6
CONTINUOUS
 62
    7
 10
130.5813928552576
 20
149.91402703362544
 11
131.81248020481419
 21
147.17825812262458
  0
LINE
  8
_1-1_
  6
CONTINUOUS
 62
    7
 10
131.81248020481419
 20
147.17825812262458
 11
127.43526974239866
 21
145.20850104254646
  0
LINE
  8
_1-1_
  6
CONTINUOUS
 62
    7
 10
170.29558336412586
 20
164.49566815350508
 11
169.06447127058701
 21
167.23141232052365
  0
LINE
  8
_1-1_
  6
CONTINUOUS
 62
    7
 10
169.06447127058701
 20
167.23141232052365
 11
173.44170647698482
 21
169.20118177259292
  0
LINE
  8
_1-1_
  6
CONTINUOUS
 62
    7
 10
174.67279382654141
 20
166.46541286159206
 11
170.29558336412586
 21
164.49566815350508
  0
LINE
  8
_1-1_
  6
CONTINUOUS
 62
    7
 10
169.06447127058701
 20
167.23141232052365
 11
174.67281857052365
 21
166.46538811760982
  0
LINE
  8
_1-1_
  6
CONTINUOUS
 62
    7
 10
126.20415764885981
 20
147.94426995354732
 11
131.81248020481419
 21
147.17825812262458
  0
LINE
  8
_1-1_
  6
CONTINUOUS
 62
    7
 10
83.343844027132604
 20
128.65712758657097
 11
88.952166583086992
 21
127.89111575564823
  0
LINE
  8
_1-b_
  6
CONTINUOUS
 62
    3
 10
45.729452597128386
 20
109.557260049356
 11
47.418662406302786
 21
110.1790020916913
  0
LINE
  8
_1-1_
  6
CONTINUOUS
 62
    7
 10
40.483555149387655
 20
109.36999759158573
 11
44.86077798379435
 21
111.33975467166385
  0
LINE
  8
_1-1_
  6
CONTINUOUS
 62
    7
 10
84.574956120671459
 20
125.9213586755701
 11
83.34386877111487
 21
128.65712758657097
  0
LINE
  8
_1-1_
  6
CONTINUOUS
 62
    7
 10
83.34386877111487
 20
128.65712758657097
 11
87.721079233530403
 21
130.62688466664909
  0
LINE
  8
_1-1_
  6
CONTINUOUS
 62
    7
 10
87.721079233530403
 20
130.62688466664909
 11
88.952191327069258
 21
127.89111575564823
  0
LINE
  8
_1-1_
  6
CONTINUOUS
 62
    7
 10
88.952191327069258
 20
127.89111575564823
 11
84.574956120671459
 21
125.9213586755701
  0
LINE
  8
_1-1_
  6
CONTINUOUS
 62
    7
 10
83.34386877111487
 20
128.65712758657097
 11
88.952191327069258
 21
127.89111575564823
  0
LINE
  8
_1-b_
  6
CONTINUOUS
 62
    3
 10
88.589766218855573
 20
128.84440241633234
 11
90.278963656038854
 21
129.46614445866766
  0
LINE
  8
_1-b_
  6
CONTINUOUS
 62
    3
 10
32.921076594172291
 20
113.46918466928844
 11
87.119454048775339
 21
133.4180429819468
  0
LINE
  8
_1-1_
  6
CONTINUOUS
 62
    7
 10
83.34386877111487
 20
128.65713995856208
 11
87.721079233530403
 21
130.62689703864021
  0
LINE
  8
_1-1_
  6
CONTINUOUS
 62
    7
 10
127.43526974239866
 20
145.20850104254646
 11
126.20415764885981
 21
147.94426995354732
  0
LINE
  8
_1-1_
  6
CONTINUOUS
 62
    7
 10
126.20415764885981
 20
147.94426995354732
 11
130.5813928552576
 21
149.91402703362544
  0
LINE
  8
_1-1_
  6
CONTINUOUS
 62
    7
 10
130.5813928552576
 20
149.91402703362544
 11
131.81248020481419
 21
147.17825812262458
  0
LINE
  8
_1-1_
  6
CONTINUOUS
 62
    7
 10
131.81248020481419
 20
147.17825812262458
 11
127.43526974239866
 21
145.20850104254646
  0
LINE
  8
_1-1_
  6
CONTINUOUS
 62
    7
 10
126.20415764885981
 20
147.94426995354732
 11
131.81248020481419
 21
147.17825812262458
  0
LINE
  8
_1-b_
  6
CONTINUOUS
 62
    3
 10
75.065101417335313
 20
129.50903815192146
 11
130.75922785578547
 21
150.00843769795188
  0
LINE
  8
_1-b_
  6
CONTINUOUS
 62
    3
 10
131.45007984058279
 20
148.1315447833087
 11
133.13930202174831
 21
148.75328682564401
  0
LINE
  8
_1-b_
  6
CONTINUOUS
 62
    3
 10
130.75922785578547
 20
150.00843769795188
 11
131.45007984058279
 21
148.1315447833087
  0
LINE
  8
_1-b_
  6
CONTINUOUS
 62
    3
 10
75.781390215899478
 20
132.75632703626479
 11
129.97976767050255
 21
152.70518534892315
  0
LINE
  8
_1-b_
  6
CONTINUOUS
 62
    3
 10
74.832532728040547
 20
130.70213111671242
 11
75.249864732896981
 21
129.56828761745143
  0
LINE
  8
_1-1_
  6
CONTINUOUS
 62
    7
 10
126.20415764885981
 20
147.94426995354732
 11
130.5813928552576
 21
149.91402703362544
  0
LINE
  8
_1-1_
  6
CONTINUOUS
 62
    7
 10
130.5813928552576
 20
149.91402703362544
 11
131.81248020481419
 21
147.17825812262458
  0
LINE
  8
_1-1_
  6
CONTINUOUS
 62
    7
 10
170.29558336412586
 20
164.49564340952281
 11
169.06447127058701
 21
167.23141232052365
  0
LINE
  8
_1-1_
  6
CONTINUOUS
 62
    7
 10
169.06447127058701
 20
167.23141232052365
 11
173.44170647698482
 21
169.20118177259292
  0
LINE
  8
_1-1_
  6
CONTINUOUS
 62
    7
 10
173.44170647698482
 20
169.20118177259292
 11
174.67279382654141
 21
166.46538811760982
  0
LINE
  8
_1-1_
  6
CONTINUOUS
 62
    7
 10
174.67279382654141
 20
166.46538811760982
 11
170.29558336412586
 21
164.49564340952281
  0
LINE
  8
_1-1_
  6
CONTINUOUS
 62
    7
 10
169.06447127058701
 20
167.23141232052365
 11
174.67279382654141
 21
166.46538811760982
  0
LINE
  8
_1-1_
  6
CONTINUOUS
 62
    7
 10
126.20415764885981
 20
147.94426995354732
 11
131.81248020481419
 21
147.17825812262458
  0
LINE
  8
_1-1_
  6
CONTINUOUS
 62
    7
 10
126.20418239284207
 20
147.94426995354732
 11
130.5813928552576
 21
149.91402703362544
  0
LINE
  8
_1-1_
  6
CONTINUOUS
 62
    7
 10
130.5813928552576
 20
149.91402703362544
 11
131.81250494879646
 21
147.17825812262458
  0
LINE
  8
_1-1_
  6
CONTINUOUS
 62
    7
 10
126.20418239284207
 20
147.94426995354732
 11
131.81250494879646
 21
147.17825812262458
  0
LINE
  8
_1-b_
  6
CONTINUOUS
 62
    3
 10
131.45007984058279
 20
148.1315447833087
 11
133.13927727776604
 21
148.75328682564401
  0
LINE
  8
_1-b_
  6
CONTINUOUS
 62
    3
 10
130.75925259976773
 20
150.00843769795188
 11
131.45007984058279
 21
148.1315447833087
  0
LINE
  8
_1-1_
  6
CONTINUOUS
 62
    7
 10
126.20418239284207
 20
147.94428232553844
 11
130.5813928552576
 21
149.91403940561656
  0
LINE
  8
_1-1_
  6
CONTINUOUS
 62
    7
 10
170.29558336412586
 20
164.49564340952281
 11
169.06447127058701
 21
167.23141232052365
  0
LINE
  8
_1-1_
  6
CONTINUOUS
 62
    7
 10
169.06447127058701
 20
167.23141232052365
 11
173.44170647698482
 21
169.20118177259292
  0
LINE
  8
_1-1_
  6
CONTINUOUS
 62
    7
 10
173.44170647698482
 20
169.20118177259292
 11
174.67279382654141
 21
166.46538811760982
  0
LINE
  8
_1-1_
  6
CONTINUOUS
 62
    7
 10
174.67279382654141
 20
166.46538811760982
 11
170.29558336412586
 21
164.49564340952281
  0
LINE
  8
_1-1_
  6
CONTINUOUS
 62
    7
 10
169.06447127058701
 20
167.23141232052365
 11
174.67279382654141
 21
166.46538811760982
  0
LINE
  8
_1-b_
  6
CONTINUOUS
 62
    3
 10
118.64170383762669
 20
152.04346940324115
 11
172.84008129222974
 21
171.99232771589951
  0
LINE
  8
_1-b_
  6
CONTINUOUS
 62
    3
 10
117.69284634976775
 20
149.98927348368878
 11
118.11017835462417
 21
148.85542998442779
  0
LINE
  8
_1-b_
  6
CONTINUOUS
 62
    3
 10
174.30368784311656
 20
167.43357065561656
 11
175.99291002428211
 21
168.05528795396961
  0
LINE
  8
_1-b_
  6
CONTINUOUS
 62
    3
 10
174.30368784311656
 20
167.43357065561656
 11
175.99288528029984
 21
168.05528795396961
  0
LINE
  8
_1-b_
  6
CONTINUOUS
 62
    3
 10
172.66224629170188
 20
172.47208878800677
 11
172.83337567303633
 21
172.00719884923987
  0
LINE
  8
_1-b_
  6
CONTINUOUS
 62
    3
 10
172.66227103568414
 20
172.47206404402451
 11
172.83337567303633
 21
172.00719884923987
  0
LINE
  8
_1-b_
  6
CONTINUOUS
 62
    3
 10
174.16378536739865
 20
173.02474563186234
 11
175.99291002428211
 21
168.05528795396961
  0
LINE
  8
_1-b_
  6
CONTINUOUS
 62
    3
 10
129.80866303315034
 20
153.17005054370779
 11
129.97976767050255
 21
152.70518534892315
  0
LINE
  8
_1-b_
  6
CONTINUOUS
 62
    3
 10
131.3101526208826
 20
153.72273213154563
 11
133.13927727776604
 21
148.75328682564401
  0
LINE
  8
_1-b_
  6
CONTINUOUS
 62
    3
 10
129.80866303315034
 20
153.17005054370779
 11
129.97976767050255
 21
152.70518534892315
  0
LINE
  8
_1-b_
  6
CONTINUOUS
 62
    3
 10
131.31017736486487
 20
153.72273213154563
 11
133.13930202174831
 21
148.75328682564401
  0
LINE
  8
_1-b_
  6
CONTINUOUS
 62
    3
 10
86.948349411423152
 20
133.88292054872255
 11
87.119454048775339
 21
133.4180429819468
  0
LINE
  8
_1-b_
  6
CONTINUOUS
 62
    3
 10
88.449838999155403
 20
134.43557739257812
 11
90.278963656038854
 21
129.46614445866766
  0
LINE
  8
_1-b_
  6
CONTINUOUS
 62
    3
 10
44.088023417704818
 20
114.59577818174621
 11
44.259140427048152
 21
114.13090061497044
  0
LINE
  8
_1-b_
  6
CONTINUOUS
 62
    3
 10
45.589550121410468
 20
115.14843502560178
 11
47.418662406302786
 21
110.1790020916913
  0
LINE
  8
_1-c_
  6
CONTINUOUS
 62
    7
 10
72.345539814717085
 20
137.4589827254012
 11
74.832532728040547
 21
130.70214348870354
  0
LINE
  8
_1-c_
  6
CONTINUOUS
 62
    7
 10
115.20585343644426
 20
156.74610034839529
 11
117.69284634976775
 21
149.98927348368878
  0
LINE
  8
_1-c_
  6
CONTINUOUS
 62
    7
 10
116.15468618032095
 20
158.80029626794763
 11
158.65069415118245
 21
174.44185824007602
  0
LINE
  8
_1-c_
  6
CONTINUOUS
 62
    7
 10
73.294384930584897
 20
139.51316627296242
 11
115.79144452069258
 21
155.15511177681589
  0
LINE
  8
_1-4_
  6
CONTINUOUS
 62
    7
 10
106.21621621621622
 20
149.18918918918919
 11
91.144483411634297
 21
175.29417708113388
  0
LINE
  8
_1-4_
  6
CONTINUOUS
 62
    7
 10
91.144483411634297
 20
175.29417708113388
 11
83.513513513513516
 21
175.29417708113388
  0
LINE
  8
_1-b_
  6
CONTINUOUS
 62
    3
 10
33.243243243243228
 20
107.0926233240076
 11
45.038612984322214
 21
111.43415296399917
  0
LINE
  8
_1-b_
  6
CONTINUOUS
 62
    3
 10
33.243243243243228
 20
110.0762650773332
 11
44.259140427048152
 21
114.13090061497044
  0
LINE
  8
_1-b_
  6
CONTINUOUS
 62
    3
 10
33.243243243243228
 20
110.6041160789696
 11
87.898938978040547
 21
130.72129533097552
  0
LINE
  8
_1-c_
  6
CONTINUOUS
 62
    7
 10
33.243243243243228
 20
121.26000069283151
 11
72.931143270956511
 21
135.86796940983953
  0
LINE
  8
_1-1_
  6
DASHED1
 62
    3
 10
33.243243243243228
 20
101.9448233939506
 11
181.99290507548565
 21
168.88218235325169
  0
LINE
  8
_1-1_
  6
CONTINUOUS
 62
    3
 10
172.42555772936024
 20
173.11846346468539
 11
173.92709680505703
 21
173.67113268053211
  0
LINE
  8
_1-b_
  6
CONTINUOUS
 62
    3
 10
172.42555772936024
 20
173.11846346468539
 11
172.84008129222974
 21
171.99232771589951
  0
LINE
  8
_1-1_
  6
CONTINUOUS
 62
    7
 10
158.65069415118245
 20
174.44185824007602
 11
171.41234114363388
 21
179.13905788112331
  0
LINE
  8
_1-1_
  6
CONTINUOUS
 62
    7
 10
174.16378536739865
 20
173.02474563186234
 11
171.41234114363388
 21
179.13905788112331
  0
LINE
  8
_1-1_
  6
CONTINUOUS
 62
    7
 10
172.42555772936024
 20
173.11846346468539
 11
169.95728363861909
 21
178.60349912901182
  0
LINE
  8
_1-1_
  6
CONTINUOUS
 62
    7
 10
323.50227974556589
 20
109.3699852195946
 11
319.12504453916807
 21
111.33974229967272
  0
LINE
  8
_1-1_
  6
CONTINUOUS
 62
    7
 10
319.12504453916807
 20
111.33974229967272
 11
317.89395718961151
 21
108.60397338867187
  0
LINE
  8
_1-1_
  6
CONTINUOUS
 62
    7
 10
317.89395718961151
 20
108.60397338867187
 11
322.27116765202703
 21
106.63421630859375
  0
LINE
  8
_1-1_
  6
CONTINUOUS
 62
    7
 10
279.41085403029984
 20
125.9213586755701
 11
280.6419661238387
 21
128.65712758657097
  0
LINE
  8
_1-1_
  6
CONTINUOUS
 62
    7
 10
280.6419661238387
 20
128.65712758657097
 11
276.26473091744089
 21
130.62688466664909
  0
LINE
  8
_1-1_
  6
CONTINUOUS
 62
    7
 10
276.26473091744089
 20
130.62688466664909
 11
275.03364356788433
 21
127.89111575564823
  0
LINE
  8
_1-1_
  6
CONTINUOUS
 62
    7
 10
275.03364356788433
 20
127.89111575564823
 11
279.41085403029984
 21
125.9213586755701
  0
LINE
  8
_1-1_
  6
CONTINUOUS
 62
    7
 10
236.55054040857266
 20
145.20850104254646
 11
237.78165250211151
 21
147.94426995354732
  0
LINE
  8
_1-1_
  6
CONTINUOUS
 62
    7
 10
237.78165250211151
 20
147.94426995354732
 11
233.4044172957137
 21
149.91402703362544
  0
LINE
  8
_1-1_
  6
CONTINUOUS
 62
    7
 10
233.4044172957137
 20
149.91402703362544
 11
232.17332994615711
 21
147.17825812262458
  0
LINE
  8
_1-1_
  6
CONTINUOUS
 62
    7
 10
232.17332994615711
 20
147.17825812262458
 11
236.55054040857266
 21
145.20850104254646
  0
LINE
  8
_1-1_
  6
CONTINUOUS
 62
    7
 10
193.69022678684544
 20
164.49566815350508
 11
194.9213388803843
 21
167.23141232052365
  0
LINE
  8
_1-1_
  6
CONTINUOUS
 62
    7
 10
194.9213388803843
 20
167.23141232052365
 11
190.54410367398648
 21
169.20118177259292
  0
LINE
  8
_1-1_
  6
CONTINUOUS
 62
    7
 10
190.54410367398648
 20
169.20118177259292
 11
189.3130163244299
 21
166.46541286159206
  0
LINE
  8
_1-1_
  6
CONTINUOUS
 62
    7
 10
189.3130163244299
 20
166.46541286159206
 11
193.69022678684544
 21
164.49566815350508
  0
LINE
  8
_1-1_
  6
CONTINUOUS
 62
    7
 10
194.9213388803843
 20
167.23141232052365
 11
189.31299158044766
 21
166.46538811760982
  0
LINE
  8
_1-1_
  6
CONTINUOUS
 62
    7
 10
237.78165250211151
 20
147.94426995354732
 11
232.17332994615711
 21
147.17825812262458
  0
LINE
  8
_1-1_
  6
CONTINUOUS
 62
    7
 10
280.6419661238387
 20
128.65712758657097
 11
275.03364356788433
 21
127.89111575564823
  0
LINE
  8
_1-b_
  6
CONTINUOUS
 62
    3
 10
318.25635755384292
 20
109.557260049356
 11
316.5671353726774
 21
110.1790020916913
  0
LINE
  8
_1-b_
  6
CONTINUOUS
 62
    3
 10
318.94720953864021
 20
111.43415296399917
 11
318.25635755384292
 21
109.557260049356
  0
LINE
  8
_1-1_
  6
CONTINUOUS
 62
    7
 10
323.50225500158365
 20
109.36999759158573
 11
319.12501979518584
 21
111.33975467166385
  0
LINE
  8
_1-1_
  6
CONTINUOUS
 62
    7
 10
279.41085403029984
 20
125.9213586755701
 11
280.64194137985646
 21
128.65712758657097
  0
LINE
  8
_1-1_
  6
CONTINUOUS
 62
    7
 10
280.64194137985646
 20
128.65712758657097
 11
276.26473091744089
 21
130.62688466664909
  0
LINE
  8
_1-1_
  6
CONTINUOUS
 62
    7
 10
276.26473091744089
 20
130.62688466664909
 11
275.03361882390203
 21
127.89111575564823
  0
LINE
  8
_1-1_
  6
CONTINUOUS
 62
    7
 10
275.03361882390203
 20
127.89111575564823
 11
279.41085403029984
 21
125.9213586755701
  0
LINE
  8
_1-1_
  6
CONTINUOUS
 62
    7
 10
280.64194137985646
 20
128.65712758657097
 11
275.03361882390203
 21
127.89111575564823
  0
LINE
  8
_1-b_
  6
CONTINUOUS
 62
    3
 10
275.39604393211573
 20
128.84440241633234
 11
273.70684649493245
 21
129.46614445866766
  0
LINE
  8
_1-b_
  6
CONTINUOUS
 62
    3
 10
276.08687117293078
 20
130.72129533097552
 11
275.39604393211573
 21
128.84440241633234
  0
LINE
  8
_1-b_
  6
CONTINUOUS
 62
    3
 10
331.06473355679901
 20
113.46918466928844
 11
276.86635610219594
 21
133.4180429819468
  0
LINE
  8
_1-1_
  6
CONTINUOUS
 62
    7
 10
280.64194137985646
 20
128.65713995856208
 11
276.26473091744089
 21
130.62689703864021
  0
LINE
  8
_1-1_
  6
CONTINUOUS
 62
    7
 10
236.55054040857266
 20
145.20850104254646
 11
237.78165250211151
 21
147.94426995354732
  0
LINE
  8
_1-1_
  6
CONTINUOUS
 62
    7
 10
237.78165250211151
 20
147.94426995354732
 11
233.4044172957137
 21
149.91402703362544
  0
LINE
  8
_1-1_
  6
CONTINUOUS
 62
    7
 10
233.4044172957137
 20
149.91402703362544
 11
232.17332994615711
 21
147.17825812262458
  0
LINE
  8
_1-1_
  6
CONTINUOUS
 62
    7
 10
232.17332994615711
 20
147.17825812262458
 11
236.55054040857266
 21
145.20850104254646
  0
LINE
  8
_1-1_
  6
CONTINUOUS
 62
    7
 10
237.78165250211151
 20
147.94426995354732
 11
232.17332994615711
 21
147.17825812262458
  0
LINE
  8
_1-b_
  6
CONTINUOUS
 62
    3
 10
288.92070873363599
 20
129.50903815192146
 11
233.22658229518584
 21
150.00843769795188
  0
LINE
  8
_1-b_
  6
CONTINUOUS
 62
    3
 10
232.53573031038852
 20
148.1315447833087
 11
230.846508129223
 21
148.75328682564401
  0
LINE
  8
_1-b_
  6
CONTINUOUS
 62
    3
 10
233.22658229518584
 20
150.00843769795188
 11
232.53573031038852
 21
148.1315447833087
  0
LINE
  8
_1-b_
  6
CONTINUOUS
 62
    3
 10
288.20441993507183
 20
132.75632703626479
 11
234.00604248046875
 21
152.70518534892315
  0
LINE
  8
_1-b_
  6
CONTINUOUS
 62
    3
 10
289.15327742293078
 20
130.70213111671242
 11
288.73594541807432
 21
129.56828761745143
  0
LINE
  8
_1-1_
  6
CONTINUOUS
 62
    7
 10
237.78165250211151
 20
147.94426995354732
 11
233.4044172957137
 21
149.91402703362544
  0
LINE
  8
_1-1_
  6
CONTINUOUS
 62
    7
 10
233.4044172957137
 20
149.91402703362544
 11
232.17332994615711
 21
147.17825812262458
  0
LINE
  8
_1-1_
  6
CONTINUOUS
 62
    7
 10
193.69022678684544
 20
164.49564340952281
 11
194.9213388803843
 21
167.23141232052365
  0
LINE
  8
_1-1_
  6
CONTINUOUS
 62
    7
 10
194.9213388803843
 20
167.23141232052365
 11
190.54410367398648
 21
169.20118177259292
  0
LINE
  8
_1-1_
  6
CONTINUOUS
 62
    7
 10
190.54410367398648
 20
169.20118177259292
 11
189.3130163244299
 21
166.46538811760982
  0
LINE
  8
_1-1_
  6
CONTINUOUS
 62
    7
 10
189.3130163244299
 20
166.46538811760982
 11
193.69022678684544
 21
164.49564340952281
  0
LINE
  8
_1-1_
  6
CONTINUOUS
 62
    7
 10
194.9213388803843
 20
167.23141232052365
 11
189.3130163244299
 21
166.46538811760982
  0
LINE
  8
_1-1_
  6
CONTINUOUS
 62
    7
 10
237.78165250211151
 20
147.94426995354732
 11
232.17332994615711
 21
147.17825812262458
  0
LINE
  8
_1-1_
  6
CONTINUOUS
 62
    7
 10
237.78162775812925
 20
147.94426995354732
 11
233.4044172957137
 21
149.91402703362544
  0
LINE
  8
_1-1_
  6
CONTINUOUS
 62
    7
 10
233.4044172957137
 20
149.91402703362544
 11
232.17330520217484
 21
147.17825812262458
  0
LINE
  8
_1-1_
  6
CONTINUOUS
 62
    7
 10
237.78162775812925
 20
147.94426995354732
 11
232.17330520217484
 21
147.17825812262458
  0
LINE
  8
_1-b_
  6
CONTINUOUS
 62
    3
 10
232.53573031038852
 20
148.1315447833087
 11
230.84653287320526
 21
148.75328682564401
  0
LINE
  8
_1-1_
  6
CONTINUOUS
 62
    7
 10
237.78162775812925
 20
147.94428232553844
 11
233.4044172957137
 21
149.91403940561656
  0
LINE
  8
_1-1_
  6
CONTINUOUS
 62
    7
 10
193.69022678684544
 20
164.49564340952281
 11
194.9213388803843
 21
167.23141232052365
  0
LINE
  8
_1-1_
  6
CONTINUOUS
 62
    7
 10
194.9213388803843
 20
167.23141232052365
 11
190.54410367398648
 21
169.20118177259292
  0
LINE
  8
_1-1_
  6
CONTINUOUS
 62
    7
 10
190.54410367398648
 20
169.20118177259292
 11
189.3130163244299
 21
166.46538811760982
  0
LINE
  8
_1-1_
  6
CONTINUOUS
 62
    7
 10
189.3130163244299
 20
166.46538811760982
 11
193.69022678684544
 21
164.49564340952281
  0
LINE
  8
_1-1_
  6
CONTINUOUS
 62
    7
 10
194.9213388803843
 20
167.23141232052365
 11
189.3130163244299
 21
166.46538811760982
  0
LINE
  8
_1-b_
  6
CONTINUOUS
 62
    3
 10
245.34410631334461
 20
152.04346940324115
 11
191.14572885874156
 21
171.99232771589951
  0
LINE
  8
_1-b_
  6
CONTINUOUS
 62
    3
 10
246.29296380120357
 20
149.98927348368878
 11
245.87563179634714
 21
148.85542998442779
  0
LINE
  8
_1-b_
  6
CONTINUOUS
 62
    3
 10
189.68212230785474
 20
167.43357065561656
 11
187.99290012668919
 21
168.05528795396961
  0
LINE
  8
_1-b_
  6
CONTINUOUS
 62
    3
 10
189.68212230785474
 20
167.43357065561656
 11
187.99292487067146
 21
168.05528795396961
  0
LINE
  8
_1-b_
  6
CONTINUOUS
 62
    3
 10
191.32356385926943
 20
172.47208878800677
 11
191.15243447793497
 21
172.00719884923987
  0
LINE
  8
_1-b_
  6
CONTINUOUS
 62
    3
 10
191.32353911528716
 20
172.47206404402451
 11
191.15243447793497
 21
172.00719884923987
  0
LINE
  8
_1-b_
  6
CONTINUOUS
 62
    3
 10
189.8220495275549
 20
173.02474563186234
 11
187.99292487067146
 21
168.05528795396961
  0
LINE
  8
_1-b_
  6
CONTINUOUS
 62
    3
 10
234.17714711782097
 20
153.17005054370779
 11
234.00604248046875
 21
152.70518534892315
  0
LINE
  8
_1-b_
  6
CONTINUOUS
 62
    3
 10
232.6756575300887
 20
153.72273213154563
 11
230.84653287320526
 21
148.75328682564401
  0
LINE
  8
_1-b_
  6
CONTINUOUS
 62
    3
 10
234.17714711782097
 20
153.17005054370779
 11
234.00604248046875
 21
152.70518534892315
  0
LINE
  8
_1-b_
  6
CONTINUOUS
 62
    3
 10
232.67563278610643
 20
153.72273213154563
 11
230.846508129223
 21
148.75328682564401
  0
LINE
  8
_1-b_
  6
CONTINUOUS
 62
    3
 10
277.03746073954818
 20
133.88292054872255
 11
276.86635610219594
 21
133.4180429819468
  0
LINE
  8
_1-b_
  6
CONTINUOUS
 62
    3
 10
275.53597115181589
 20
134.43557739257812
 11
273.70684649493245
 21
129.46614445866766
  0
LINE
  8
_1-b_
  6
CONTINUOUS
 62
    3
 10
319.89777436127537
 20
114.59577818174621
 11
319.72666972392318
 21
114.13090061497044
  0
LINE
  8
_1-b_
  6
CONTINUOUS
 62
    3
 10
318.39626002956084
 20
115.14843502560178
 11
316.5671353726774
 21
110.1790020916913
  0
LINE
  8
_1-c_
  6
CONTINUOUS
 62
    7
 10
291.64027033625422
 20
137.4589827254012
 11
289.15327742293078
 21
130.70214348870354
  0
LINE
  8
_1-c_
  6
CONTINUOUS
 62
    7
 10
248.77995671452703
 20
156.74610034839529
 11
246.29296380120357
 21
149.98927348368878
  0
LINE
  8
_1-c_
  6
CONTINUOUS
 62
    7
 10
247.83112397065034
 20
158.80029626794763
 11
205.33511599978885
 21
174.44185824007602
  0
LINE
  8
_1-c_
  6
CONTINUOUS
 62
    7
 10
290.69141284839526
 20
139.51316627296242
 11
248.19436563027872
 21
155.15511177681589
  0
LINE
  8
_1-b_
  6
CONTINUOUS
 62
    3
 10
330.74256690772808
 20
107.0926233240076
 11
318.94720953864021
 21
111.43415296399917
  0
LINE
  8
_1-b_
  6
CONTINUOUS
 62
    3
 10
330.74256690772808
 20
110.0762650773332
 11
319.72666972392318
 21
114.13090061497044
  0
LINE
  8
_1-b_
  6
CONTINUOUS
 62
    3
 10
330.74256690772808
 20
110.6041160789696
 11
276.08687117293078
 21
130.72129533097552
  0
LINE
  8
_1-c_
  6
CONTINUOUS
 62
    7
 10
330.74256690772808
 20
121.26000069283151
 11
291.05465450802365
 21
135.86796940983953
  0
LINE
  8
_1-0_
  6
CONTINUOUS
 62
    7
 10
330.74256690772808
 20
101.06755024677999
 11
181.99290507548565
 21
168.00490920608109
  0
LINE
  8
_1-0_
  6
CONTINUOUS
 62
    7
 10
330.74256690772808
 20
102.82209654112121
 11
181.99290507548565
 21
169.75944312843117
  0
LINE
  8
_1-0_
  6
CONTINUOUS
 62
    7
 10
330.74256690772808
 20
102.16414168074324
 11
181.99290507548565
 21
169.10151301203547
  0
LINE
  8
_1-b_
  6
CONTINUOUS
 62
    3
 10
191.56025242161107
 20
173.11846346468539
 11
191.14572885874156
 21
171.99232771589951
  0
LINE
  8
_1-1_
  6
CONTINUOUS
 62
    7
 10
205.33511599978885
 20
174.44185824007602
 11
192.57346900733742
 21
179.13905788112331
  0
LINE
  8
_1-1_
  6
CONTINUOUS
 62
    7
 10
191.56025242161107
 20
173.11846346468539
 11
194.02852651235222
 21
178.60349912901182
  0
LINE
  8
_1-1_
  6
CONTINUOUS
 62
    7
 10
205.33511599978885
 20
174.44185824007602
 11
192.57346900733742
 21
179.13905788112331
  0
LINE
  8
_1-3_
  6
DASHED1
 62
    7
 10
180.99524008261193
 20
168.65257056983742
 11
181.43297350084461
 21
168.84954504064612
  0
LINE
  8
_1-3_
  6
CONTINUOUS
 62
    7
 10
229.29040857263516
 20
135.81551216744089
 11
260.70853568412161
 21
190.23324502480997
  0
LINE
  8
_1-3_
  6
CONTINUOUS
 62
    7
 10
260.70853568412161
 20
190.23324502480997
 11
266.45621634818411
 21
190.23324502480997
  0
LINE
  8
_1-3_
  6
CONTINUOUS
 62
    7
 10
199.78325921135982
 20
186.75024496542443
 11
209.48906151024073
 21
203.56118279534419
  0
LINE
  8
_1-3_
  6
CONTINUOUS
 62
    7
 10
209.48906151024073
 20
203.56118279534419
 11
201.22486836201438
 21
179.54221158414273
  0
LINE
  8
_1-3_
  6
CONTINUOUS
 62
    7
 10
209.48906151024073
 20
203.56118279534419
 11
213.81643759237755
 21
203.56118279534419
  0
LINE
  8
_1-0_
  6
CONTINUOUS
 62
    7
 10
33.243243243243228
 20
102.82209654112121
 11
181.99290507548565
 21
169.75944312843117
  0
LINE
  8
_1-0_
  6
CONTINUOUS
 62
    7
 10
33.243243243243228
 20
102.16414168074324
 11
181.99290507548565
 21
169.10151301203547
  0
LINE
  8
_1-0_
  6
CONTINUOUS
 62
    7
 10
33.243243243243228
 20
101.06755024677999
 11
181.99290507548565
 21
168.00490920608109
  0
LINE
  8
_1-0_
  6
DASHED1
 62
    7
 10
181.09290458060602
 20
167.59991207638302
 11
181.09290458060602
 21
148.1985143713049
  0
LINE
  8
_1-0_
  6
DASHED1
 62
    7
 10
182.89290557036529
 20
167.59991207638302
 11
182.89290557036529
 21
146.17194510794977
  0
LINE
  8
_1-2_
  6
CONTINUOUS
 62
    7
 10
166.65996242213893
 20
234.42025674355997
 11
162.16216216216216
 21
234.42025674355997
  0
LINE
  8
ADD_LINE
  6
DOT
 62
    7
 10
269.76676322318411
 20
157.12589573215794
 11
267.67557505014781
 21
157.12589573215794
  0
LINE
  8
_1-1_
  6
CONTINUOUS
 62
    7
 10
34.720554867306276
 20
97.78463621397276
 11
181.99290507548565
 21
164.05720478779563
  0
LINE
  8
_1-1_
  6
CONTINUOUS
 62
    7
 10
329.26525219066724
 20
97.78463621397276
 11
181.99290507548565
 21
164.05720478779563
  0
LINE
  8
_1-1_
  6
CONTINUOUS
 62
    7
 10
42.927849228317683
 20
79.546205675279779
 11
181.99290507548565
 21
142.1254874564506
  0
LINE
  8
_1-1_
  6
CONTINUOUS
 62
    7
 10
321.05794545766469
 20
79.546205675279779
 11
181.99290507548565
 21
142.1254874564506
  0
LINE
  8
_1-1_
  6
DASHED1
 62
    7
 10
181.09290458060602
 20
148.1985143713049
 11
181.09290458060602
 21
141.17358645877323
  0
LINE
  8
_1-1_
  6
DASHED1
 62
    7
 10
181.09290458060602
 20
141.17358645877323
 11
182.89290557036529
 21
141.17358645877323
  0
LINE
  8
_1-1_
  6
DASHED1
 62
    7
 10
182.89290557036529
 20
146.17194510794977
 11
182.89290557036529
 21
141.17358645877323
  0
LINE
  8
_1-1_
  6
CONTINUOUS
 62
    7
 10
42.927849228317683
 20
79.546205675279779
 11
33.243243243243228
 21
75.188134683145066
  0
LINE
  8
_1-1_
  6
CONTINUOUS
 62
    7
 10
321.05794545766469
 20
79.546205675279779
 11
330.74256690772808
 21
75.188128497149492
  0
LINE
  8
_1-1_
  6
DASHED1
 62
    7
 10
42.681631139806797
 20
80.093356983081719
 11
181.74669007997255
 21
142.67263876425255
  0
LINE
  8
_1-1_
  6
DASHED1
 62
    7
 10
321.30417282516896
 20
80.093356983081719
 11
182.23912007099875
 21
142.67263876425255
  0
LINE
  8
_1-1_
  6
DASHED2
 62
    7
 10
41.286389118916276
 20
83.193889308620143
 11
181.99290507548565
 21
146.51182844832138
  0
LINE
  8
_1-1_
  6
DASHED2
 62
    7
 10
322.69941175306167
 20
83.193889308620143
 11
181.99290507548565
 21
146.51182844832138
  0
LINE
  8
_1-1_
  6
DASHED2
 62
    7
 10
36.362014976707655
 20
94.136952580632396
 11
181.99291744747677
 21
159.67086379592484
  0
LINE
  8
_1-1_
  6
DASHED2
 62
    7
 10
327.62378589527032
 20
94.136952580632396
 11
181.99291744747677
 21
159.67086379592484
  0
LINE
  8
_1-1_
  6
DASHED1
 62
    7
 10
34.966772955817135
 20
97.23748490617082
 11
181.99291744747677
 21
163.39924992741766
  0
LINE
  8
_1-1_
  6
DASHED1
 62
    7
 10
329.01902482316302
 20
97.23748490617082
 11
181.99291744747677
 21
163.39924992741766
  0
LINE
  8
_1-1_
  6
CONTINUOUS
 62
    3
 10
171.99290919948268
 20
137.19585521801099
 11
191.99290095148862
 21
137.19585521801099
  0
LINE
  8
_1-1_
  6
CONTINUOUS
 62
    3
 10
191.99290095148862
 20
97.195853156012461
 11
171.99290919948268
 21
97.195853156012461
  0
LINE
  8
_1-1_
  6
CONTINUOUS
 62
    3
 10
171.99290919948268
 20
97.195853156012461
 11
171.99290919948268
 21
98.795854723131342
  0
LINE
  8
_1-1_
  6
CONTINUOUS
 62
    3
 10
171.99290919948268
 20
135.59585983688768
 11
171.99290919948268
 21
137.19585521801099
  0
LINE
  8
_1-1_
  6
CONTINUOUS
 62
    3
 10
191.99290095148862
 20
98.795854723131342
 11
191.99290095148862
 21
97.195853156012461
  0
LINE
  8
_1-1_
  6
CONTINUOUS
 62
    3
 10
180.3928973223712
 20
135.59585983688768
 11
171.99290919948268
 21
135.59585983688768
  0
LINE
  8
_1-1_
  6
CONTINUOUS
 62
    3
 10
183.59291282860011
 20
135.59585983688768
 11
191.99290095148862
 21
135.59585983688768
  0
LINE
  8
_1-1_
  6
CONTINUOUS
 62
    3
 10
182.59290952940245
 20
99.795851836333412
 11
182.59290952940245
 21
134.59585653769005
  0
LINE
  8
_1-1_
  6
CONTINUOUS
 62
    3
 10
183.59291282860011
 20
98.795854723131342
 11
191.99290095148862
 21
98.795854723131342
  0
LINE
  8
_1-1_
  6
CONTINUOUS
 62
    3
 10
180.3928973223712
 20
98.795854723131342
 11
171.99290919948268
 21
98.795854723131342
  0
LINE
  8
_1-1_
  6
CONTINUOUS
 62
    3
 10
181.39290062156886
 20
99.795851836333412
 11
181.39290062156886
 21
134.59585653769005
  0
LINE
  8
_1-1_
  6
CONTINUOUS
 62
    7
 10
266.45621634818411
 20
183.50465104386615
 11
256.82377995671453
 21
183.50465104386615
  0
LINE
  8
_1-1_
  6
CONTINUOUS
 62
    7
 10
266.45621634818411
 20
176.32005021378802
 11
252.67574825802367
 21
176.32005021378802
  0
LINE
  8
_1-1_
  6
CONTINUOUS
 62
    7
 10
266.45621634818411
 20
170.25306083060602
 11
249.17296538481844
 21
170.25306083060602
  0
LINE
  8
_1-1_
  6
CONTINUOUS
 62
    7
 10
266.45621634818411
 20
164.02641090186867
 11
245.57798643369935
 21
164.02641090186867
  0
LINE
  8
_1-1_
  6
CONTINUOUS
 62
    7
 10
266.45621634818411
 20
157.95940914669552
 11
242.07520356049409
 21
157.95940914669552
  0
LINE
  8
_1-1_
  6
CONTINUOUS
 62
    7
 10
40.483533498403176
 20
109.3699852195946
 11
41.714630126953125
 21
106.63421630859375
  0
LINE
  8
_1-1_
  6
CONTINUOUS
 62
    7
 10
40.483533498403176
 20
109.3699852195946
 11
46.091865333350938
 21
108.60397338867187
  0
LINE
  8
_1-b_
  6
CONTINUOUS
 62
    3
 10
45.038612984322214
 20
111.43415296399917
 11
45.729452597128386
 21
109.557260049356
  0
LINE
  8
_1-b_
  6
CONTINUOUS
 62
    3
 10
87.898938978040547
 20
130.72129533097552
 11
88.589766218855573
 21
128.84440241633234
  0
LINE
  8
_1-b_
  6
CONTINUOUS
 62
    3
 10
173.61847748627534
 20
169.29518416121201
 11
174.30368784311656
 21
167.43357065561656
  0
LINE
  8
_1-b_
  6
CONTINUOUS
 62
    3
 10
117.9254150390625
 20
148.79618051889781
 11
173.61847748627534
 21
169.29518416121201
  0
LINE
  8
_1-b_
  6
CONTINUOUS
 62
    3
 10
233.22655755120357
 20
150.00843769795188
 11
232.53573031038852
 21
148.1315447833087
  0
LINE
  8
_1-1_
  6
CONTINUOUS
 62
    7
 10
323.50225500158365
 20
109.36999759158573
 11
322.27116765202703
 21
106.63421630859375
  0
LINE
  8
_1-1_
  6
CONTINUOUS
 62
    7
 10
323.50227974556589
 20
109.3699852195946
 11
317.89395718961151
 21
108.60397338867187
  0
LINE
  8
_1-b_
  6
CONTINUOUS
 62
    3
 10
190.36735740867823
 20
169.29518416121201
 11
189.68212230785474
 21
167.43357065561656
  0
LINE
  8
_1-b_
  6
CONTINUOUS
 62
    3
 10
246.0603951119088
 20
148.79618051889781
 11
190.36735740867823
 21
169.29518416121201
  0
LINE
  8
_0-0_
  6
CONTINUOUS
 62
    5
 10
406.75677325274495
 20
30.135133073136615
 11
6.7567402607685949
 21
30.135133073136615
  0
LINE
  8
_1-1_
  6
CONTINUOUS
 62
    3
 10
191.99290095148862
 20
137.19585521801099
 11
191.99290095148862
 21
135.59585983688768
  0
LINE
  8
_1-1_
  6
DASHED1
 62
    3
 10
227.5889876082137
 20
148.36394026472763
 11
181.99290507548565
 21
168.88218235325169
  0
LINE
  8
_1-3_
  6
DASHED1
 62
    3
 10
227.42337613492401
 20
147.99983256572003
 11
330.04936424461573
 21
101.81812801876585
  0
LINE
  8
_1-3_
  6
CONTINUOUS
 62
    7
 10
149.96090450802365
 20
118.225472939981
 11
137.68264358108109
 21
145.51047660209039
  0
LINE
  8
_1-3_
  6
CONTINUOUS
 62
    7
 10
195.39137556746201
 20
138.66918615392737
 11
183.11311464051943
 21
165.95418981603675
  0
LINE
  8
_1-3_
  6
DASHED1
 62
    3
 10
136.56243401604729
 20
147.99983256572003
 11
181.99290507548565
 21
168.44354577966641
  0
LINE
  8
_1-3_
  6
DASHED1
 62
    3
 10
227.42483602987755
 20
147.99917685019005
 11
181.99290507548565
 21
168.44354577966641
  0
LINE
  8
_1-3_
  6
CONTINUOUS
 62
    7
 10
149.96090450802365
 20
118.225472939981
 11
195.39137556746201
 21
138.66918615392737
  0
LINE
  8
_1-3_
  6
CONTINUOUS
 62
    7
 10
168.33713428394216
 20
138.5360387853674
 11
180.58629628774284
 21
165.75638642182221
  0
LINE
  8
_1-3_
  6
CONTINUOUS
 62
    7
 10
213.93320444467906
 20
118.01780906883447
 11
226.18236644847974
 21
145.23815670528927
  0
LINE
  8
_1-3_
  6
CONTINUOUS
 62
    7
 10
168.33713428394216
 20
138.5360387853674
 11
213.93320444467906
 21
118.01780906883447
  0
LINE
  8
ADD_LINE
  6
DOT
 62
    4
 10
181.99290507548565
 20
174.5936749432538
 11
181.99290507548565
 21
233.6278059675887
  0
LINE
  8
_1-2_
  6
CONTINUOUS
 62
    3
 10
160.02200564822635
 20
203.96437361433701
 11
160.49264856286953
 21
198.58492052232899
  0
LINE
  8
_1-2_
  6
CONTINUOUS
 62
    3
 10
180.13022757865289
 20
209.33738089896539
 11
180.44399364574537
 21
205.75106234163852
  0
LINE
  8
_1-2_
  6
CONTINUOUS
 62
    3
 10
159.08940495671453
 20
197.84938090556378
 11
159.56004787135768
 21
192.46991544156461
  0
LINE
  8
_1-2_
  6
CONTINUOUS
 62
    3
 10
179.19762688714107
 20
203.22237581820102
 11
179.51139295423354
 21
199.63606963286529
  0
LINE
  8
_1-2_
  6
CONTINUOUS
 62
    3
 10
166.99290507548565
 20
207.11517333984375
 11
170.14385326488599
 21
207.71519016575169
  0
LINE
  8
_1-2_
  6
CONTINUOUS
 62
    3
 10
193.84195688608531
 20
207.71519016575169
 11
196.99290507548565
 21
207.11517333984375
  0
LINE
  8
_1-2_
  6
CONTINUOUS
 62
    3
 10
158.08538076039909
 20
191.71580546611065
 11
158.55602367504224
 21
186.33634000211148
  0
LINE
  8
_1-2_
  6
CONTINUOUS
 62
    3
 10
178.1936026908256
 20
197.08880037874789
 11
178.50736875791807
 21
193.50249419341216
  0
LINE
  8
_1-2_
  6
CONTINUOUS
 62
    3
 10
153.95921037003802
 20
184.21221758868245
 11
154.42985328468117
 21
178.83275212468328
  0
LINE
  8
_1-2_
  6
CONTINUOUS
 62
    3
 10
174.06743230046453
 20
189.58521250131969
 11
174.38119836755703
 21
185.99890631598396
  0
LINE
  8
_1-2_
  6
CONTINUOUS
 62
    3
 10
149.37647639094172
 20
176.62207526129646
 11
149.8471193055849
 21
171.24260979729732
  0
LINE
  8
_1-2_
  6
CONTINUOUS
 62
    3
 10
169.48469832136826
 20
181.9950701739337
 11
169.79846438846073
 21
178.408763988598
  0
LINE
  8
_1-2_
  6
CONTINUOUS
 62
    3
 10
203.96380450274495
 20
203.96437361433701
 11
203.4931615881018
 21
198.58492052232899
  0
LINE
  8
_1-2_
  6
CONTINUOUS
 62
    3
 10
183.85558257231841
 20
209.33738089896539
 11
183.54181650522594
 21
205.75106234163852
  0
LINE
  8
_1-2_
  6
CONTINUOUS
 62
    3
 10
204.89640519425677
 20
197.84938090556378
 11
204.42576227961362
 21
192.46991544156461
  0
LINE
  8
_1-2_
  6
CONTINUOUS
 62
    3
 10
184.78818326383023
 20
203.22237581820102
 11
184.47441719673776
 21
199.63606963286529
  0
LINE
  8
_1-2_
  6
CONTINUOUS
 62
    3
 10
196.99290507548565
 20
207.11517333984375
 11
193.84195688608531
 21
207.71519016575169
  0
LINE
  8
_1-2_
  6
CONTINUOUS
 62
    3
 10
205.90042939057221
 20
191.71580546611065
 11
205.42978647592906
 21
186.33634000211148
  0
LINE
  8
_1-2_
  6
CONTINUOUS
 62
    3
 10
185.7922074601457
 20
197.08880037874789
 11
185.47844139305323
 21
193.50249419341216
  0
LINE
  8
_1-2_
  6
CONTINUOUS
 62
    3
 10
210.02659978093328
 20
184.21221758868245
 11
209.55596923828125
 21
178.83275212468328
  0
LINE
  8
_1-2_
  6
CONTINUOUS
 62
    3
 10
189.91837785050677
 20
189.58521250131969
 11
189.60461178341427
 21
185.99890631598396
  0
LINE
  8
_1-2_
  6
CONTINUOUS
 62
    3
 10
214.60933376002959
 20
176.62207526129646
 11
214.13870321737755
 21
171.24260979729732
  0
LINE
  8
_1-2_
  6
CONTINUOUS
 62
    3
 10
194.50111182960305
 20
181.9950701739337
 11
194.18734576251057
 21
178.408763988598
  0
LINE
  8
_1-2_
  6
CONTINUOUS
 62
    3
 10
181.65341763883023
 20
219.60148166965794
 11
184.78755229228253
 21
210.98263302364867
  0
LINE
  8
_1-b_
  6
CONTINUOUS
 62
    3
 10
190.05980208113388
 20
173.67073677681589
 11
187.99290012668919
 21
168.05528795396961
  0
LINE
  8
_1-1_
  6
CONTINUOUS
 62
    3
 10
191.56025242161107
 20
173.11846346468539
 11
190.05980208113388
 21
173.67073677681589
  0
LINE
  8
_1-2_
  6
CONTINUOUS
 62
    7
 10
192.57346900733742
 20
179.13905788112331
 11
190.05980208113388
 21
173.67073677681589
  0
LINE
  8
_1-0_
  6
CONTINUOUS
 62
    7
 10
181.09290458060602
 20
212.4917932458826
 11
182.89290557036529
 21
212.4917932458826
  0
LINE
  8
_1-0_
  6
CONTINUOUS
 62
    7
 10
181.09290458060602
 20
167.5998997043919
 11
181.09290458060602
 21
212.4917932458826
  0
LINE
  8
_1-0_
  6
CONTINUOUS
 62
    7
 10
182.89290557036529
 20
167.59991207638302
 11
182.89290557036529
 21
212.4917932458826
  0
LINE
  8
_1-2_
  6
CONTINUOUS
 62
    7
 10
181.79596772065034
 20
210.61189393739443
 11
166.65996242213893
 21
234.42025674355997
  0
LINE
  8
_1-2_
  6
CONTINUOUS
 62
    7
 10
188.99738208667654
 20
217.23118137668919
 11
207.31670070338896
 21
248.96115689664276
  0
LINE
  8
_1-2_
  6
CONTINUOUS
 62
    7
 10
163.65256644584039
 20
243.3673838022593
 11
159.65875161660685
 21
243.3673838022593
  0
LINE
  8
_1-3_
  6
CONTINUOUS
 62
    7
 10
207.31670070338896
 20
248.96115689664276
 11
211.53754156989021
 21
248.96115689664276
  0
LINE
  8
_1-2_
  6
CONTINUOUS
 62
    7
 10
183.9130380991343
 20
193.06576290646115
 11
205.42639655035896
 21
230.32794849292654
  0
LINE
  8
_1-2_
  6
CONTINUOUS
 62
    7
 10
205.42639655035896
 20
230.32794849292654
 11
184.11103944520693
 21
189.9968533902555
  0
LINE
  8
_1-2_
  6
CONTINUOUS
 62
    7
 10
205.42639655035896
 20
230.32794849292654
 11
208.95931759396117
 21
230.32794849292654
  0
LINE
  8
_1-2_
  6
CONTINUOUS
 62
    7
 10
133.22516364020271
 20
205.49811698294977
 11
147.88466170027451
 21
167.40651311101141
  0
LINE
  8
_1-2_
  6
CONTINUOUS
 62
    7
 10
147.88466170027451
 20
167.40651311101141
 11
158.85042757601352
 21
169.71508954022383
  0
LINE
  8
_1-3_
  6
CONTINUOUS
 62
    7
 10
133.22516364020271
 20
205.49811698294977
 11
126.21170456345017
 21
205.49811698294977
  0
LINE
  8
_1-2_
  6
CONTINUOUS
 62
    3
 10
181.63692577465162
 20
219.71102327913852
 11
183.02460541596284
 21
210.49292487067146
  0
ARC
  8
_1-2_
  6
CONTINUOUS
 62
    3
 10
189.25711966849664
 20
122.05598985826647
 40
60.168024011560391
 50
65.079711914062472
 51
84.999999999999972
  0
ARC
  8
_1-2_
  6
CONTINUOUS
 62
    3
 10
174.72869048247466
 20
122.05598985826647
 40
60.168024011560391
 50
95
 51
114.92028808593749
  0
ARC
  8
_1-b_
  6
CONTINUOUS
 62
    3
 10
76.334047059755051
 20
131.25480033255914
 40
1.5999999239638045
 50
110.20680236816406
 51
200.20738220214844
  0
ARC
  8
_1-b_
  6
CONTINUOUS
 62
    3
 10
119.19436068148227
 20
150.54194269953547
 40
1.5999999239638045
 50
110.20680236816406
 51
200.20738220214844
  0
ARC
  8
_1-c_
  6
CONTINUOUS
 62
    7
 10
73.847054146431589
 20
138.01163956925677
 40
1.5999999239638045
 50
110.20722961425781
 51
200.20695495605469
  0
ARC
  8
_1-c_
  6
CONTINUOUS
 62
    7
 10
116.70736776815879
 20
157.29875719225086
 40
1.5999999239638045
 50
110.20748901367187
 51
200.20695495605469
  0
ARC
  8
_1-b_
  6
CONTINUOUS
 62
    3
 10
287.65176309121625
 20
131.25480033255914
 40
1.5999999239638045
 50
339.79261779785156
 51
69.793197631835938
  0
ARC
  8
_1-b_
  6
CONTINUOUS
 62
    3
 10
244.79144946948904
 20
150.54194269953547
 40
1.5999999239638045
 50
339.79261779785156
 51
69.793197631835938
  0
ARC
  8
_1-c_
  6
CONTINUOUS
 62
    7
 10
290.13875600453969
 20
138.01163956925677
 40
1.5999999239638045
 50
339.79304504394526
 51
69.792770385742131
  0
ARC
  8
_1-c_
  6
CONTINUOUS
 62
    7
 10
247.2784423828125
 20
157.29875719225086
 40
1.5999999239638045
 50
339.79304504394526
 51
69.792510986328125
  0
CIRCLE
  8
_1-3_
  6
CONTINUOUS
 62
    7
 10
179.44901337494721
 20
195.05400374129013
 40
0.3036581503378378
  0
CIRCLE
  8
_1-3_
  6
CONTINUOUS
 62
    7
 10
182.63747344145904
 20
195.96499056429477
 40
0.3036581503378378
  0
CIRCLE
  8
_1-3_
  6
CONTINUOUS
 62
    7
 10
185.06677576013516
 20
196.1168196394637
 40
0.3036581503378378
  0
CIRCLE
  8
_1-3_
  6
CONTINUOUS
 62
    7
 10
179.9045129724451
 20
197.02781883445948
 40
0.3036581503378378
  0
CIRCLE
  8
_1-3_
  6
CONTINUOUS
 62
    7
 10
178.84168470228042
 20
197.02781883445948
 40
0.3036581503378378
  0
CIRCLE
  8
_1-3_
  6
CONTINUOUS
 62
    7
 10
179.44901337494721
 20
194.2948459934544
 40
0.3036581503378378
  0
CIRCLE
  8
_1-3_
  6
CONTINUOUS
 62
    7
 10
184.76310523780617
 20
194.44667506862334
 40
0.3036581503378378
  0
CIRCLE
  8
_1-3_
  6
CONTINUOUS
 62
    7
 10
184.91494668496622
 20
197.17964790962839
 40
0.3036581503378378
  0
CIRCLE
  8
_1-3_
  6
CONTINUOUS
 62
    7
 10
184.76310523780617
 20
197.48330605996622
 40
0.3036581503378378
  0
CIRCLE
  8
_1-3_
  6
CONTINUOUS
 62
    7
 10
184.45944708746833
 20
187.31060955975508
 40
0.3036581503378378
  0
CIRCLE
  8
_1-3_
  6
CONTINUOUS
 62
    7
 10
186.28142073347763
 20
187.00693903742612
 40
0.3036581503378378
  0
CIRCLE
  8
_1-3_
  6
CONTINUOUS
 62
    7
 10
186.73692033097552
 20
187.00693903742612
 40
0.3036581503378378
  0
CIRCLE
  8
_1-3_
  6
CONTINUOUS
 62
    7
 10
189.16622264965162
 20
186.70328088708828
 40
0.3036581503378378
  0
CIRCLE
  8
_1-3_
  6
CONTINUOUS
 62
    7
 10
179.44901337494721
 20
187.46243863492398
 40
0.3036581503378378
  0
CIRCLE
  8
_1-3_
  6
CONTINUOUS
 62
    7
 10
178.23435602961362
 20
187.00693903742612
 40
0.3036581503378378
  0
CIRCLE
  8
_1-3_
  6
CONTINUOUS
 62
    7
 10
175.80506608292865
 20
186.70328088708828
 40
0.3036581503378378
  0
CIRCLE
  8
_1-3_
  6
CONTINUOUS
 62
    7
 10
176.56421145877323
 20
178.50438710805534
 40
0.3036581503378378
  0
CIRCLE
  8
_1-3_
  6
CONTINUOUS
 62
    7
 10
177.17154013144005
 20
175.92325571421031
 40
0.3036581503378378
  0
CIRCLE
  8
_1-3_
  6
CONTINUOUS
 62
    7
 10
178.08252695444469
 20
177.44157120988177
 40
0.3036581503378378
  0
CIRCLE
  8
_1-3_
  6
CONTINUOUS
 62
    7
 10
178.68985562711148
 20
178.50438710805534
 40
0.3036581503378378
  0
CIRCLE
  8
_1-3_
  6
CONTINUOUS
 62
    7
 10
174.59040873759503
 20
178.50438710805534
 40
0.3036581503378378
  0
CIRCLE
  8
_1-3_
  6
CONTINUOUS
 62
    7
 10
173.98309243691935
 20
178.95988670555323
 40
0.3036581503378378
  0
CIRCLE
  8
_1-3_
  6
CONTINUOUS
 62
    7
 10
166.54334403373102
 20
176.53057201488599
 40
0.3036581503378378
  0
CIRCLE
  8
_1-3_
  6
CONTINUOUS
 62
    7
 10
166.39151495856208
 20
175.01226889120568
 40
0.3036581503378378
  0
CIRCLE
  8
_1-3_
  6
CONTINUOUS
 62
    7
 10
168.06165952940245
 20
175.31592704154352
 40
0.3036581503378378
  0
CIRCLE
  8
_1-3_
  6
CONTINUOUS
 62
    7
 10
169.12448779956716
 20
174.70859836887669
 40
0.3036581503378378
  0
CIRCLE
  8
_1-3_
  6
CONTINUOUS
 62
    7
 10
166.69517310889992
 20
172.73479564769849
 40
0.3036581503378378
  0
CIRCLE
  8
_1-3_
  6
CONTINUOUS
 62
    7
 10
166.84701455605997
 20
172.2792960502006
 40
0.3036581503378378
  0
CIRCLE
  8
_1-3_
  6
CONTINUOUS
 62
    7
 10
166.39151495856208
 20
171.52013830236487
 40
0.3036581503378378
  0
CIRCLE
  8
_1-3_
  6
CONTINUOUS
 62
    7
 10
167.90983045423354
 20
171.82380882469386
 40
0.3036581503378378
  0
CIRCLE
  8
_1-3_
  6
CONTINUOUS
 62
    7
 10
169.73180410024284
 20
172.73479564769849
 40
0.3036581503378378
  0
CIRCLE
  8
_1-3_
  6
CONTINUOUS
 62
    7
 10
174.43857966242612
 20
177.59340028505068
 40
0.3036581503378378
  0
CIRCLE
  8
_1-3_
  6
CONTINUOUS
 62
    7
 10
177.47521065376901
 20
173.03845379803633
 40
0.3036581503378378
  0
CIRCLE
  8
_1-3_
  6
CONTINUOUS
 62
    7
 10
177.01971105627112
 20
171.82380882469386
 40
0.3036581503378378
  0
CIRCLE
  8
_1-3_
  6
CONTINUOUS
 62
    7
 10
180.36000019795188
 20
172.2792960502006
 40
0.3036581503378378
  0
CIRCLE
  8
_1-3_
  6
CONTINUOUS
 62
    7
 10
187.64790715398016
 20
170.00182280669341
 40
0.3036581503378378
  0
CIRCLE
  8
_1-3_
  6
CONTINUOUS
 62
    7
 10
188.10340675147805
 20
171.36830922719597
 40
0.3036581503378378
  0
CIRCLE
  8
_1-3_
  6
CONTINUOUS
 62
    7
 10
186.58509125580659
 20
174.40494021853885
 40
0.3036581503378378
  0
CIRCLE
  8
_1-3_
  6
CONTINUOUS
 62
    7
 10
184.45944708746833
 20
177.74522936021961
 40
0.3036581503378378
  0
CIRCLE
  8
_1-3_
  6
CONTINUOUS
 62
    7
 10
183.85213078679266
 20
178.35255803288641
 40
0.3036581503378378
  0
CIRCLE
  8
_1-3_
  6
CONTINUOUS
 62
    7
 10
184.1557889371305
 20
180.1745316788957
 40
0.3036581503378378
  0
CIRCLE
  8
_1-3_
  6
CONTINUOUS
 62
    7
 10
186.58509125580659
 20
179.26354485589107
 40
0.3036581503378378
  0
CIRCLE
  8
_1-3_
  6
CONTINUOUS
 62
    7
 10
188.25523582664698
 20
178.95988670555323
 40
0.3036581503378378
  0
CIRCLE
  8
_1-3_
  6
CONTINUOUS
 62
    7
 10
190.38087999498524
 20
180.02270260372677
 40
0.3036581503378378
  0
CIRCLE
  8
_1-3_
  6
CONTINUOUS
 62
    7
 10
191.59552496832771
 20
180.1745316788957
 40
0.3036581503378378
  0
CIRCLE
  8
_1-3_
  6
CONTINUOUS
 62
    7
 10
192.20285364099453
 20
180.1745316788957
 40
0.3036581503378378
  0
CIRCLE
  8
_1-3_
  6
CONTINUOUS
 62
    7
 10
195.2394722603463
 20
179.26354485589107
 40
0.3036581503378378
  0
CIRCLE
  8
_1-3_
  6
CONTINUOUS
 62
    7
 10
195.99863000818203
 20
177.13790068755279
 40
0.3036581503378378
  0
CIRCLE
  8
_1-3_
  6
CONTINUOUS
 62
    7
 10
195.08764318517737
 20
175.77142663904141
 40
0.3036581503378378
  0
CIRCLE
  8
_1-3_
  6
CONTINUOUS
 62
    7
 10
197.51694550385346
 20
174.55676929370779
 40
0.3036581503378378
  0
CIRCLE
  8
_1-3_
  6
CONTINUOUS
 62
    7
 10
196.90962920317779
 20
176.22691386454815
 40
0.3036581503378378
  0
CIRCLE
  8
_1-3_
  6
CONTINUOUS
 62
    7
 10
199.79441874736065
 20
176.83424253721495
 40
0.3036581503378378
  0
CIRCLE
  8
_1-3_
  6
CONTINUOUS
 62
    7
 10
198.12427417652029
 20
173.03845379803633
 40
0.3036581503378378
  0
CIRCLE
  8
_1-3_
  6
CONTINUOUS
 62
    7
 10
194.32848543734164
 20
174.10128206820102
 40
0.3036581503378378
  0
CIRCLE
  8
_1-3_
  6
CONTINUOUS
 62
    7
 10
194.48031451251057
 20
173.19028287320523
 40
0.3036581503378378
  0
CIRCLE
  8
_1-3_
  6
CONTINUOUS
 62
    7
 10
195.2394722603463
 20
172.8866247228674
 40
0.3036581503378378
  0
CIRCLE
  8
_1-3_
  6
CONTINUOUS
 62
    7
 10
197.6687745790224
 20
171.6719673775338
 40
0.3036581503378378
  0
CIRCLE
  8
_1-3_
  6
CONTINUOUS
 62
    7
 10
198.12427417652029
 20
171.6719673775338
 40
0.3036581503378378
  0
CIRCLE
  8
_1-3_
  6
CONTINUOUS
 62
    7
 10
198.88343192435602
 20
170.91282200168919
 40
0.3036581503378378
  0
CIRCLE
  8
_1-3_
  6
CONTINUOUS
 62
    7
 10
195.2394722603463
 20
172.43113749736065
 40
0.3036581503378378
  0
CIRCLE
  8
_1-3_
  6
CONTINUOUS
 62
    7
 10
190.53270907015414
 20
176.37874293971706
 40
0.3036581503378378
  0
CIRCLE
  8
_1-3_
  6
CONTINUOUS
 62
    7
 10
186.1295916583087
 20
174.86042744404563
 40
0.3036581503378378
  0
CIRCLE
  8
_1-3_
  6
CONTINUOUS
 62
    7
 10
185.82593350797086
 20
172.43113749736065
 40
0.3036581503378378
  0
CIRCLE
  8
_1-3_
  6
CONTINUOUS
 62
    7
 10
184.76310523780617
 20
171.52013830236487
 40
0.3036581503378378
  0
CIRCLE
  8
_1-3_
  6
CONTINUOUS
 62
    7
 10
183.24480211412586
 20
171.06465107685813
 40
0.3036581503378378
  0
CIRCLE
  8
_1-3_
  6
CONTINUOUS
 62
    7
 10
178.38619747677365
 20
171.52013830236487
 40
0.3036581503378378
  0
CIRCLE
  8
_1-3_
  6
CONTINUOUS
 62
    7
 10
176.26055330843539
 20
170.00182280669341
 40
0.3036581503378378
  0
CIRCLE
  8
_1-3_
  6
CONTINUOUS
 62
    7
 10
175.95689515809755
 20
173.79761154587206
 40
0.3036581503378378
  0
CIRCLE
  8
_1-3_
  6
CONTINUOUS
 62
    7
 10
164.56954131255279
 20
176.37874293971706
 40
0.3036581503378378
  0
CIRCLE
  8
_1-3_
  6
CONTINUOUS
 62
    7
 10
164.72137038772172
 20
174.25311114336995
 40
0.3036581503378378
  0
CIRCLE
  8
_1-3_
  6
CONTINUOUS
 62
    7
 10
164.72137038772172
 20
172.58296657252956
 40
0.3036581503378378
  0
CIRCLE
  8
_1-3_
  6
CONTINUOUS
 62
    7
 10
164.1140417150549
 20
171.21648015202703
 40
0.3036581503378378
  0
CIRCLE
  8
_1-3_
  6
CONTINUOUS
 62
    7
 10
164.56954131255279
 20
171.21648015202703
 40
0.3036581503378378
  0
CIRCLE
  8
_1-3_
  6
CONTINUOUS
 62
    7
 10
167.15067270639781
 20
171.36830922719597
 40
0.3036581503378378
  0
CIRCLE
  8
_1-3_
  6
CONTINUOUS
 62
    7
 10
168.66898820206927
 20
175.16409796637458
 40
0.3036581503378378
  0
CIRCLE
  8
_1-3_
  6
CONTINUOUS
 62
    7
 10
168.36531767974029
 20
178.04888751055745
 40
0.3036581503378378
  0
CIRCLE
  8
_1-3_
  6
CONTINUOUS
 62
    7
 10
170.33913277290964
 20
179.26354485589107
 40
0.3036581503378378
  0
CIRCLE
  8
_1-3_
  6
CONTINUOUS
 62
    7
 10
177.77886880410685
 20
180.32636075406461
 40
0.3036581503378378
  0
CIRCLE
  8
_1-3_
  6
CONTINUOUS
 62
    7
 10
180.66367072028083
 20
181.08551850190034
 40
0.3036581503378378
  0
CIRCLE
  8
_1-3_
  6
CONTINUOUS
 62
    7
 10
183.39663118929477
 20
183.21116267023862
 40
0.3036581503378378
  0
CIRCLE
  8
_1-3_
  6
CONTINUOUS
 62
    7
 10
183.5484602644637
 20
185.33679446658573
 40
0.3036581503378378
  0
CIRCLE
  8
_1-3_
  6
CONTINUOUS
 62
    7
 10
180.66367072028083
 20
184.42580764358109
 40
0.3036581503378378
  0
CIRCLE
  8
_1-3_
  6
CONTINUOUS
 62
    7
 10
184.45944708746833
 20
180.63003127639359
 40
0.3036581503378378
  0
CIRCLE
  8
_1-3_
  6
CONTINUOUS
 62
    7
 10
184.00395986196159
 20
177.13790068755279
 40
0.3036581503378378
  0
CIRCLE
  8
_1-3_
  6
CONTINUOUS
 62
    7
 10
183.7002893396326
 20
176.22691386454815
 40
0.3036581503378378
  0
CIRCLE
  8
_1-3_
  6
CONTINUOUS
 62
    7
 10
187.49607807881125
 20
178.04888751055745
 40
0.3036581503378378
  0
CIRCLE
  8
_1-3_
  6
CONTINUOUS
 62
    7
 10
187.79973622914909
 20
177.13790068755279
 40
0.3036581503378378
  0
CIRCLE
  8
_1-3_
  6
CONTINUOUS
 62
    7
 10
187.79973622914909
 20
177.13790068755279
 40
0.3036581503378378
  0
CIRCLE
  8
_1-3_
  6
CONTINUOUS
 62
    7
 10
188.10340675147805
 20
174.55676929370779
 40
0.3036581503378378
  0
CIRCLE
  8
_1-3_
  6
CONTINUOUS
 62
    7
 10
178.99352614944047
 20
175.16409796637458
 40
0.3036581503378378
  0
CIRCLE
  8
_1-3_
  6
CONTINUOUS
 62
    7
 10
185.06677576013516
 20
170.91282200168919
 40
0.3036581503378378
  0
CIRCLE
  8
_1-3_
  6
CONTINUOUS
 62
    7
 10
186.43324980864654
 20
169.24267743084883
 40
0.3036581503378378
  0
CIRCLE
  8
_1-3_
  6
CONTINUOUS
 62
    7
 10
184.00395986196159
 20
175.92325571421031
 40
0.3036581503378378
  0
CIRCLE
  8
_1-3_
  6
CONTINUOUS
 62
    7
 10
178.84168470228042
 20
173.79761154587206
 40
0.3036581503378378
  0
CIRCLE
  8
_1-3_
  6
CONTINUOUS
 62
    7
 10
174.59040873759503
 20
175.61959756387247
 40
0.3036581503378378
  0
CIRCLE
  8
_1-3_
  6
CONTINUOUS
 62
    7
 10
177.77886880410685
 20
177.28974213471284
 40
0.3036581503378378
  0
CIRCLE
  8
_1-3_
  6
CONTINUOUS
 62
    7
 10
174.13492151208828
 20
180.47818982923354
 40
0.3036581503378378
  0
CIRCLE
  8
_1-3_
  6
CONTINUOUS
 62
    7
 10
186.43324980864654
 20
171.52013830236487
 40
0.3036581503378378
  0
CIRCLE
  8
_1-3_
  6
CONTINUOUS
 62
    7
 10
187.49607807881125
 20
173.64578247070312
 40
0.3036581503378378
  0
CIRCLE
  8
_1-3_
  6
CONTINUOUS
 62
    7
 10
188.86256449931378
 20
174.10128206820102
 40
0.3036581503378378
  0
CIRCLE
  8
_1-3_
  6
CONTINUOUS
 62
    7
 10
189.46988079998945
 20
178.35255803288641
 40
0.3036581503378378
  0
CIRCLE
  8
_1-3_
  6
CONTINUOUS
 62
    7
 10
178.99352614944047
 20
176.83424253721495
 40
0.3036581503378378
  0
CIRCLE
  8
_1-3_
  6
CONTINUOUS
 62
    7
 10
178.84168470228042
 20
179.41537393105997
 40
0.3036581503378378
  0
CIRCLE
  8
_1-3_
  6
CONTINUOUS
 62
    7
 10
176.56421145877323
 20
179.41537393105997
 40
0.3036581503378378
  0
CIRCLE
  8
_1-3_
  6
CONTINUOUS
 62
    7
 10
178.53802655194258
 20
173.19028287320523
 40
0.3036581503378378
  0
CIRCLE
  8
_1-3_
  6
CONTINUOUS
 62
    7
 10
178.38619747677365
 20
170.60915147936024
 40
0.3036581503378378
  0
CIRCLE
  8
_1-3_
  6
CONTINUOUS
 62
    7
 10
177.93069787927578
 20
169.54633558118667
 40
0.3036581503378378
  0
CIRCLE
  8
_1-3_
  6
CONTINUOUS
 62
    7
 10
172.00927734375
 20
176.22691386454815
 40
0.3036581503378378
  0
CIRCLE
  8
_1-3_
  6
CONTINUOUS
 62
    7
 10
172.31294786607899
 20
177.28974213471284
 40
0.3036581503378378
  0
CIRCLE
  8
_1-3_
  6
CONTINUOUS
 62
    7
 10
186.43324980864654
 20
177.59340028505068
 40
0.3036581503378378
  0
CIRCLE
  8
_1-3_
  6
CONTINUOUS
 62
    7
 10
186.73692033097552
 20
180.63003127639359
 40
0.3036581503378378
  0
CIRCLE
  8
_1-3_
  6
CONTINUOUS
 62
    7
 10
172.61660601641682
 20
192.01738512193836
 40
0.3036581503378378
  0
CIRCLE
  8
_1-3_
  6
CONTINUOUS
 62
    7
 10
183.39663118929477
 20
197.938793285473
 40
0.3036581503378378
  0
CIRCLE
  8
_1-3_
  6
CONTINUOUS
 62
    7
 10
181.5746575432855
 20
197.938793285473
 40
0.3036581503378378
  0
ARC
  8
_1-1_
  6
CONTINUOUS
 62
    3
 10
180.3928973223712
 20
134.59585653769005
 40
0.9999999162313101
 50
0
 51
90
  0
ARC
  8
_1-1_
  6
CONTINUOUS
 62
    3
 10
183.59291282860011
 20
134.59585653769005
 40
0.9999999162313101
 50
90
 51
180
  0
ARC
  8
_1-1_
  6
CONTINUOUS
 62
    3
 10
183.59291282860011
 20
99.795851836333412
 40
0.9999999162313101
 50
180
 51
270
  0
ARC
  8
_1-1_
  6
CONTINUOUS
 62
    3
 10
180.3928973223712
 20
99.795851836333412
 40
0.9999999162313101
 50
270
 51
0
  0
ARC
  8
_1-2_
  6
CONTINUOUS
 62
    3
 10
184.07071912610854
 20
164.29739462362755
 40
41.612016832506335
 50
95
 51
124.5146484375
  0
ARC
  8
_1-2_
  6
CONTINUOUS
 62
    3
 10
185.3742197397593
 20
149.39830058329815
 40
60.168024011560391
 50
95
 51
114.92028808593749
  0
ARC
  8
_1-2_
  6
CONTINUOUS
 62
    3
 10
183.13811843459672
 20
158.18238954286318
 40
41.612016832506335
 50
95
 51
124.5146484375
  0
ARC
  8
_1-2_
  6
CONTINUOUS
 62
    3
 10
181.99290507548565
 20
204.48660773199958
 40
15.228569443161424
 50
9.939453125
 51
170.06054687499997
  0
ARC
  8
_1-2_
  6
CONTINUOUS
 62
    3
 10
181.99290507548565
 20
204.41517185520482
 40
12.300003928107184
 50
15.562728881835937
 51
164.43727111816406
  0
ARC
  8
_1-2_
  6
CONTINUOUS
 62
    3
 10
182.13409423828125
 20
152.04881410341005
 40
41.612016832506335
 50
95
 51
124.5146484375
  0
ARC
  8
_1-2_
  6
CONTINUOUS
 62
    3
 10
183.43759485193203
 20
137.14972006308068
 40
60.168024011560391
 50
95
 51
114.92028808593749
  0
ARC
  8
_1-2_
  6
CONTINUOUS
 62
    3
 10
178.00792384792018
 20
144.54522622598185
 40
41.612016832506335
 50
95
 51
124.5146484375
  0
ARC
  8
_1-2_
  6
CONTINUOUS
 62
    3
 10
179.31142446157097
 20
129.64613218565245
 40
60.168024011560391
 50
95
 51
114.92028808593749
  0
ARC
  8
_1-2_
  6
CONTINUOUS
 62
    3
 10
179.91509102486276
 20
164.29739462362755
 40
41.612016832506335
 50
55.485351562500036
 51
85.000000000000028
  0
ARC
  8
_1-2_
  6
CONTINUOUS
 62
    3
 10
178.61159041121201
 20
149.39830058329815
 40
60.168024011560391
 50
65.079711914062472
 51
84.999999999999972
  0
ARC
  8
_1-2_
  6
CONTINUOUS
 62
    3
 10
180.84769171637458
 20
158.18238954286318
 40
41.612016832506335
 50
55.485351562500036
 51
85.000000000000028
  0
ARC
  8
_1-2_
  6
CONTINUOUS
 62
    3
 10
179.54419110272383
 20
143.2832955025338
 40
60.168024011560391
 50
65.079711914062472
 51
84.999999999999972
  0
ARC
  8
_1-2_
  6
CONTINUOUS
 62
    3
 10
181.85171591269005
 20
152.04881410341005
 40
41.612016832506335
 50
55.485351562500036
 51
85.000000000000028
  0
ARC
  8
_1-2_
  6
CONTINUOUS
 62
    3
 10
180.54821529903927
 20
137.14972006308068
 40
60.168024011560391
 50
65.079711914062472
 51
84.999999999999972
  0
ARC
  8
_1-2_
  6
CONTINUOUS
 62
    3
 10
185.97788630305112
 20
144.54522622598185
 40
41.612016832506335
 50
55.485351562500036
 51
85.000000000000028
  0
ARC
  8
_1-2_
  6
CONTINUOUS
 62
    3
 10
184.67438568940034
 20
129.64613218565245
 40
60.168024011560391
 50
65.079711914062472
 51
84.999999999999972
  0
ARC
  8
_1-2_
  6
CONTINUOUS
 62
    3
 10
184.44161904824747
 20
143.2832955025338
 40
60.168024011560391
 50
98.884109497070298
 51
114.92028808593749
  0
ARC
  8
_1-2_
  6
CONTINUOUS
 62
    3
 10
184.44161904824747
 20
143.2832955025338
 40
60.168024011560391
 50
98.855010986328139
 51
98.884109497070327
  0
ARC
  8
_1-2_
  6
CONTINUOUS
 62
    3
 10
173.42518986882391
 20
136.95508389859586
 40
41.612016832506335
 50
99.756179809570313
 51
124.5146484375
  0
ARC
  8
_1-2_
  6
CONTINUOUS
 62
    3
 10
173.42518986882391
 20
136.95508389859586
 40
41.612016832506335
 50
95
 51
99.325698852539063
  0
ARC
  8
_1-2_
  6
CONTINUOUS
 62
    3
 10
173.42518986882391
 20
136.95508389859586
 40
41.612016832506335
 50
99.325698852539077
 51
99.756179809570313
  0
CIRCLE
  8
_1-3_
  6
CONTINUOUS
 62
    7
 10
180.66367072028083
 20
211.7686751082137
 40
0.3036581503378378
  0
CIRCLE
  8
_1-3_
  6
CONTINUOUS
 62
    7
 10
183.09296066696581
 20
212.67964955922722
 40
0.3036581503378378
  0
CIRCLE
  8
_1-0_
  6
CONTINUOUS
 62
    7
 10
183.89404709274706
 20
211.36586782094597
 40
0.899999914942561
  0
ARC
  8
_1-2_
  6
CONTINUOUS
 62
    3
 10
184.44161904824747
 20
143.2832955025338
 40
60.168024011560391
 50
95
 51
113.8792724609375
  0
ARC
  8
_1-2_
  6
CONTINUOUS
 62
    3
 10
182.19394993137669
 20
197.01314565297722
 40
12.831145879384634
 50
69.304290771484375
 51
109.63737487792967
  0
ARC
  8
_1-2_
  6
CONTINUOUS
 62
    3
 10
181.19935319230365
 20
73.341744912637253
 40
132.09343575142526
 50
87.503158569335952
 51
91.617935180664077
  0
ARC
  8
_1-2_
  6
CONTINUOUS
 62
    3
 10
181.94507495777029
 20
189.3501446698163
 40
14.542213130641629
 50
69.694366455078125
 51
110.51144409179689
  0
ARC
  8
_1-2_
  6
CONTINUOUS
 62
    3
 10
180.85516439901818
 20
90.264018290751693
 40
109.14980089342272
 50
86.269012451171875
 51
91.993972778320313
  0
ARC
  8
_1-2_
  6
CONTINUOUS
 62
    3
 10
181.564376418655
 20
182.53181663719386
 40
15.38688917417784
 50
69.976577758789063
 51
111.51730346679689
  0
ARC
  8
_1-2_
  6
CONTINUOUS
 62
    3
 10
179.21027106207771
 20
298.24151941247891
 40
105.11700192013303
 50
268.15237426757818
 51
274.04425048828131
  0
ARC
  8
_1-2_
  6
CONTINUOUS
 62
    3
 10
181.40047228014149
 20
133.03068831160263
 40
57.260606095597552
 50
80.346343994140625
 51
102.68716430664062
  0
ARC
  8
_1-2_
  6
CONTINUOUS
 62
    3
 10
183.21762084960937
 20
347.14483312658365
 40
161.92351882522172
 50
265.85116577148437
 51
273.52908325195312
  0
ARC
  8
_1-2_
  6
CONTINUOUS
 62
    3
 10
181.80488792625636
 20
98.342922313793295
 40
84.781753952438777
 50
79.296783447265639
 51
101.61956787109376
  0
ARC
  8
_1-2_
  6
CONTINUOUS
 62
    3
 10
195.68366385794977
 20
-6613.8819679054059
 40
6792.1130701013517
 50
89.998703002929702
 51
90.235916137695312
  0
ARC
  8
_1-2_
  6
CONTINUOUS
 62
    3
 10
143.45886642868456
 20
169.29064364046664
 40
11.177707362819364
 50
337.27603149414062
 51
22.830276489257827
  0
ARC
  8
_1-2_
  6
CONTINUOUS
 62
    3
 10
190.5606202821474
 20
136.95508389859586
 40
41.612016832506335
 50
55.485351562500036
 51
65.143081665039105
  0
ARC
  8
_1-2_
  6
CONTINUOUS
 62
    3
 10
190.5606202821474
 20
136.95508389859586
 40
41.612016832506335
 50
65.143081665039077
 51
85.000000000000014
  0
ARC
  8
_1-2_
  6
CONTINUOUS
 62
    3
 10
223.79895184491133
 20
170.78641736829604
 40
14.956947017360379
 50
167.01652526855469
 51
202.51402282714844
  0
CIRCLE
  8
_1-3_
  6
CONTINUOUS
 62
    7
 10
158.36106583878802
 20
172.86163330078125
 40
0.3036581503378378
  0
CIRCLE
  8
_1-3_
  6
CONTINUOUS
 62
    7
 10
158.51290728594807
 20
172.40613370328336
 40
0.3036581503378378
  0
CIRCLE
  8
_1-3_
  6
CONTINUOUS
 62
    7
 10
158.05740768845018
 20
171.64697595544766
 40
0.3036581503378378
  0
CIRCLE
  8
_1-3_
  6
CONTINUOUS
 62
    7
 10
159.57572318412164
 20
171.95064647777662
 40
0.3036581503378378
  0
CIRCLE
  8
_1-3_
  6
CONTINUOUS
 62
    7
 10
156.38726311760982
 20
174.37994879645271
 40
0.3036581503378378
  0
CIRCLE
  8
_1-3_
  6
CONTINUOUS
 62
    7
 10
156.38726311760982
 20
172.70980422561234
 40
0.3036581503378378
  0
CIRCLE
  8
_1-3_
  6
CONTINUOUS
 62
    7
 10
155.779934444943
 20
171.34331780510982
 40
0.3036581503378378
  0
CIRCLE
  8
_1-3_
  6
CONTINUOUS
 62
    7
 10
156.23543404244089
 20
171.34331780510982
 40
0.3036581503378378
  0
CIRCLE
  8
_1-3_
  6
CONTINUOUS
 62
    7
 10
158.81656543628591
 20
171.49514688027872
 40
0.3036581503378378
  0
CIRCLE
  8
_1-3_
  6
CONTINUOUS
 62
    7
 10
163.01889780405406
 20
174.38255928658151
 40
0.3036581503378378
  0
CIRCLE
  8
_1-3_
  6
CONTINUOUS
 62
    7
 10
163.17073925121412
 20
173.92705968908362
 40
0.3036581503378378
  0
CIRCLE
  8
_1-3_
  6
CONTINUOUS
 62
    7
 10
162.71523965371622
 20
173.16790194124789
 40
0.3036581503378378
  0
CIRCLE
  8
_1-3_
  6
CONTINUOUS
 62
    7
 10
164.23355514938768
 20
173.47157246357688
 40
0.3036581503378378
  0
CIRCLE
  8
_1-3_
  6
CONTINUOUS
 62
    7
 10
161.04509508287586
 20
175.90087478225297
 40
0.3036581503378378
  0
CIRCLE
  8
_1-3_
  6
CONTINUOUS
 62
    7
 10
161.04509508287586
 20
174.23073021141261
 40
0.3036581503378378
  0
CIRCLE
  8
_1-3_
  6
CONTINUOUS
 62
    7
 10
160.43776641020904
 20
172.86424379091005
 40
0.3036581503378378
  0
CIRCLE
  8
_1-3_
  6
CONTINUOUS
 62
    7
 10
160.89326600770693
 20
172.86424379091005
 40
0.3036581503378378
  0
CIRCLE
  8
_1-3_
  6
CONTINUOUS
 62
    7
 10
163.47439740155195
 20
173.01607286607899
 40
0.3036581503378378
  0
CIRCLE
  8
_1-3_
  6
CONTINUOUS
 62
    7
 10
159.40669704127956
 20
169.53460693359375
 40
0.3036581503378378
  0
CIRCLE
  8
_1-3_
  6
CONTINUOUS
 62
    7
 10
159.55853848843961
 20
169.07910733609586
 40
0.3036581503378378
  0
CIRCLE
  8
_1-3_
  6
CONTINUOUS
 62
    7
 10
159.10303889094172
 20
168.31994958826016
 40
0.3036581503378378
  0
CIRCLE
  8
_1-3_
  6
CONTINUOUS
 62
    7
 10
160.62135438661318
 20
168.62362011058912
 40
0.3036581503378378
  0
CIRCLE
  8
_1-3_
  6
CONTINUOUS
 62
    7
 10
157.43289432010135
 20
171.05292242926521
 40
0.3036581503378378
  0
CIRCLE
  8
_1-3_
  6
CONTINUOUS
 62
    7
 10
157.43289432010135
 20
169.38277785842484
 40
0.3036581503378378
  0
CIRCLE
  8
_1-3_
  6
CONTINUOUS
 62
    7
 10
156.82556564743456
 20
168.01629143792232
 40
0.3036581503378378
  0
CIRCLE
  8
_1-3_
  6
CONTINUOUS
 62
    7
 10
157.28106524493245
 20
168.01629143792232
 40
0.3036581503378378
  0
CIRCLE
  8
_1-3_
  6
CONTINUOUS
 62
    7
 10
159.86219663877745
 20
168.16812051309122
 40
0.3036581503378378
  0
CIRCLE
  8
_1-3_
  6
CONTINUOUS
 62
    7
 10
203.32343024176521
 20
171.24565330711573
 40
0.3036581503378378
  0
CIRCLE
  8
_1-3_
  6
CONTINUOUS
 62
    7
 10
203.47527168892526
 20
170.79015370961784
 40
0.3036581503378378
  0
CIRCLE
  8
_1-3_
  6
CONTINUOUS
 62
    7
 10
203.01977209142737
 20
170.03099596178211
 40
0.3036581503378378
  0
CIRCLE
  8
_1-3_
  6
CONTINUOUS
 62
    7
 10
204.53808758709883
 20
170.33466648411107
 40
0.3036581503378378
  0
CIRCLE
  8
_1-3_
  6
CONTINUOUS
 62
    7
 10
201.34962752058701
 20
172.76396880278716
 40
0.3036581503378378
  0
CIRCLE
  8
_1-3_
  6
CONTINUOUS
 62
    7
 10
201.34962752058701
 20
171.0938242319468
 40
0.3036581503378378
  0
CIRCLE
  8
_1-3_
  6
CONTINUOUS
 62
    7
 10
200.74229884792021
 20
169.72733781144427
 40
0.3036581503378378
  0
CIRCLE
  8
_1-3_
  6
CONTINUOUS
 62
    7
 10
201.19779844541807
 20
169.72733781144427
 40
0.3036581503378378
  0
CIRCLE
  8
_1-3_
  6
CONTINUOUS
 62
    7
 10
203.7789298392631
 20
169.87916688661318
 40
0.3036581503378378
  0
CIRCLE
  8
_1-3_
  6
CONTINUOUS
 62
    7
 10
206.27022820550044
 20
174.19243889885982
 40
0.3036581503378378
  0
CIRCLE
  8
_1-3_
  6
CONTINUOUS
 62
    7
 10
206.4220696526605
 20
173.73693930136193
 40
0.3036581503378378
  0
CIRCLE
  8
_1-3_
  6
CONTINUOUS
 62
    7
 10
205.96657005516261
 20
172.9777815535262
 40
0.3036581503378378
  0
CIRCLE
  8
_1-3_
  6
CONTINUOUS
 62
    7
 10
207.48488555083404
 20
173.28145207585516
 40
0.3036581503378378
  0
CIRCLE
  8
_1-3_
  6
CONTINUOUS
 62
    7
 10
204.29642548432221
 20
175.71075439453125
 40
0.3036581503378378
  0
CIRCLE
  8
_1-3_
  6
CONTINUOUS
 62
    7
 10
204.29642548432221
 20
174.04060982369089
 40
0.3036581503378378
  0
CIRCLE
  8
_1-3_
  6
CONTINUOUS
 62
    7
 10
203.68909681165542
 20
172.67412340318836
 40
0.3036581503378378
  0
CIRCLE
  8
_1-3_
  6
CONTINUOUS
 62
    7
 10
204.14459640915331
 20
172.67412340318836
 40
0.3036581503378378
  0
CIRCLE
  8
_1-3_
  6
CONTINUOUS
 62
    7
 10
206.72572780299834
 20
172.82595247835727
 40
0.3036581503378378
  0
CIRCLE
  8
_1-3_
  6
CONTINUOUS
 62
    7
 10
206.84057699667443
 20
169.72472732131547
 40
0.3036581503378378
  0
CIRCLE
  8
_1-3_
  6
CONTINUOUS
 62
    7
 10
206.99241844383448
 20
169.26922772381758
 40
0.3036581503378378
  0
CIRCLE
  8
_1-3_
  6
CONTINUOUS
 62
    7
 10
206.53691884633659
 20
168.51006997598185
 40
0.3036581503378378
  0
CIRCLE
  8
_1-3_
  6
CONTINUOUS
 62
    7
 10
208.05524671399917
 20
168.81374049831081
 40
0.3036581503378378
  0
CIRCLE
  8
_1-3_
  6
CONTINUOUS
 62
    7
 10
204.8667742754962
 20
171.24304281698693
 40
0.3036581503378378
  0
CIRCLE
  8
_1-3_
  6
CONTINUOUS
 62
    7
 10
204.8667742754962
 20
169.57289824614654
 40
0.3036581503378378
  0
CIRCLE
  8
_1-3_
  6
CONTINUOUS
 62
    7
 10
204.2594456028294
 20
168.20641182564401
 40
0.3036581503378378
  0
CIRCLE
  8
_1-3_
  6
CONTINUOUS
 62
    7
 10
204.71494520032729
 20
168.20641182564401
 40
0.3036581503378378
  0
CIRCLE
  8
_1-3_
  6
CONTINUOUS
 62
    7
 10
207.29607659417232
 20
168.35824090081294
 40
0.3036581503378378
  0
CIRCLE
  8
_1-3_
  6
CONTINUOUS
 62
    7
 10
188.87463956265836
 20
190.82757073479732
 40
0.3036581503378378
  0
CIRCLE
  8
_1-3_
  6
CONTINUOUS
 62
    7
 10
189.02648100981841
 20
190.37207113729943
 40
0.3036581503378378
  0
CIRCLE
  8
_1-3_
  6
CONTINUOUS
 62
    7
 10
188.57098141232052
 20
189.6129133894637
 40
0.3036581503378378
  0
CIRCLE
  8
_1-3_
  6
CONTINUOUS
 62
    7
 10
190.08929690799198
 20
189.91658391179266
 40
0.3036581503378378
  0
CIRCLE
  8
_1-3_
  6
CONTINUOUS
 62
    7
 10
186.90083684148016
 20
192.34588623046875
 40
0.3036581503378378
  0
CIRCLE
  8
_1-3_
  6
CONTINUOUS
 62
    7
 10
186.90083684148016
 20
190.67574165962839
 40
0.3036581503378378
  0
CIRCLE
  8
_1-3_
  6
CONTINUOUS
 62
    7
 10
186.29350816881336
 20
189.30925523912586
 40
0.3036581503378378
  0
CIRCLE
  8
_1-3_
  6
CONTINUOUS
 62
    7
 10
186.74900776631125
 20
189.30925523912586
 40
0.3036581503378378
  0
CIRCLE
  8
_1-3_
  6
CONTINUOUS
 62
    7
 10
189.33013916015625
 20
189.46108431429477
 40
0.3036581503378378
  0
CIRCLE
  8
_1-3_
  6
CONTINUOUS
 62
    7
 10
180.31943243903083
 20
190.44734233134503
 40
0.3036581503378378
  0
CIRCLE
  8
_1-3_
  6
CONTINUOUS
 62
    7
 10
180.47127388619089
 20
189.99184273384714
 40
0.3036581503378378
  0
CIRCLE
  8
_1-3_
  6
CONTINUOUS
 62
    7
 10
180.015774288693
 20
189.23268498601141
 40
0.3036581503378378
  0
CIRCLE
  8
_1-3_
  6
CONTINUOUS
 62
    7
 10
181.53408978436445
 20
189.53635550834039
 40
0.3036581503378378
  0
CIRCLE
  8
_1-3_
  6
CONTINUOUS
 62
    7
 10
178.34562971785263
 20
191.96565782701649
 40
0.3036581503378378
  0
CIRCLE
  8
_1-3_
  6
CONTINUOUS
 62
    7
 10
178.34562971785263
 20
190.29551325617612
 40
0.3036581503378378
  0
CIRCLE
  8
_1-3_
  6
CONTINUOUS
 62
    7
 10
177.73830104518581
 20
188.92902683567357
 40
0.3036581503378378
  0
CIRCLE
  8
_1-3_
  6
CONTINUOUS
 62
    7
 10
178.1938006426837
 20
188.92902683567357
 40
0.3036581503378378
  0
CIRCLE
  8
_1-3_
  6
CONTINUOUS
 62
    7
 10
180.77493203652872
 20
189.0808559108425
 40
0.3036581503378378
  0
CIRCLE
  8
_1-3_
  6
CONTINUOUS
 62
    7
 10
191.15602235536318
 20
183.9833976127006
 40
0.3036581503378378
  0
CIRCLE
  8
_1-3_
  6
CONTINUOUS
 62
    7
 10
191.30786380252323
 20
183.52789801520271
 40
0.3036581503378378
  0
CIRCLE
  8
_1-3_
  6
CONTINUOUS
 62
    7
 10
190.85236420502534
 20
182.76874026736698
 40
0.3036581503378378
  0
CIRCLE
  8
_1-3_
  6
CONTINUOUS
 62
    7
 10
192.3706797006968
 20
183.07241078969597
 40
0.3036581503378378
  0
CIRCLE
  8
_1-3_
  6
CONTINUOUS
 62
    7
 10
189.18221963418497
 20
185.50171310837206
 40
0.3036581503378378
  0
CIRCLE
  8
_1-3_
  6
CONTINUOUS
 62
    7
 10
189.18221963418497
 20
183.83156853753169
 40
0.3036581503378378
  0
CIRCLE
  8
_1-3_
  6
CONTINUOUS
 62
    7
 10
188.57489096151818
 20
182.46508211702914
 40
0.3036581503378378
  0
CIRCLE
  8
_1-3_
  6
CONTINUOUS
 62
    7
 10
189.03039055901607
 20
182.46508211702914
 40
0.3036581503378378
  0
CIRCLE
  8
_1-3_
  6
CONTINUOUS
 62
    7
 10
191.61152195286107
 20
182.61691119219807
 40
0.3036581503378378
  0
CIRCLE
  8
_1-3_
  6
CONTINUOUS
 62
    7
 10
174.8060772870038
 20
182.55753800675677
 40
0.3036581503378378
  0
CIRCLE
  8
_1-3_
  6
CONTINUOUS
 62
    7
 10
174.95791873416385
 20
182.10203840925888
 40
0.3036581503378378
  0
CIRCLE
  8
_1-3_
  6
CONTINUOUS
 62
    7
 10
174.50241913666596
 20
181.34288066142315
 40
0.3036581503378378
  0
CIRCLE
  8
_1-3_
  6
CONTINUOUS
 62
    7
 10
176.02073463233742
 20
181.64655118375211
 40
0.3036581503378378
  0
CIRCLE
  8
_1-3_
  6
CONTINUOUS
 62
    7
 10
172.8322745658256
 20
184.07585350242823
 40
0.3036581503378378
  0
CIRCLE
  8
_1-3_
  6
CONTINUOUS
 62
    7
 10
172.8322745658256
 20
182.40570893158784
 40
0.3036581503378378
  0
CIRCLE
  8
_1-3_
  6
CONTINUOUS
 62
    7
 10
172.2249458931588
 20
181.03922251108531
 40
0.3036581503378378
  0
CIRCLE
  8
_1-3_
  6
CONTINUOUS
 62
    7
 10
172.68044549065669
 20
181.03922251108531
 40
0.3036581503378378
  0
CIRCLE
  8
_1-3_
  6
CONTINUOUS
 62
    7
 10
175.26157688450169
 20
181.19105158625425
 40
0.3036581503378378
  0
CIRCLE
  8
_1-3_
  6
CONTINUOUS
 62
    7
 10
179.08368084881758
 20
212.40570893158784
 40
0.3036581503378378
  0
CIRCLE
  8
_1-3_
  6
CONTINUOUS
 62
    7
 10
179.23552229597763
 20
211.95019696209883
 40
0.3036581503378378
  0
CIRCLE
  8
_1-3_
  6
CONTINUOUS
 62
    7
 10
178.78002269847974
 20
211.19105158625425
 40
0.3036581503378378
  0
CIRCLE
  8
_1-3_
  6
CONTINUOUS
 62
    7
 10
180.2983381941512
 20
211.49470973659209
 40
0.3036581503378378
  0
CIRCLE
  8
_1-3_
  6
CONTINUOUS
 62
    7
 10
177.10987812763938
 20
213.9240244272593
 40
0.3036581503378378
  0
CIRCLE
  8
_1-3_
  6
CONTINUOUS
 62
    7
 10
177.10987812763938
 20
212.25387985641893
 40
0.3036581503378378
  0
CIRCLE
  8
_1-3_
  6
CONTINUOUS
 62
    7
 10
176.50254945497255
 20
210.88739343591641
 40
0.3036581503378378
  0
CIRCLE
  8
_1-3_
  6
CONTINUOUS
 62
    7
 10
176.95804905247044
 20
210.88739343591641
 40
0.3036581503378378
  0
CIRCLE
  8
_1-3_
  6
CONTINUOUS
 62
    7
 10
179.53918044631547
 20
211.03922251108531
 40
0.3036581503378378
  0
CIRCLE
  8
_1-3_
  6
CONTINUOUS
 62
    7
 10
188.87463956265836
 20
211.74029376055745
 40
0.3036581503378378
  0
CIRCLE
  8
_1-3_
  6
CONTINUOUS
 62
    7
 10
189.02648100981841
 20
211.28480653505068
 40
0.3036581503378378
  0
CIRCLE
  8
_1-3_
  6
CONTINUOUS
 62
    7
 10
188.57098141232052
 20
210.52563641522383
 40
0.3036581503378378
  0
CIRCLE
  8
_1-3_
  6
CONTINUOUS
 62
    7
 10
190.08929690799198
 20
210.82931930954393
 40
0.3036581503378378
  0
CIRCLE
  8
_1-3_
  6
CONTINUOUS
 62
    7
 10
186.90083684148016
 20
213.25860925622891
 40
0.3036581503378378
  0
CIRCLE
  8
_1-3_
  6
CONTINUOUS
 62
    7
 10
186.90083684148016
 20
211.58846468538852
 40
0.3036581503378378
  0
CIRCLE
  8
_1-3_
  6
CONTINUOUS
 62
    7
 10
186.29350816881336
 20
210.22197826488599
 40
0.3036581503378378
  0
CIRCLE
  8
_1-3_
  6
CONTINUOUS
 62
    7
 10
186.74900776631125
 20
210.22197826488599
 40
0.3036581503378378
  0
CIRCLE
  8
_1-3_
  6
CONTINUOUS
 62
    7
 10
189.33013916015625
 20
210.37380734005492
 40
0.3036581503378378
  0
CIRCLE
  8
_1-3_
  6
CONTINUOUS
 62
    7
 10
183.17116402290964
 20
203.28015301678633
 40
0.3036581503378378
  0
CIRCLE
  8
_1-3_
  6
CONTINUOUS
 62
    7
 10
183.32300547006969
 20
202.82465341928844
 40
0.3036581503378378
  0
CIRCLE
  8
_1-3_
  6
CONTINUOUS
 62
    7
 10
182.8675058725718
 20
202.06549567145271
 40
0.3036581503378378
  0
CIRCLE
  8
_1-3_
  6
CONTINUOUS
 62
    7
 10
184.38582136824326
 20
202.36916619378169
 40
0.3036581503378378
  0
CIRCLE
  8
_1-3_
  6
CONTINUOUS
 62
    7
 10
181.19736130173143
 20
204.79846851245779
 40
0.3036581503378378
  0
CIRCLE
  8
_1-3_
  6
CONTINUOUS
 62
    7
 10
181.19736130173143
 20
203.12832394161742
 40
0.3036581503378378
  0
CIRCLE
  8
_1-3_
  6
CONTINUOUS
 62
    7
 10
180.59003262906461
 20
201.76183752111487
 40
0.3036581503378378
  0
CIRCLE
  8
_1-3_
  6
CONTINUOUS
 62
    7
 10
181.0455322265625
 20
201.76183752111487
 40
0.3036581503378378
  0
CIRCLE
  8
_1-3_
  6
CONTINUOUS
 62
    7
 10
183.62666362040753
 20
201.9136665962838
 40
0.3036581503378378
  0
LINE
  8
_1-2_
  6
CONTINUOUS
 62
    3
 10
182.62863132640933
 20
220.12607747628113
 11
182.62863132640933
 21
220.12607747628113
  0
LINE
  8
_1-2_
  6
CONTINUOUS
 62
    3
 10
182.62863132640933
 20
220.12607747628113
 11
182.57532938441847
 21
220.1740576073324
  0
LINE
  8
_1-2_
  6
CONTINUOUS
 62
    3
 10
182.57532938441847
 20
220.1740576073324
 11
182.50617389405269
 21
220.2166809198358
  0
LINE
  8
_1-2_
  6
CONTINUOUS
 62
    3
 10
182.50617389405269
 20
220.2166809198358
 11
182.42326610989241
 21
220.25265232600938
  0
LINE
  8
_1-2_
  6
CONTINUOUS
 62
    3
 10
182.42326610989241
 20
220.25265232600938
 11
182.32912514300602
 21
220.28087885287894
  0
LINE
  8
_1-2_
  6
CONTINUOUS
 62
    3
 10
182.32912514300602
 20
220.28087885287894
 11
182.22661141903467
 21
220.3005028517089
  0
LINE
  8
_1-2_
  6
CONTINUOUS
 62
    3
 10
182.22661141903467
 20
220.3005028517089
 11
182.11883976560682
 21
220.310928057225
  0
LINE
  8
_1-2_
  6
CONTINUOUS
 62
    3
 10
182.11883976560682
 20
220.310928057225
 11
182.00908476987681
 21
220.31183770483307
  0
LINE
  8
_1-2_
  6
CONTINUOUS
 62
    3
 10
182.00908476987681
 20
220.31183770483307
 11
181.90068128185112
 21
220.30320415535081
  0
LINE
  8
_1-2_
  6
CONTINUOUS
 62
    3
 10
181.90068128185112
 20
220.30320415535081
 11
181.79692308665867
 21
220.28528973481048
  0
LINE
  8
_1-2_
  6
CONTINUOUS
 62
    3
 10
181.79692308665867
 20
220.28528973481048
 11
181.70096282455614
 21
220.25863876381501
  0
LINE
  8
_1-2_
  6
CONTINUOUS
 62
    3
 10
181.70096282455614
 20
220.25863876381501
 11
181.61571619954933
 21
220.22406101863214
  0
LINE
  8
_1-2_
  6
CONTINUOUS
 62
    3
 10
181.61571619954933
 20
220.22406101863214
 11
181.54377338720215
 21
220.182607126552
  0
LINE
  8
_1-2_
  6
CONTINUOUS
 62
    3
 10
181.54377338720215
 20
220.182607126552
 11
181.487320333463
 21
220.13553664310879
  0
LINE
  8
_1-2_
  6
CONTINUOUS
 62
    3
 10
181.487320333463
 20
220.13553664310879
 11
181.44807233580309
 21
220.08427978112314
  0
LINE
  8
_1-2_
  6
CONTINUOUS
 62
    3
 10
181.44807233580309
 20
220.08427978112314
 11
181.42722192477089
 21
220.03039395440922
  0
LINE
  8
_1-2_
  6
CONTINUOUS
 62
    3
 10
181.42722192477089
 20
220.03039395440922
 11
181.42540262955478
 21
219.9755164565442
  0
LINE
  8
_1-2_
  6
CONTINUOUS
 62
    3
 10
181.42540262955478
 20
219.9755164565442
 11
181.44266972851929
 21
219.92131471253137
  0
LINE
  8
_1-2_
  6
CONTINUOUS
 62
    3
 10
181.44266972851929
 20
219.92131471253137
 11
181.47849856959999
 21
219.86943561493513
  0
LINE
  8
_1-2_
  6
CONTINUOUS
 62
    3
 10
181.47849856959999
 20
219.86943561493513
 11
181.53180051159086
 21
219.82145548388385
  0
LINE
  8
_1-2_
  6
CONTINUOUS
 62
    3
 10
181.53180051159086
 20
219.82145548388385
 11
181.60095600195663
 21
219.77883217138046
  0
LINE
  8
_1-2_
  6
CONTINUOUS
 62
    3
 10
181.60095600195663
 20
219.77883217138046
 11
181.68386378611689
 21
219.74286076520687
  0
LINE
  8
_1-2_
  6
CONTINUOUS
 62
    3
 10
181.68386378611689
 20
219.74286076520687
 11
181.7780047530033
 21
219.71463423833731
  0
LINE
  8
_1-2_
  6
CONTINUOUS
 62
    3
 10
181.7780047530033
 20
219.71463423833731
 11
181.88051847697466
 21
219.69501023950735
  0
LINE
  8
_1-2_
  6
CONTINUOUS
 62
    3
 10
181.88051847697466
 20
219.69501023950735
 11
181.9882901304025
 21
219.68458503399125
  0
LINE
  8
_1-2_
  6
CONTINUOUS
 62
    3
 10
181.9882901304025
 20
219.68458503399125
 11
182.09804512613252
 21
219.68367538638319
  0
LINE
  8
_1-2_
  6
CONTINUOUS
 62
    3
 10
182.09804512613252
 20
219.68367538638319
 11
182.20644861415821
 21
219.69230893586544
  0
LINE
  8
_1-2_
  6
CONTINUOUS
 62
    3
 10
182.20644861415821
 20
219.69230893586544
 11
182.31020680935066
 21
219.71022335640578
  0
LINE
  8
_1-2_
  6
CONTINUOUS
 62
    3
 10
182.31020680935066
 20
219.71022335640578
 11
182.40616707145318
 21
219.73687432740124
  0
LINE
  8
_1-2_
  6
CONTINUOUS
 62
    3
 10
182.40616707145318
 20
219.73687432740124
 11
182.49141369646
 21
219.77145207258411
  0
LINE
  8
_1-2_
  6
CONTINUOUS
 62
    3
 10
182.49141369646
 20
219.77145207258411
 11
182.56335650880717
 21
219.81290596466425
  0
LINE
  8
_1-2_
  6
CONTINUOUS
 62
    3
 10
182.56335650880717
 20
219.81290596466425
 11
182.61980956254632
 21
219.85997644810746
  0
LINE
  8
_1-2_
  6
CONTINUOUS
 62
    3
 10
182.61980956254632
 20
219.85997644810746
 11
182.65905756020624
 21
219.91123331009311
  0
LINE
  8
_1-2_
  6
CONTINUOUS
 62
    3
 10
182.65905756020624
 20
219.91123331009311
 11
182.67990797123844
 21
219.96511913680703
  0
LINE
  8
_1-2_
  6
CONTINUOUS
 62
    3
 10
182.67990797123844
 20
219.96511913680703
 11
182.68312809564929
 21
220.00511568438932
  0
LINE
  8
_1-2_
  6
CONTINUOUS
 62
    3
 10
181.3295103976192
 20
220.18947155884024
 11
181.3295103976192
 21
220.18947155884024
  0
LINE
  8
_1-2_
  6
CONTINUOUS
 62
    3
 10
181.3295103976192
 20
220.18947155884024
 11
181.27620845562834
 21
220.23745168989151
  0
LINE
  8
_1-2_
  6
CONTINUOUS
 62
    3
 10
181.27620845562834
 20
220.23745168989151
 11
181.20705296526256
 21
220.28007500239491
  0
LINE
  8
_1-2_
  6
CONTINUOUS
 62
    3
 10
181.20705296526256
 20
220.28007500239491
 11
181.12414518110228
 21
220.3160464085685
  0
LINE
  8
_1-2_
  6
CONTINUOUS
 62
    3
 10
181.12414518110228
 20
220.3160464085685
 11
181.03000421421589
 21
220.34427293543806
  0
LINE
  8
_1-2_
  6
CONTINUOUS
 62
    3
 10
181.03000421421589
 20
220.34427293543806
 11
180.92749049024454
 21
220.36389693426801
  0
LINE
  8
_1-2_
  6
CONTINUOUS
 62
    3
 10
180.92749049024454
 20
220.36389693426801
 11
180.81971883681669
 21
220.37432213978411
  0
LINE
  8
_1-2_
  6
CONTINUOUS
 62
    3
 10
180.81971883681669
 20
220.37432213978411
 11
180.70996384108668
 21
220.37523178739218
  0
LINE
  8
_1-2_
  6
CONTINUOUS
 62
    3
 10
180.70996384108668
 20
220.37523178739218
 11
180.60156035306099
 21
220.36659823790993
  0
LINE
  8
_1-2_
  6
CONTINUOUS
 62
    3
 10
180.60156035306099
 20
220.36659823790993
 11
180.49780215786853
 21
220.34868381736959
  0
LINE
  8
_1-2_
  6
CONTINUOUS
 62
    3
 10
180.49780215786853
 20
220.34868381736959
 11
180.40184189576601
 21
220.32203284637413
  0
LINE
  8
_1-2_
  6
CONTINUOUS
 62
    3
 10
180.40184189576601
 20
220.32203284637413
 11
180.31659527075919
 21
220.28745510119126
  0
LINE
  8
_1-2_
  6
CONTINUOUS
 62
    3
 10
180.31659527075919
 20
220.28745510119126
 11
180.24465245841202
 21
220.24600120911111
  0
LINE
  8
_1-2_
  6
CONTINUOUS
 62
    3
 10
180.24465245841202
 20
220.24600120911111
 11
180.18819940467287
 21
220.19893072566791
  0
LINE
  8
_1-2_
  6
CONTINUOUS
 62
    3
 10
180.18819940467287
 20
220.19893072566791
 11
180.14895140701296
 21
220.14767386368226
  0
LINE
  8
_1-2_
  6
CONTINUOUS
 62
    3
 10
180.14895140701296
 20
220.14767386368226
 11
180.12810099598076
 21
220.09378803696833
  0
LINE
  8
_1-2_
  6
CONTINUOUS
 62
    3
 10
180.12810099598076
 20
220.09378803696833
 11
180.12628170076465
 21
220.03891053910331
  0
LINE
  8
_1-2_
  6
CONTINUOUS
 62
    3
 10
180.12628170076465
 20
220.03891053910331
 11
180.14354879972916
 21
219.98470879509048
  0
LINE
  8
_1-2_
  6
CONTINUOUS
 62
    3
 10
180.14354879972916
 20
219.98470879509048
 11
180.17937764080986
 21
219.93282969749424
  0
LINE
  8
_1-2_
  6
CONTINUOUS
 62
    3
 10
180.17937764080986
 20
219.93282969749424
 11
180.23267958280073
 21
219.88484956644297
  0
LINE
  8
_1-2_
  6
CONTINUOUS
 62
    3
 10
180.23267958280073
 20
219.88484956644297
 11
180.3018350731665
 21
219.84222625393957
  0
LINE
  8
_1-2_
  6
CONTINUOUS
 62
    3
 10
180.3018350731665
 20
219.84222625393957
 11
180.38474285732676
 21
219.80625484776598
  0
LINE
  8
_1-2_
  6
CONTINUOUS
 62
    3
 10
180.38474285732676
 20
219.80625484776598
 11
180.47888382421317
 21
219.77802832089642
  0
LINE
  8
_1-2_
  6
CONTINUOUS
 62
    3
 10
180.47888382421317
 20
219.77802832089642
 11
180.58139754818453
 21
219.75840432206647
  0
LINE
  8
_1-2_
  6
CONTINUOUS
 62
    3
 10
180.58139754818453
 20
219.75840432206647
 11
180.68916920161237
 21
219.74797911655037
  0
LINE
  8
_1-2_
  6
CONTINUOUS
 62
    3
 10
180.68916920161237
 20
219.74797911655037
 11
180.79892419734239
 21
219.7470694689423
  0
LINE
  8
_1-2_
  6
CONTINUOUS
 62
    3
 10
180.79892419734239
 20
219.7470694689423
 11
180.90732768536807
 21
219.75570301842455
  0
LINE
  8
_1-2_
  6
CONTINUOUS
 62
    3
 10
180.90732768536807
 20
219.75570301842455
 11
181.01108588056053
 21
219.77361743896489
  0
LINE
  8
_1-2_
  6
CONTINUOUS
 62
    3
 10
181.01108588056053
 20
219.77361743896489
 11
181.10704614266305
 21
219.80026840996035
  0
LINE
  8
_1-2_
  6
CONTINUOUS
 62
    3
 10
181.10704614266305
 20
219.80026840996035
 11
181.19229276766987
 21
219.83484615514323
  0
LINE
  8
_1-2_
  6
CONTINUOUS
 62
    3
 10
181.19229276766987
 20
219.83484615514323
 11
181.26423558001704
 21
219.87630004722337
  0
LINE
  8
_1-2_
  6
CONTINUOUS
 62
    3
 10
181.26423558001704
 20
219.87630004722337
 11
181.32068863375619
 21
219.92337053066657
  0
LINE
  8
_1-2_
  6
CONTINUOUS
 62
    3
 10
181.32068863375619
 20
219.92337053066657
 11
181.3599366314161
 21
219.97462739265222
  0
LINE
  8
_1-2_
  6
CONTINUOUS
 62
    3
 10
181.3599366314161
 20
219.97462739265222
 11
181.3807870424483
 21
220.02851321936615
  0
LINE
  8
_1-2_
  6
CONTINUOUS
 62
    3
 10
181.3807870424483
 20
220.02851321936615
 11
181.38400716685916
 21
220.06850976694844
  0
TEXT
  8
_0-0_
 62
    7
 10
141.89189395389042
 20
14.594594594594582
 40
2.5
 41
1
 50
0
  1
縮尺
  0
TEXT
  8
_0-0_
 62
    7
 10
377.10214563318203
 20
22.865493362014362
 40
2.5
 41
1
 50
0
  1
ＮＯ
  0
TEXT
  8
_0-0_
 62
    7
 10
14.594594336844779
 20
24.324324324324323
 40
2.5
 41
1
 50
0
  1
和形
  0
TEXT
  8
_0-0_
 62
    7
 10
383.23801896378802
 20
18.523427086907475
 40
3
 41
1
 50
0
  1
Ｊ
  0
TEXT
  8
_1-0_
 62
    7
 10
169.90681828679266
 20
13.3181144095756
 40
2.5
 41
1
 50
0
  1
1/5
  0
TEXT
  8
_1-5_
 62
    7
 10
77.173497999036641
 20
174.37339164115289
 40
2.5
 41
1
 50
0
  1
桟瓦
  0
TEXT
  8
_1-5_
 62
    7
 10
269.76520435230151
 20
182.18276565139359
 40
2.5
 41
1
 50
0
  1
瓦桟　
  0
TEXT
  8
_1-5_
 62
    7
 10
269.76676322318411
 20
175.1827673009924
 40
2.5
 41
1
 50
0
  1
流し桟
  0
TEXT
  8
_1-5_
 62
    7
 10
39.721903414339636
 20
15.395235628695104
 40
2.5
 41
1
 50
0
  1
棟　　1
  0
TEXT
  8
_1-5_
 62
    7
 10
269.09446510108739
 20
188.60953253668708
 40
2.5
 41
1
 50
0
  1
桟瓦
  0
TEXT
  8
_1-3_
 62
    7
 10
215.05531929634714
 20
202.72265872439823
 40
2.5
 41
1
 50
0
  1
のし瓦
  0
TEXT
  8
_1-2_
 62
    7
 10
132.97297297297297
 20
233.51351351351352
 40
2.5
 41
1
 50
0
  1
鉄筋　９Φ　＠1000
  0
TEXT
  8
_1-1_
 62
    7
 10
134.41772254737648
 20
230.10512893264359
 40
2.5
 41
1
 50
0
  1
鉄骨下地に溶接
  0
TEXT
  8
_1-1_
 62
    7
 10
269.76676734718114
 20
157.12589573215794
 40
2.5
 41
1
 50
0
  1
垂木　Ｃ－100ｘ50ｘ20ｘ2.3
  0
TEXT
  8
_1-1_
 62
    7
 10
25.556194717819636
 20
20.211577544341225
 40
2.5
 41
1
 50
0
  1
鉄骨
  0
TEXT
  8
_1-1_
 62
    7
 10
269.76675909918708
 20
162.31008168813347
 40
2.5
 41
1
 50
0
  1
硬質木片セメント板　　ｔ＝18
  0
TEXT
  8
_1-3_
 62
    7
 10
170.76110358137609
 20
128.1338539097747
 40
2.5
 41
1
 50
24.227719460851677
  1
250
  0
TEXT
  8
_1-3_
 62
    7
 10
189.63050566778867
 20
129.50232047261551
 40
2.5
 41
1
 50
-24.227719460851677
  1
250
  0
TEXT
  8
_1-1_
 62
    7
 10
393.34655349319047
 20
16.120735374656874
 40
2.5
 41
1
 50
0
  1
43
  0
TEXT
  8
_1-1_
 62
    7
 10
144.01721438846073
 20
242.06931449271539
 40
2.5
 41
1
 50
0
  1
横鉄筋　９φ
  0
TEXT
  8
_1-3_
 62
    7
 10
212.95419229043497
 20
248.06210904508026
 40
2.5
 41
1
 50
0
  1
冠瓦
  0
TEXT
  8
_1-1_
 62
    7
 10
209.3552996661212
 20
229.39769847972974
 40
2.5
 41
1
 50
0
  1
銅線緊結
  0
TEXT
  8
_1-1_
 62
    7
 10
101.42404607824378
 20
204.127102413693
 40
2.5
 41
1
 50
0
  1
面戸漆喰及び葺き土
  0
TEXT
  8
_1-1_
 62
    7
 10
279.04506374049834
 20
182.05517330685177
 40
2.5
 41
1
 50
0
  1
15×21以上　（防腐処理）
  0
TEXT
  8
_1-1_
 62
    7
 10
279.04630093961151
 20
179.10512150944891
 40
2.5
 41
1
 50
0
  1
※　地域により瓦桟木の大きさは、異なります
  0
TEXT
  8
_1-1_
 62
    7
 10
269.80437407622469
 20
168.82611248944258
 40
2.5
 41
1
 50
0
  1
下葺き材　　アスファルトルーフィング９４０
  0
POINT
  8
_1-3_
 62
    7
 10
149.96090450802365
 20
118.225472939981
  0
POINT
  8
_1-3_
 62
    7
 10
195.39137556746201
 20
138.66918615392737
  0
POINT
  8
_1-3_
 62
    7
 10
168.33713428394216
 20
138.5360387853674
  0
POINT
  8
_1-3_
 62
    7
 10
213.93320444467906
 20
118.01780906883447
  0
TEXT
  8
_1-3_
 62
    7
 10
133.82881370750636
 20
62.851836745803425
 40
2.5
 41
1
 50
0
  1
棟部分の下葺き材（アスファルトルーフィング）は、両方向へそれぞれ250ｍｍ以上重ね合わせること。
  0
TEXT
  8
_1-3_
 62
    7
 10
133.91660535657729
 20
58.740512744800469
 40
2.5
 41
1
 50
0
  1
隅棟部分の下葺き材（アスファルトルーフィング）は、重ね貼りの上に両方向へそれぞれ250ｍｍ以上増し貼りをすること。
  0
ENDSEC
  0
EOF
