  0
SECTION
  2
HEADER
  9
$ACADVER
  1
AC1009
  9
$INSBASE
 10
0
 20
0
 30
0
  9
$EXTMIN
 10
0
 20
0
  9
$EXTMAX
 10
420
 20
297
  9
$LIMMIN
 10
0
 20
0
  9
$LIMMAX
 10
420
 20
297
  9
$LTSCALE
 40
1
  0
ENDSEC
  0
SECTION
  2
TABLES
  0
TABLE
  2
LTYPE
 70
     9
  0
LTYPE
  2
CONTINUOUS
 70
    64
  3
実線
 72
    65
 73
     0
 40
0.0
  0
LTYPE
  2
DASHED1
 70
    64
  3
--  --  --  --  --  --  --  --  
 72
    65
 73
     2
 40
2.5
 49
1.25
 49
-1.25
  0
LTYPE
  2
DASHED2
 70
    64
  3
----    ----    ----    ----    
 72
    65
 73
     2
 40
5.0
 49
2.5
 49
-2.5
  0
LTYPE
  2
DASHED3
 70
    64
  3
------  ------  ------  ------  
 72
    65
 73
     2
 40
5.0
 49
3.75
 49
-1.25
  0
LTYPE
  2
CENTER1
 70
    64
  3
----- - ----- - ----- - ----- - 
 72
    65
 73
     4
 40
10.0
 49
6.25
 49
-1.25
 49
1.25
 49
-1.25
  0
LTYPE
  2
CENTER2
 70
    64
  3
----------  --  ----------  --  
 72
    65
 73
     4
 40
20.0
 49
12.5
 49
-2.5
 49
2.5
 49
-2.5
  0
LTYPE
  2
PHANTOM1
 70
    64
  3
--- - - --- - - --- - - --- - - 
 72
    65
 73
     6
 40
10.0
 49
3.25
 49
-1.25
 49
1.25
 49
-1.25
 49
1.25
 49
-1.25
  0
LTYPE
  2
PHANTOM2
 70
    64
  3
--------  -  -  --------  -  -  
 72
    65
 73
     6
 40
20.0
 49
10.0
 49
-2.5
 49
1.25
 49
-2.5
 49
1.25
 49
-2.5
  0
LTYPE
  2
DOT
 70
    64
  3
-   -   -   -   -   -   -   -   
 72
    65
 73
     2
 40
2.5
 49
0.625
 49
-1.875
  0
LTYPE
  2
DUMMY
 70
    64
  3
ダミー
 72
    65
 73
     0
 40
0.0
  0
LTYPE
  2
RAND1
 70
    64
  3
ランダム線1
 72
    65
 73
     4
 40
10.0
 49
1.0
 49
-2.0
 49
3.0
 49
-4.0
  0
LTYPE
  2
RAND2
 70
    64
  3
ランダム線2
 72
    65
 73
     4
 40
14.0
 49
2.0
 49
-3.0
 49
4.0
 49
-5.0
  0
LTYPE
  2
RAND3
 70
    64
  3
ランダム線3
 72
    65
 73
     4
 40
18.0
 49
3.0
 49
-4.0
 49
5.0
 49
-6.0
  0
LTYPE
  2
RAND4
 70
    64
  3
ランダム線4
 72
    65
 73
     4
 40
22.0
 49
4.0
 49
-5.0
 49
6.0
 49
-7.0
  0
LTYPE
  2
RAND5
 70
    64
  3
ランダム線5
 72
    65
 73
     4
 40
26.0
 49
5.0
 49
-6.0
 49
7.0
 49
-8.0
  0
LTYPE
  2
LONG1
 70
    64
  3
----------  --  ----------  --  
 72
    65
 73
     4
 40
40.0
 49
32.5
 49
-2.5
 49
2.5
 49
-2.5
  0
LTYPE
  2
LONG2
 70
    64
  3
--------  -  -  --------  -  -  
 72
    65
 73
     6
 40
40.0
 49
30.0
 49
-2.5
 49
1.25
 49
-2.5
 49
1.25
 49
-2.5
  0
LTYPE
  2
LONG3
 70
    64
  3
+++++++++++++++..+++++++++++++++
 72
    65
 73
     2
 40
40.0
 49
37.5
 49
-2.5
  0
LTYPE
  2
LONG4
 70
    64
  3
+++++++++++++++..+++++++++++++++
 72
    65
 73
     2
 40
80.0
 49
75.0
 49
-5.0
  0
LTYPE
  2
LONG5
 70
    64
  3
----------  --  ----------  --  
 72
    65
 73
     4
 40
60.0
 49
37.5
 49
-7.5
 49
7.5
 49
-7.5
  0
LTYPE
  2
dashed
 70
   64
  3
-------   -------------   ------
 72
   65
 73
    2
 40
7.5
 49
6
 49
-1.5
  0
LTYPE
  2
dashed_spaced
 70
   64
  3
----        --------        ----
 72
   65
 73
    2
 40
12
 49
6
 49
-6
  0
LTYPE
  2
long_dashed_dotted
 70
   64
  3
------------- --- --------------
 72
   65
 73
    4
 40
15.25
 49
12
 49
-1.5
 49
0.25
 49
-1.5
  0
LTYPE
  2
long_dashed_double-dotted
 70
   64
  3
----------- --- --- ------------
 72
   65
 73
    6
 40
17
 49
12
 49
-1.5
 49
0.25
 49
-1.5
 49
0.25
 49
-1.5
  0
LTYPE
  2
long_dashed_triplicate-dotted
 70
   64
  3
--------- --- --- --- ----------
 72
   65
 73
    8
 40
18.75
 49
12
 49
-1.5
 49
0.25
 49
-1.5
 49
0.25
 49
-1.5
 49
0.25
 49
-1.5
  0
LTYPE
  2
dotted
 70
   64
  3
   -       -       -       -    
 72
   65
 73
    2
 40
1.75
 49
0.25
 49
-1.5
  0
LTYPE
  2
chain
 70
   64
  3
-------------- -- --------------
 72
   65
 73
    4
 40
18.5
 49
12
 49
-1.5
 49
3.5
 49
-1.5
  0
LTYPE
  2
chain_double_dash
 70
   64
  3
------------ -- -- -------------
 72
   65
 73
    6
 40
23.5
 49
12
 49
-1.5
 49
3.5
 49
-1.5
 49
3.5
 49
-1.5
  0
LTYPE
  2
dashed_dotted
 70
   64
  3
-----------     -     ----------
 72
   65
 73
    4
 40
9.25
 49
6
 49
-1.5
 49
0.25
 49
-1.5
  0
LTYPE
  2
double-dashed_dotted
 70
   64
  3
------   -----------   -   -----
 72
   65
 73
    6
 40
16.75
 49
6
 49
-1.5
 49
6
 49
-1.5
 49
0.25
 49
-1.5
  0
LTYPE
  2
dashed_double-dotted
 70
   64
  3
---------    -    -    ---------
 72
   65
 73
    6
 40
11
 49
6
 49
-1.5
 49
0.25
 49
-1.5
 49
0.25
 49
-1.5
  0
LTYPE
  2
double-dashed_double-dotted
 70
   64
  3
-----   ---------   -   -   ----
 72
   65
 73
    8
 40
18.5
 49
6
 49
-1.5
 49
6
 49
-1.5
 49
0.25
 49
-1.5
 49
0.25
 49
-1.5
  0
LTYPE
  2
dashed_triplicate-dotted
 70
   64
  3
-------    -    -    -    ------
 72
   65
 73
    8
 40
12.75
 49
6
 49
-1.5
 49
0.25
 49
-1.5
 49
0.25
 49
-1.5
 49
0.25
 49
-1.5
  0
LTYPE
  2
double-dashed_triplicate-dotted
 70
   64
  3
-----  ---------  -  -  -  -----
 72
   65
 73
   10
 40
20.25
 49
6
 49
-1.5
 49
6
 49
-1.5
 49
0.25
 49
-1.5
 49
0.25
 49
-1.5
 49
0.25
 49
-1.5
  0
LTYPE
  2
undefined
 70
   64
  3
--------------------------------
 72
   65
 73
    0
 40
0
  0
LTYPE
  2
DOT_17
 70
   64
  3
--             ---             -
 72
   65
 73
    2
 40
5
 49
1
 49
-4
  0
LTYPE
  2
DASHED
 70
   64
  3
---          ------          ---
 72
   65
 73
    2
 40
5
 49
2
 49
-3
  0
LTYPE
  2
DASHED2_19
 70
   64
  3
---          ------          ---
 72
   65
 73
    2
 40
10
 49
4
 49
-6
  0
LTYPE
  2
CENTER
 70
   64
  3
----------    ----    ----------
 72
   65
 73
    4
 40
9
 49
6
 49
-1
 49
1
 49
-1
  0
LTYPE
  2
CENTER2_21
 70
   64
  3
----------    ----    ----------
 72
   65
 73
    4
 40
18
 49
12
 49
-2
 49
2
 49
-2
  0
LTYPE
  2
PHANTOM
 70
   64
  3
---------   ---   ---   --------
 72
   65
 73
    6
 40
10
 49
5
 49
-1
 49
1
 49
-1
 49
1
 49
-1
  0
LTYPE
  2
PHANTOM2_23
 70
   64
  3
------    ----    ----    ------
 72
   65
 73
    6
 40
16
 49
6
 49
-2
 49
2
 49
-2
 49
2
 49
-2
  0
LTYPE
  2
HIDDEN
 70
   64
  3
--             ---             -
 72
   65
 73
    2
 40
2.5
 49
0.5
 49
-2
  0
ENDTAB
  0
TABLE
  2
STYLE
  5
3
100
AcDbSymbolTable
 70
     1
  0
STYLE
  5
10
100
AcDbSymbolTableRecord
100
AcDbTextStyleTableRecord
  2
STANDARD
 70
     0
 40
0.0
 41
1.0
 50
0.0
 71
     0
 42
0.2
  3
txt
  4
bigfont.shx
  0
STYLE
  5
26
100
AcDbSymbolTableRecord
100
AcDbTextStyleTableRecord
  2
TATEGAKI
 70
    68
 40
0.0
 41
1.0
 50
0.0
 71
     0
 42
1.0
  3
txt
  4
bigfont.shx
  0
ENDTAB
  0
TABLE
  2
LAYER
 70
    6
  0
LAYER
  2
_0-0_
 70
   64
 62
    7
  6
CONTINUOUS
  0
LAYER
  2
_1-0_
 70
   64
 62
    7
  6
CONTINUOUS
  0
LAYER
  2
_1-1_
 70
   64
 62
    7
  6
CONTINUOUS
  0
LAYER
  2
_1-2_
 70
   64
 62
    7
  6
CONTINUOUS
  0
LAYER
  2
_1-3_
 70
   64
 62
    7
  6
CONTINUOUS
  0
LAYER
  2
ADD_LINE
 70
   64
 62
    7
  6
CONTINUOUS
  0
ENDTAB
  0
ENDSEC
  0
SECTION
  2
BLOCKS
  0
ENDSEC
  0
SECTION
  2
ENTITIES
  0
LINE
  8
_0-0_
  6
CONTINUOUS
 62
    5
 10
6.7567526327597136
 20
280.13513513513516
 11
406.75677325274495
 21
280.13513513513516
  0
LINE
  8
_0-0_
  6
CONTINUOUS
 62
    5
 10
406.75677325274495
 20
10.13513513513513
 11
6.7567526327597136
 21
10.13513513513513
  0
LINE
  8
_0-0_
  6
CONTINUOUS
 62
    5
 10
406.75677325274495
 20
30.135133073136615
 11
6.7567402607685949
 21
30.135133073136615
  0
LINE
  8
_0-0_
  6
CONTINUOUS
 62
    5
 10
371.75678150073907
 20
10.13513513513513
 11
371.75678150073907
 21
30.135133073136615
  0
LINE
  8
_0-0_
  6
CONTINUOUS
 62
    5
 10
137.02703939901818
 20
30.135133073136615
 11
137.02703939901818
 21
10.13513513513513
  0
LINE
  8
_0-0_
  6
CONTINUOUS
 62
    5
 10
214.86486486486487
 20
30.135133073136615
 11
214.86486486486487
 21
10.13513513513513
  0
LINE
  8
_0-0_
  6
CONTINUOUS
 62
    5
 10
137.02703939901818
 20
20.135134104135886
 11
214.86486486486487
 21
20.135134104135886
  0
LINE
  8
ADD_LINE
  6
DOT
 62
    5
 10
224.59459459459461
 20
33.243243243243242
 11
224.59459459459461
 21
4.8648644782401504
  0
LINE
  8
_1-1_
  6
CONTINUOUS
 62
    7
 10
126.31341470254435
 20
136.32645065720018
 11
66.486474114495365
 21
136.32645065720018
  0
LINE
  8
_1-1_
  6
CONTINUOUS
 62
    7
 10
126.31341470254435
 20
136.32645065720018
 11
242.83313648120779
 21
136.32645065720018
  0
LINE
  8
_1-1_
  6
CONTINUOUS
 62
    7
 10
66.486474114495365
 20
133.32645313159841
 11
242.83313648120779
 21
133.32645313159841
  0
LINE
  8
_1-1_
  6
CONTINUOUS
 62
    7
 10
242.83313648120779
 20
136.32645065720018
 11
242.83313648120779
 21
133.32645313159841
  0
LINE
  8
_1-1_
  6
CONTINUOUS
 62
    7
 10
235.47618144267315
 20
132.72644867768159
 11
235.47618144267315
 21
133.32644075960727
  0
LINE
  8
_1-1_
  6
CONTINUOUS
 62
    7
 10
235.47618144267315
 20
133.32644075960727
 11
240.2761675860431
 21
133.32644075960727
  0
LINE
  8
_1-1_
  6
CONTINUOUS
 62
    7
 10
240.2761675860431
 20
133.32644075960727
 11
240.2761675860431
 21
132.72644867768159
  0
LINE
  8
_1-1_
  6
CONTINUOUS
 62
    7
 10
240.2761675860431
 20
132.72644867768159
 11
235.47618144267315
 21
132.72644867768159
  0
LINE
  8
_1-1_
  6
CONTINUOUS
 62
    7
 10
235.47618144267315
 20
132.72644867768159
 11
240.2761675860431
 21
133.32644075960727
  0
LINE
  8
_1-1_
  6
CONTINUOUS
 62
    7
 10
66.486474114495365
 20
132.72644867768159
 11
240.2761675860431
 21
132.72644867768159
  0
LINE
  8
_1-1_
  6
CONTINUOUS
 62
    3
 10
243.88814565297722
 20
132.47366415487755
 11
243.88814565297722
 21
136.32645065720018
  0
LINE
  8
_1-1_
  6
CONTINUOUS
 62
    3
 10
243.88814565297722
 20
136.32645065720018
 11
247.99698288376268
 21
136.32645065720018
  0
LINE
  8
_1-1_
  6
CONTINUOUS
 62
    7
 10
272.27033460462417
 20
131.49927087732263
 11
66.486474114495365
 21
131.49927087732263
  0
LINE
  8
_1-1_
  6
CONTINUOUS
 62
    3
 10
243.88814565297722
 20
132.47366415487755
 11
267.80305604676943
 21
132.47366415487755
  0
LINE
  8
_1-1_
  6
DASHED1
 62
    3
 10
271.80579108160896
 20
131.99859206740922
 11
66.486474114495365
 21
131.99859206740922
  0
LINE
  8
_1-1_
  6
CONTINUOUS
 62
    7
 10
271.30925358952703
 20
132.3484348606419
 11
268.30924369193411
 21
132.3484348606419
  0
LINE
  8
_1-1_
  6
CONTINUOUS
 62
    7
 10
203.09510514542865
 20
132.72644867768159
 11
203.09510514542865
 21
133.32644075960727
  0
LINE
  8
_1-1_
  6
CONTINUOUS
 62
    7
 10
203.09510514542865
 20
133.32644075960727
 11
207.89507891680745
 21
133.32644075960727
  0
LINE
  8
_1-1_
  6
CONTINUOUS
 62
    7
 10
207.89507891680745
 20
133.32644075960727
 11
207.89507891680745
 21
132.72644867768159
  0
LINE
  8
_1-1_
  6
CONTINUOUS
 62
    7
 10
207.89507891680745
 20
132.72644867768159
 11
203.09510514542865
 21
132.72644867768159
  0
LINE
  8
_1-1_
  6
CONTINUOUS
 62
    7
 10
203.09510514542865
 20
132.72644867768159
 11
207.89507891680745
 21
133.32644075960727
  0
LINE
  8
_1-1_
  6
CONTINUOUS
 62
    7
 10
141.45506162901182
 20
132.72644867768159
 11
141.45506162901182
 21
133.32644075960727
  0
LINE
  8
_1-1_
  6
CONTINUOUS
 62
    7
 10
141.45506162901182
 20
133.32644075960727
 11
146.25504777238177
 21
133.32644075960727
  0
LINE
  8
_1-1_
  6
CONTINUOUS
 62
    7
 10
146.25504777238177
 20
133.32644075960727
 11
146.25504777238177
 21
132.72644867768159
  0
LINE
  8
_1-1_
  6
CONTINUOUS
 62
    7
 10
146.25504777238177
 20
132.72644867768159
 11
141.45506162901182
 21
132.72644867768159
  0
LINE
  8
_1-1_
  6
CONTINUOUS
 62
    7
 10
141.45506162901182
 20
132.72644867768159
 11
146.25504777238177
 21
133.32644075960727
  0
LINE
  8
_1-1_
  6
CONTINUOUS
 62
    7
 10
80.341879354940886
 20
132.72644867768159
 11
80.341879354940886
 21
133.32644075960727
  0
LINE
  8
_1-1_
  6
CONTINUOUS
 62
    7
 10
80.341879354940886
 20
133.32644075960727
 11
85.141865498310821
 21
133.32644075960727
  0
LINE
  8
_1-1_
  6
CONTINUOUS
 62
    7
 10
85.141865498310821
 20
133.32644075960727
 11
85.141865498310821
 21
132.72644867768159
  0
LINE
  8
_1-1_
  6
CONTINUOUS
 62
    7
 10
85.141865498310821
 20
132.72644867768159
 11
80.341879354940886
 21
132.72644867768159
  0
LINE
  8
_1-1_
  6
CONTINUOUS
 62
    7
 10
80.341879354940886
 20
132.72644867768159
 11
85.141865498310821
 21
133.32644075960727
  0
LINE
  8
_1-3_
  6
CONTINUOUS
 62
    7
 10
255.03286000844597
 20
133.70864868164062
 11
232.83733471019849
 21
72.726918813344597
  0
LINE
  8
_1-3_
  6
CONTINUOUS
 62
    7
 10
255.03286000844597
 20
133.70864868164062
 11
255.9741953256968
 21
132.41811391469597
  0
LINE
  8
_1-3_
  6
CONTINUOUS
 62
    7
 10
232.83733471019849
 20
72.726918813344597
 11
223.7837837837838
 21
72.726918813344597
  0
LINE
  8
_1-3_
  6
CONTINUOUS
 62
    7
 10
113.60742929819469
 20
176.82719050226987
 11
126.5013328758446
 21
176.82719050226987
  0
LINE
  8
_1-3_
  6
CONTINUOUS
 62
    7
 10
113.60742929819469
 20
182.51539900496201
 11
124.43100387985642
 21
182.51539900496201
  0
LINE
  8
_1-3_
  6
CONTINUOUS
 62
    7
 10
113.60742929819469
 20
187.95627903293919
 11
122.45068111935178
 21
187.95627903293919
  0
LINE
  8
_1-3_
  6
CONTINUOUS
 62
    7
 10
113.60742929819469
 20
193.89179126636404
 11
120.29033351588895
 21
193.89179126636404
  0
LINE
  8
_1-3_
  6
CONTINUOUS
 62
    7
 10
250.46135979729732
 20
147.69756007838893
 11
258.78830368454391
 21
147.87592707453547
  0
LINE
  8
_1-1_
  6
CONTINUOUS
 62
    7
 10
272.27033460462417
 20
129.09926543364654
 11
66.486474114495365
 21
129.09926543364654
  0
LINE
  8
_1-1_
  6
CONTINUOUS
 62
    7
 10
272.27033460462417
 20
129.09926543364654
 11
274.26066630595443
 21
129.09926543364654
  0
LINE
  8
_1-1_
  6
CONTINUOUS
 62
    7
 10
274.26066630595443
 20
129.09926543364654
 11
274.67032767630911
 21
129.09926543364654
  0
LINE
  8
_1-1_
  6
CONTINUOUS
 62
    3
 10
189.27032058303422
 20
125.09926460884714
 11
189.67033180030617
 21
125.09926460884714
  0
LINE
  8
_1-1_
  6
CONTINUOUS
 62
    3
 10
189.67033180030617
 20
113.09927450644004
 11
189.27032058303422
 21
113.09927450644004
  0
LINE
  8
_1-1_
  6
CONTINUOUS
 62
    3
 10
188.27031728383659
 20
128.6992665883657
 11
181.07036281276393
 21
128.6992665883657
  0
LINE
  8
_1-1_
  6
CONTINUOUS
 62
    3
 10
189.27032058303422
 20
127.69926328916809
 11
189.27032058303422
 21
125.09926460884714
  0
LINE
  8
_1-1_
  6
CONTINUOUS
 62
    3
 10
189.67033180030617
 20
128.09926213444891
 11
189.67033180030617
 21
125.09926460884714
  0
LINE
  8
_1-1_
  6
CONTINUOUS
 62
    3
 10
188.67032850110854
 20
129.09926543364654
 11
180.67035159549198
 21
129.09926543364654
  0
LINE
  8
_1-1_
  6
CONTINUOUS
 62
    3
 10
189.27032058303422
 20
110.49926345412796
 11
189.27032058303422
 21
113.09927450644004
  0
LINE
  8
_1-1_
  6
CONTINUOUS
 62
    3
 10
189.67033180030617
 20
110.09926460884714
 11
189.67033180030617
 21
113.09927450644004
  0
LINE
  8
_1-1_
  6
CONTINUOUS
 62
    3
 10
181.07036281276393
 20
109.49927252692146
 11
188.27031728383659
 21
109.49927252692146
  0
LINE
  8
_1-1_
  6
CONTINUOUS
 62
    3
 10
180.0703595135663
 20
110.49926345412796
 11
180.0703595135663
 21
127.69926328916809
  0
LINE
  8
_1-1_
  6
CONTINUOUS
 62
    3
 10
179.67034829629435
 20
110.09926460884714
 11
179.67034829629435
 21
128.09926213444891
  0
LINE
  8
_1-1_
  6
CONTINUOUS
 62
    3
 10
180.67035159549198
 20
109.09926130964951
 11
188.67032850110854
 21
109.09926130964951
  0
LINE
  8
ADD_LINE
  6
DOT
 62
    3
 10
180.67035159549198
 20
129.09926543364654
 11
179.2720939017631
 21
129.09926543364654
  0
LINE
  8
_1-1_
  6
CONTINUOUS
 62
    3
 10
274.27031645903719
 20
125.08454193940034
 11
274.67032767630911
 21
125.08454193940034
  0
LINE
  8
_1-1_
  6
CONTINUOUS
 62
    3
 10
274.67032767630911
 20
113.08453946500212
 11
274.27031645903719
 21
113.08453946500212
  0
LINE
  8
_1-1_
  6
CONTINUOUS
 62
    3
 10
273.27031315983953
 20
128.68454391891893
 11
266.07035868876693
 21
128.68454391891893
  0
LINE
  8
_1-1_
  6
CONTINUOUS
 62
    3
 10
274.27031645903719
 20
127.68454061972129
 11
274.27031645903719
 21
125.08454193940034
  0
LINE
  8
_1-1_
  6
CONTINUOUS
 62
    3
 10
274.67032767630911
 20
128.08453946500211
 11
274.67032767630911
 21
125.08454193940034
  0
LINE
  8
_1-1_
  6
CONTINUOUS
 62
    3
 10
273.67032437711151
 20
129.08454276419977
 11
265.67034747149495
 21
129.08454276419977
  0
LINE
  8
_1-1_
  6
CONTINUOUS
 62
    3
 10
274.27031645903719
 20
110.48454078468117
 11
274.27031645903719
 21
113.08453946500212
  0
LINE
  8
_1-1_
  6
CONTINUOUS
 62
    3
 10
274.67032767630911
 20
110.08454193940034
 11
274.67032767630911
 21
113.08453946500212
  0
LINE
  8
_1-1_
  6
CONTINUOUS
 62
    3
 10
266.07035868876693
 20
109.48453748548354
 11
273.27031315983953
 21
109.48453748548354
  0
LINE
  8
_1-1_
  6
CONTINUOUS
 62
    3
 10
265.07035538956927
 20
110.48454078468117
 11
265.07035538956927
 21
127.68454061972129
  0
LINE
  8
_1-1_
  6
CONTINUOUS
 62
    3
 10
264.67034417229729
 20
110.08454193940034
 11
264.67034417229729
 21
128.08453946500211
  0
LINE
  8
_1-1_
  6
CONTINUOUS
 62
    3
 10
265.67034747149495
 20
109.08455101219384
 11
273.67032437711151
 21
109.08455101219384
  0
LINE
  8
ADD_LINE
  6
DOT
 62
    3
 10
265.67034747149495
 20
129.08454276419977
 11
264.27208977776604
 21
129.08454276419977
  0
LINE
  8
ADD_LINE
  6
DOT
 62
    3
 10
264.67034417229729
 20
128.08453946500211
 11
264.67034417229729
 21
129.59579055373734
  0
LINE
  8
_1-1_
  6
CONTINUOUS
 62
    3
 10
99.270314397038646
 20
125.09926460884714
 11
99.670325614310599
 21
125.09926460884714
  0
LINE
  8
_1-1_
  6
CONTINUOUS
 62
    3
 10
99.670325614310599
 20
113.09927450644004
 11
99.270314397038646
 21
113.09927450644004
  0
LINE
  8
_1-1_
  6
CONTINUOUS
 62
    3
 10
98.270311097841017
 20
128.6992665883657
 11
91.070356626768373
 21
128.6992665883657
  0
LINE
  8
_1-1_
  6
CONTINUOUS
 62
    3
 10
99.270314397038646
 20
127.69926328916809
 11
99.270314397038646
 21
125.09926460884714
  0
LINE
  8
_1-1_
  6
CONTINUOUS
 62
    3
 10
99.670325614310599
 20
128.09926213444891
 11
99.670325614310599
 21
125.09926460884714
  0
LINE
  8
_1-1_
  6
CONTINUOUS
 62
    3
 10
98.670322315112969
 20
129.09926543364654
 11
90.67034540949642
 21
129.09926543364654
  0
LINE
  8
_1-1_
  6
CONTINUOUS
 62
    3
 10
99.270314397038646
 20
110.49926345412796
 11
99.270314397038646
 21
113.09927450644004
  0
LINE
  8
_1-1_
  6
CONTINUOUS
 62
    3
 10
99.670325614310599
 20
110.09926460884714
 11
99.670325614310599
 21
113.09927450644004
  0
LINE
  8
_1-1_
  6
CONTINUOUS
 62
    3
 10
91.070356626768373
 20
109.49927252692146
 11
98.270311097841017
 21
109.49927252692146
  0
LINE
  8
_1-1_
  6
CONTINUOUS
 62
    3
 10
90.070353327570743
 20
110.49926345412796
 11
90.070353327570743
 21
127.69926328916809
  0
LINE
  8
_1-1_
  6
CONTINUOUS
 62
    3
 10
89.670342110298776
 20
110.09926460884714
 11
89.670342110298776
 21
128.09926213444891
  0
LINE
  8
_1-1_
  6
CONTINUOUS
 62
    3
 10
90.67034540949642
 20
109.09926130964951
 11
98.670322315112969
 21
109.09926130964951
  0
LINE
  8
ADD_LINE
  6
DOT
 62
    3
 10
90.67034540949642
 20
129.09926543364654
 11
89.272087715767526
 21
129.09926543364654
  0
LINE
  8
ADD_LINE
  6
DOT
 62
    3
 10
90.67034540949642
 20
109.09926130964951
 11
88.771046818913646
 21
109.09926130964951
  0
LINE
  8
ADD_LINE
  6
DOT
 62
    3
 10
89.670342110298776
 20
110.09926460884714
 11
89.670342110298776
 21
108.66757779508025
  0
LINE
  8
_1-3_
  6
CONTINUOUS
 62
    7
 10
143.87288273991766
 20
129.09926543364654
 11
117.64015403953759
 21
201.17309157912797
  0
LINE
  8
_1-1_
  6
CONTINUOUS
 62
    7
 10
117.64015403953759
 20
201.17309157912797
 11
112.78317013302366
 21
201.17309157912797
  0
LINE
  8
_0-0_
  6
CONTINUOUS
 62
    5
 10
396.48648648648651
 20
25.945945945945951
 11
383.91891891891896
 21
13.378379924877265
  0
LINE
  8
_1-3_
  6
CONTINUOUS
 62
    7
 10
294.9550484322213
 20
132.3484348606419
 11
278.47412109375
 21
132.3484348606419
  0
LINE
  8
_1-3_
  6
CONTINUOUS
 62
    7
 10
112.78317013302366
 20
201.17309157912797
 11
69.371610074429896
 21
201.17309157912797
  0
LINE
  8
_1-3_
  6
CONTINUOUS
 62
    7
 10
113.60742929819469
 20
187.95627903293919
 11
68.787602605046459
 21
187.95627903293919
  0
LINE
  8
_1-3_
  6
CONTINUOUS
 62
    7
 10
113.60742929819469
 20
182.51539900496201
 11
99.072690396695535
 21
182.51539900496201
  0
LINE
  8
_1-3_
  6
CONTINUOUS
 62
    7
 10
113.60742929819469
 20
176.82719050226987
 11
80.968378427866355
 21
176.82719050226987
  0
LINE
  8
_1-0_
  6
CONTINUOUS
 62
    3
 10
106.95984711518159
 20
146.16986661343961
 11
108.34932069520693
 21
146.16986661343961
  0
LINE
  8
ADD_LINE
  6
DOT
 62
    4
 10
76.663742065429688
 20
139.82699420001057
 11
86.846954758102839
 21
139.82699420001057
  0
LINE
  8
_1-0_
  6
CONTINUOUS
 62
    3
 10
108.34932069520693
 20
146.16986661343961
 11
108.34932069520693
 21
142.98863178974875
  0
LINE
  8
_1-0_
  6
CONTINUOUS
 62
    3
 10
108.34932069520693
 20
146.16986661343961
 11
108.34932069520693
 21
142.98863178974875
  0
LINE
  8
_1-0_
  6
CONTINUOUS
 62
    3
 10
106.02091196421031
 20
149.05204566749367
 11
100.34925099965689
 21
145.82708822714318
  0
LINE
  8
_1-0_
  6
CONTINUOUS
 62
    3
 10
159.95982402079815
 20
146.16986661343961
 11
161.34929760082349
 21
146.16986661343961
  0
LINE
  8
_1-0_
  6
CONTINUOUS
 62
    3
 10
100.34925099965689
 20
145.82708822714318
 11
100.34925099965689
 21
143.02713342615075
  0
LINE
  8
_1-0_
  6
CONTINUOUS
 62
    3
 10
104.92171004011824
 20
145.39577587230787
 11
100.34925099965689
 21
143.02713342615075
  0
LINE
  8
_1-0_
  6
CONTINUOUS
 62
    3
 10
161.34929760082349
 20
146.16986661343961
 11
161.34929760082349
 21
142.98863178974875
  0
LINE
  8
_1-0_
  6
CONTINUOUS
 62
    3
 10
161.34929760082349
 20
146.16986661343961
 11
161.34929760082349
 21
142.98863178974875
  0
LINE
  8
_1-0_
  6
CONTINUOUS
 62
    3
 10
159.02088886982688
 20
149.05205803948482
 11
153.34924646326013
 21
145.82708822714318
  0
LINE
  8
_1-0_
  6
CONTINUOUS
 62
    3
 10
212.95982567039698
 20
146.16985424144849
 11
214.34932399440459
 21
146.16985424144849
  0
LINE
  8
_1-0_
  6
CONTINUOUS
 62
    3
 10
153.34924646326013
 20
145.82708822714318
 11
153.34924646326013
 21
143.02713342615075
  0
LINE
  8
_1-0_
  6
CONTINUOUS
 62
    3
 10
157.92171168971706
 20
145.39576350031672
 11
153.34924646326013
 21
143.02713342615075
  0
LINE
  8
_1-0_
  6
CONTINUOUS
 62
    3
 10
214.34932399440459
 20
146.16985424144849
 11
214.34932399440459
 21
142.98863178974875
  0
LINE
  8
_1-0_
  6
CONTINUOUS
 62
    3
 10
214.34932399440459
 20
146.16985424144849
 11
214.34932399440459
 21
142.98863178974875
  0
LINE
  8
_1-0_
  6
CONTINUOUS
 62
    3
 10
214.34932399440459
 20
142.38532401419977
 11
214.34932399440459
 21
142.34664916992187
  0
LINE
  8
_1-0_
  6
CONTINUOUS
 62
    3
 10
212.95989990234375
 20
146.16986661343961
 11
214.34937348236909
 21
146.16986661343961
  0
LINE
  8
ADD_LINE
  6
DOT
 62
    4
 10
212.51824456292232
 20
142.98863178974875
 11
218.38902653874578
 21
142.98863178974875
  0
LINE
  8
_1-0_
  6
CONTINUOUS
 62
    3
 10
214.34937348236909
 20
146.16986661343961
 11
214.34937348236909
 21
142.98863178974875
  0
LINE
  8
_1-0_
  6
CONTINUOUS
 62
    3
 10
214.34937348236909
 20
146.16986661343961
 11
214.34937348236909
 21
142.98863178974875
  0
LINE
  8
_1-0_
  6
CONTINUOUS
 62
    3
 10
212.02096475137247
 20
149.05204566749367
 11
206.34929760082349
 21
145.82708822714318
  0
LINE
  8
_1-0_
  6
CONTINUOUS
 62
    3
 10
265.95987680796031
 20
146.16986661343961
 11
267.34935038798568
 21
146.16986661343961
  0
LINE
  8
_1-0_
  6
CONTINUOUS
 62
    3
 10
206.34929760082349
 20
145.82708822714318
 11
206.34929760082349
 21
143.02713342615075
  0
LINE
  8
_1-0_
  6
CONTINUOUS
 62
    3
 10
210.92176282728042
 20
145.39577587230787
 11
206.34929760082349
 21
143.02713342615075
  0
LINE
  8
ADD_LINE
  6
DOT
 62
    4
 10
235.6637903161951
 20
139.82699420001057
 11
245.84700300886826
 21
139.82699420001057
  0
LINE
  8
_1-0_
  6
CONTINUOUS
 62
    3
 10
267.34935038798568
 20
146.16986661343961
 11
267.34935038798568
 21
142.98863178974875
  0
LINE
  8
_1-0_
  6
CONTINUOUS
 62
    3
 10
267.34935038798568
 20
146.16986661343961
 11
267.34935038798568
 21
142.98863178974875
  0
LINE
  8
_1-3_
  6
CONTINUOUS
 62
    3
 10
271.55330348659209
 20
176.69468647724875
 11
271.55330348659209
 21
189.18833139780406
  0
LINE
  8
_1-1_
  6
CONTINUOUS
 62
    7
 10
268.30924369193411
 20
132.3484348606419
 11
268.30924369193411
 21
154.15414346230997
  0
LINE
  8
_1-1_
  6
CONTINUOUS
 62
    7
 10
268.30924369193411
 20
154.15414346230997
 11
271.30925358952703
 21
154.15414346230997
  0
LINE
  8
_1-1_
  6
CONTINUOUS
 62
    7
 10
271.30925358952703
 20
154.15414346230997
 11
271.30925358952703
 21
132.3484348606419
  0
LINE
  8
_1-1_
  6
CONTINUOUS
 62
    7
 10
268.30924369193411
 20
154.15414346230997
 11
271.30925358952703
 21
132.3484348606419
  0
LINE
  8
_1-1_
  6
CONTINUOUS
 62
    3
 10
265.53145949904984
 20
154.27937275654563
 11
265.53145949904984
 21
150.77550114812078
  0
LINE
  8
_1-1_
  6
CONTINUOUS
 62
    3
 10
265.36748112858953
 20
154.27937275654563
 11
267.80305604676943
 21
154.27937275654563
  0
LINE
  8
_1-1_
  6
CONTINUOUS
 62
    3
 10
267.80305604676943
 20
132.47366415487755
 11
267.80305604676943
 21
154.27937275654563
  0
LINE
  8
_1-1_
  6
CONTINUOUS
 62
    7
 10
252.11836531355576
 20
152.03998050174198
 11
251.57785776499156
 21
154.99088596653294
  0
LINE
  8
_1-1_
  6
CONTINUOUS
 62
    7
 10
251.57785776499156
 20
154.99088596653294
 11
269.28329055373734
 21
158.23395600190034
  0
LINE
  8
_1-1_
  6
CONTINUOUS
 62
    7
 10
269.28329055373734
 20
158.23395600190034
 11
269.82379810230151
 21
155.28305053710937
  0
LINE
  8
_1-1_
  6
CONTINUOUS
 62
    7
 10
269.82379810230151
 20
155.28305053710937
 11
252.11836531355576
 21
152.03998050174198
  0
LINE
  8
_1-1_
  6
CONTINUOUS
 62
    7
 10
251.57785776499156
 20
154.99088596653294
 11
269.82379810230151
 21
155.28305053710937
  0
LINE
  8
_1-1_
  6
CONTINUOUS
 62
    7
 10
267.67032932590797
 20
166.14683408994932
 11
267.67032932590797
 21
174.14683573954815
  0
LINE
  8
_1-1_
  6
CONTINUOUS
 62
    7
 10
267.67032932590797
 20
174.14683573954815
 11
271.27033130542651
 21
174.14683573954815
  0
LINE
  8
_1-1_
  6
CONTINUOUS
 62
    7
 10
271.27033130542651
 20
174.14683573954815
 11
271.27033130542651
 21
166.14683408994932
  0
LINE
  8
_1-1_
  6
CONTINUOUS
 62
    7
 10
271.27033130542651
 20
166.14683408994932
 11
267.67032932590797
 21
166.14683408994932
  0
LINE
  8
_1-1_
  6
CONTINUOUS
 62
    7
 10
271.27033130542651
 20
174.14683573954815
 11
267.67032932590797
 21
166.14683408994932
  0
LINE
  8
_1-1_
  6
CONTINUOUS
 62
    7
 10
272.27033460462417
 20
191.09610480231208
 11
272.27033460462417
 21
206.67057346653294
  0
LINE
  8
_1-1_
  6
CONTINUOUS
 62
    7
 10
267.67032932590797
 20
164.58511764938768
 11
267.67032932590797
 21
206.67057346653294
  0
LINE
  8
_1-1_
  6
CONTINUOUS
 62
    7
 10
265.27033625422297
 20
164.58511764938768
 11
265.27033625422297
 21
206.67057346653294
  0
LINE
  8
_1-3_
  6
CONTINUOUS
 62
    7
 10
265.93233675570104
 20
192.31722032701649
 11
256.27097464896536
 21
218.86158711201438
  0
LINE
  8
_1-3_
  6
CONTINUOUS
 62
    7
 10
256.27097464896536
 20
218.86158711201438
 11
252.75077201224664
 21
218.86158711201438
  0
LINE
  8
_1-3_
  6
CONTINUOUS
 62
    7
 10
250.53831358213685
 20
185.73626131624789
 11
247.74122908308701
 21
185.73626131624789
  0
LINE
  8
_1-3_
  6
CONTINUOUS
 62
    7
 10
245.17686173722552
 20
154.02228278082771
 11
241.64621713999156
 21
154.02228278082771
  0
LINE
  8
_1-1_
  6
CONTINUOUS
 62
    3
 10
271.55330348659209
 20
159.18833139780406
 11
271.55330348659209
 21
176.69468647724875
  0
LINE
  8
_1-3_
  6
CONTINUOUS
 62
    3
 10
251.09010438661318
 20
155.44012533651818
 11
250.61400542388094
 21
150.32194395323057
  0
LINE
  8
_1-3_
  6
CONTINUOUS
 62
    3
 10
251.09010438661318
 20
155.44012533651818
 11
271.55330348659209
 21
159.18833139780406
  0
LINE
  8
_1-3_
  6
CONTINUOUS
 62
    3
 10
250.61400542388094
 20
150.32194395323057
 11
251.67332004856419
 21
151.51367599899706
  0
LINE
  8
_1-1_
  6
CONTINUOUS
 62
    7
 10
265.27033625422297
 20
164.58511764938768
 11
265.27033625422297
 21
159.02262094858531
  0
LINE
  8
_1-1_
  6
CONTINUOUS
 62
    7
 10
265.27033625422297
 20
159.02262094858531
 11
267.67032932590797
 21
159.02262094858531
  0
LINE
  8
_1-1_
  6
CONTINUOUS
 62
    7
 10
267.67032932590797
 20
164.58511764938768
 11
267.67032932590797
 21
159.02262094858531
  0
LINE
  8
_1-3_
  6
CONTINUOUS
 62
    7
 10
261.46198994404563
 20
155.72371611724029
 11
250.53831358213685
 21
185.73626131624789
  0
LINE
  8
_1-3_
  6
CONTINUOUS
 62
    7
 10
250.76726965002112
 20
152.56392195418076
 11
242.99763447529563
 21
173.91081526472763
  0
LINE
  8
_1-3_
  6
CONTINUOUS
 62
    7
 10
245.17686173722552
 20
154.02228278082771
 11
250.46135979729732
 21
147.69756007838893
  0
LINE
  8
_1-3_
  6
CONTINUOUS
 62
    7
 10
242.99763447529563
 20
173.91081526472763
 11
240.80175451330237
 21
173.91081526472763
  0
LINE
  8
_1-1_
  6
CONTINUOUS
 62
    7
 10
274.67032767630911
 20
206.67057346653294
 11
274.67032767630911
 21
129.09926543364654
  0
LINE
  8
_1-1_
  6
CONTINUOUS
 62
    7
 10
272.27033460462417
 20
191.09610480231208
 11
272.27033460462417
 21
129.09926543364654
  0
LINE
  8
_1-1_
  6
DASHED1
 62
    3
 10
271.80579108160896
 20
131.99859206740922
 11
271.80579108160896
 21
199.18832727380703
  0
LINE
  8
_1-3_
  6
CONTINUOUS
 62
    7
 10
306.18649044552365
 20
199.18832727380703
 11
278.10788541226776
 21
199.18832727380703
  0
LINE
  8
_1-3_
  6
CONTINUOUS
 62
    7
 10
306.18649044552365
 20
189.18833139780406
 11
278.10788541226776
 21
189.18833139780406
  0
LINE
  8
_1-3_
  6
CONTINUOUS
 62
    7
 10
306.18649044552365
 20
199.18832727380703
 11
306.18649044552365
 21
189.18833139780406
  0
LINE
  8
_1-3_
  6
CONTINUOUS
 62
    7
 10
306.18649044552365
 20
159.18833139780406
 11
278.10788541226776
 21
159.18833139780406
  0
LINE
  8
_1-3_
  6
CONTINUOUS
 62
    7
 10
306.18649044552365
 20
189.18833139780406
 11
306.18649044552365
 21
159.18833139780406
  0
LINE
  8
_1-3_
  6
CONTINUOUS
 62
    7
 10
294.9550484322213
 20
199.18832727380703
 11
278.47412109375
 21
199.18832727380703
  0
LINE
  8
_1-3_
  6
CONTINUOUS
 62
    7
 10
294.9550484322213
 20
132.3484348606419
 11
294.9550484322213
 21
199.18832727380703
  0
CIRCLE
  8
_1-2_
  6
CONTINUOUS
 62
    7
 10
259.15107520850933
 20
151.22655920080237
 40
0.2324253240147152
  0
CIRCLE
  8
_1-2_
  6
CONTINUOUS
 62
    7
 10
257.91454418285474
 20
148.17567567567568
 40
0.2324253240147152
  0
CIRCLE
  8
_1-2_
  6
CONTINUOUS
 62
    7
 10
259.27919954866979
 20
151.76818022856841
 40
0.2324253240147152
  0
CIRCLE
  8
_1-2_
  6
CONTINUOUS
 62
    7
 10
256.27099939294766
 20
144.72424893765836
 40
0.2324253240147152
  0
CIRCLE
  8
_1-2_
  6
CONTINUOUS
 62
    7
 10
260.70853568412161
 20
146.03908229518581
 40
0.2324253240147152
  0
CIRCLE
  8
_1-2_
  6
CONTINUOUS
 62
    7
 10
261.36595854888094
 20
147.51826518290753
 40
0.2324253240147152
  0
CIRCLE
  8
_1-2_
  6
CONTINUOUS
 62
    7
 10
263.17385286898229
 20
148.50438710805534
 40
0.2324253240147152
  0
CIRCLE
  8
_1-2_
  6
CONTINUOUS
 62
    7
 10
260.87288521431589
 20
149.98356999577703
 40
0.2324253240147152
  0
CIRCLE
  8
_1-2_
  6
CONTINUOUS
 62
    7
 10
259.39371469858531
 20
148.66873663824958
 40
0.2324253240147152
  0
CIRCLE
  8
_1-2_
  6
CONTINUOUS
 62
    7
 10
259.44354907886401
 20
150.78205830342063
 40
0.2324253240147152
  0
CIRCLE
  8
_1-2_
  6
CONTINUOUS
 62
    7
 10
263.22368724926099
 20
151.11075736380914
 40
0.2324253240147152
  0
CIRCLE
  8
_1-2_
  6
CONTINUOUS
 62
    7
 10
264.04545964421453
 20
151.76818022856841
 40
0.2324253240147152
  0
CIRCLE
  8
_1-2_
  6
CONTINUOUS
 62
    7
 10
258.4075927734375
 20
145.05296037003802
 40
0.2324253240147152
  0
CIRCLE
  8
_1-2_
  6
CONTINUOUS
 62
    7
 10
256.43534892314193
 20
144.06683844489021
 40
0.2324253240147152
  0
CIRCLE
  8
_1-2_
  6
CONTINUOUS
 62
    7
 10
257.58582037848396
 20
147.18955375052789
 40
0.2324253240147152
  0
CIRCLE
  8
_1-2_
  6
CONTINUOUS
 62
    7
 10
259.55806422877959
 20
147.51826518290753
 40
0.2324253240147152
  0
CIRCLE
  8
_1-2_
  6
CONTINUOUS
 62
    7
 10
261.20160901868667
 20
148.34002520586995
 40
0.2324253240147152
  0
CIRCLE
  8
_1-2_
  6
CONTINUOUS
 62
    7
 10
263.00947859480578
 20
149.49050903320312
 40
0.2324253240147152
  0
CIRCLE
  8
_1-2_
  6
CONTINUOUS
 62
    7
 10
257.25712131809547
 20
149.98356999577703
 40
0.2324253240147152
  0
CIRCLE
  8
_1-2_
  6
CONTINUOUS
 62
    7
 10
257.42147084828969
 20
149.49050903320312
 40
0.2324253240147152
  0
CIRCLE
  8
_1-2_
  6
CONTINUOUS
 62
    7
 10
258.62180142789276
 20
150.61770877322635
 40
0.2324253240147152
  0
CIRCLE
  8
_1-2_
  6
CONTINUOUS
 62
    7
 10
256.76535941459036
 20
147.44838817699537
 40
0.2324253240147152
  0
CIRCLE
  8
_1-2_
  6
CONTINUOUS
 62
    7
 10
259.53156342377537
 20
146.45256661080026
 40
0.2324253240147152
  0
CIRCLE
  8
_1-2_
  6
CONTINUOUS
 62
    7
 10
264.28941056535052
 20
147.66968598236909
 40
0.2324253240147152
  0
CIRCLE
  8
_1-2_
  6
CONTINUOUS
 62
    7
 10
265.72782774229307
 20
148.00162650443414
 40
0.2324253240147152
  0
CIRCLE
  8
_1-2_
  6
CONTINUOUS
 62
    7
 10
266.05976826435813
 20
149.55069877005914
 40
0.2324253240147152
  0
CIRCLE
  8
_1-2_
  6
CONTINUOUS
 62
    7
 10
266.17039860905828
 20
151.43171155774917
 40
0.2324253240147152
  0
CIRCLE
  8
_1-2_
  6
CONTINUOUS
 62
    7
 10
266.28105369774073
 20
146.56320932749156
 40
0.2324253240147152
  0
CIRCLE
  8
_1-2_
  6
CONTINUOUS
 62
    7
 10
264.17875547666807
 20
139.70306396484375
 40
0.2324253240147152
  0
CIRCLE
  8
_1-2_
  6
CONTINUOUS
 62
    7
 10
264.73198143211573
 20
138.81788511533995
 40
0.2324253240147152
  0
CIRCLE
  8
_1-2_
  6
CONTINUOUS
 62
    7
 10
266.17039860905828
 20
139.03917054872255
 40
0.2324253240147152
  0
CIRCLE
  8
_1-2_
  6
CONTINUOUS
 62
    7
 10
266.50233913112334
 20
139.92434939822635
 40
0.2324253240147152
  0
CIRCLE
  8
_1-2_
  6
CONTINUOUS
 62
    7
 10
265.61717265361068
 20
136.6049318055849
 40
0.2324253240147152
  0
CIRCLE
  8
_1-2_
  6
CONTINUOUS
 62
    7
 10
260.85932551203547
 20
137.4901106550887
 40
0.2324253240147152
  0
CIRCLE
  8
_1-2_
  6
CONTINUOUS
 62
    7
 10
263.29356425517318
 20
138.4859322212838
 40
0.2324253240147152
  0
CIRCLE
  8
_1-2_
  6
CONTINUOUS
 62
    7
 10
265.17457704286318
 20
139.92434939822635
 40
0.2324253240147152
  0
CIRCLE
  8
_1-2_
  6
CONTINUOUS
 62
    7
 10
263.07227882179058
 20
140.36694500897383
 40
0.2324253240147152
  0
CIRCLE
  8
_1-2_
  6
CONTINUOUS
 62
    7
 10
262.40839777766047
 20
137.26881284971495
 40
0.2324253240147152
  0
CIRCLE
  8
_1-2_
  6
CONTINUOUS
 62
    7
 10
260.30609955658787
 20
135.60909786739865
 40
0.2324253240147152
  0
CIRCLE
  8
_1-2_
  6
CONTINUOUS
 62
    7
 10
261.85514707823057
 20
134.17068069045609
 40
0.2324253240147152
  0
CIRCLE
  8
_1-2_
  6
CONTINUOUS
 62
    7
 10
261.19126603410052
 20
133.39614455764359
 40
0.2324253240147152
  0
CIRCLE
  8
_1-2_
  6
CONTINUOUS
 62
    7
 10
265.50651756492823
 20
133.17485912426099
 40
0.2324253240147152
  0
CIRCLE
  8
_1-2_
  6
CONTINUOUS
 62
    7
 10
266.05976826435813
 20
134.06003797376479
 40
0.2324253240147152
  0
CIRCLE
  8
_1-2_
  6
CONTINUOUS
 62
    7
 10
264.28941056535052
 20
134.50262121252112
 40
0.2324253240147152
  0
CIRCLE
  8
_1-2_
  6
CONTINUOUS
 62
    7
 10
260.19544446790542
 20
134.72391901789484
 40
0.2324253240147152
  0
CIRCLE
  8
_1-2_
  6
CONTINUOUS
 62
    7
 10
258.20377659153297
 20
135.0558595399599
 40
0.2324253240147152
  0
CIRCLE
  8
_1-2_
  6
CONTINUOUS
 62
    7
 10
256.10147837046031
 20
134.28133577913852
 40
0.2324253240147152
  0
CIRCLE
  8
_1-2_
  6
CONTINUOUS
 62
    7
 10
255.99082328177789
 20
135.60909786739865
 40
0.2324253240147152
  0
CIRCLE
  8
_1-2_
  6
CONTINUOUS
 62
    7
 10
259.86350394584036
 20
138.04334898252745
 40
0.2324253240147152
  0
CIRCLE
  8
_1-2_
  6
CONTINUOUS
 62
    7
 10
257.42924045872047
 20
145.45673267261404
 40
0.2324253240147152
  0
CIRCLE
  8
_1-2_
  6
CONTINUOUS
 62
    7
 10
258.53571711359797
 20
146.56320932749156
 40
0.2324253240147152
  0
ARC
  8
_1-1_
  6
CONTINUOUS
 62
    3
 10
180.67035159549198
 20
128.09926213444891
 40
0.9999999162313101
 50
90
 51
180
  0
ARC
  8
_1-1_
  6
CONTINUOUS
 62
    3
 10
181.07036281276393
 20
127.69926328916809
 40
0.9999999162313101
 50
90
 51
180
  0
ARC
  8
_1-1_
  6
CONTINUOUS
 62
    3
 10
188.27031728383659
 20
127.69926328916809
 40
0.9999999162313101
 50
0
 51
90
  0
ARC
  8
_1-1_
  6
CONTINUOUS
 62
    3
 10
188.67032850110854
 20
128.09926213444891
 40
0.9999999162313101
 50
0
 51
90
  0
ARC
  8
_1-1_
  6
CONTINUOUS
 62
    3
 10
188.27031728383659
 20
110.49926345412796
 40
0.9999999162313101
 50
270
 51
0
  0
ARC
  8
_1-1_
  6
CONTINUOUS
 62
    3
 10
188.67032850110854
 20
110.09926460884714
 40
0.9999999162313101
 50
270
 51
0
  0
ARC
  8
_1-1_
  6
CONTINUOUS
 62
    3
 10
181.07036281276393
 20
110.49926345412796
 40
0.9999999162313101
 50
180
 51
270
  0
ARC
  8
_1-1_
  6
CONTINUOUS
 62
    3
 10
180.67035159549198
 20
110.09926460884714
 40
0.9999999162313101
 50
180
 51
270
  0
ARC
  8
_1-1_
  6
CONTINUOUS
 62
    3
 10
265.67034747149495
 20
128.08453946500211
 40
0.9999999162313101
 50
90
 51
180
  0
ARC
  8
_1-1_
  6
CONTINUOUS
 62
    3
 10
266.07035868876693
 20
127.68454061972129
 40
0.9999999162313101
 50
90
 51
180
  0
ARC
  8
_1-1_
  6
CONTINUOUS
 62
    3
 10
273.27031315983953
 20
127.68454061972129
 40
0.9999999162313101
 50
0
 51
90
  0
ARC
  8
_1-1_
  6
CONTINUOUS
 62
    3
 10
273.67032437711151
 20
128.08453946500211
 40
0.9999999162313101
 50
0
 51
90
  0
ARC
  8
_1-1_
  6
CONTINUOUS
 62
    3
 10
273.27031315983953
 20
110.48454078468117
 40
0.9999999162313101
 50
270
 51
0
  0
ARC
  8
_1-1_
  6
CONTINUOUS
 62
    3
 10
273.67032437711151
 20
110.08454193940034
 40
0.9999999162313101
 50
270
 51
0
  0
ARC
  8
_1-1_
  6
CONTINUOUS
 62
    3
 10
266.07035868876693
 20
110.48454078468117
 40
0.9999999162313101
 50
180
 51
270
  0
ARC
  8
_1-1_
  6
CONTINUOUS
 62
    3
 10
265.67034747149495
 20
110.08454193940034
 40
0.9999999162313101
 50
180
 51
270
  0
ARC
  8
_1-1_
  6
CONTINUOUS
 62
    3
 10
90.67034540949642
 20
128.09926213444891
 40
0.9999999162313101
 50
90
 51
180
  0
ARC
  8
_1-1_
  6
CONTINUOUS
 62
    3
 10
91.070356626768373
 20
127.69926328916809
 40
0.9999999162313101
 50
90
 51
180
  0
ARC
  8
_1-1_
  6
CONTINUOUS
 62
    3
 10
98.270311097841017
 20
127.69926328916809
 40
0.9999999162313101
 50
0
 51
90
  0
ARC
  8
_1-1_
  6
CONTINUOUS
 62
    3
 10
98.670322315112969
 20
128.09926213444891
 40
0.9999999162313101
 50
0
 51
90
  0
ARC
  8
_1-1_
  6
CONTINUOUS
 62
    3
 10
98.270311097841017
 20
110.49926345412796
 40
0.9999999162313101
 50
270
 51
0
  0
ARC
  8
_1-1_
  6
CONTINUOUS
 62
    3
 10
98.670322315112969
 20
110.09926460884714
 40
0.9999999162313101
 50
270
 51
0
  0
ARC
  8
_1-1_
  6
CONTINUOUS
 62
    3
 10
91.070356626768373
 20
110.49926345412796
 40
0.9999999162313101
 50
180
 51
270
  0
ARC
  8
_1-1_
  6
CONTINUOUS
 62
    3
 10
90.67034540949642
 20
110.09926460884714
 40
0.9999999162313101
 50
180
 51
270
  0
ARC
  8
_1-0_
  6
CONTINUOUS
 62
    3
 10
105.91995651657517
 20
146.14047076251057
 40
1.0402513194728542
 50
309.08184814453125
 51
1.6144714355468908
  0
ARC
  8
_1-0_
  6
CONTINUOUS
 62
    3
 10
107.86077550939612
 20
146.60362862251901
 40
3.0627306731971538
 50
42.6905517578125
 51
126.92074584960937
  0
ARC
  8
_1-0_
  6
CONTINUOUS
 62
    3
 10
158.91995816617398
 20
146.14047076251057
 40
1.0402513194728542
 50
309.08184814453125
 51
1.6144714355468908
  0
ARC
  8
_1-0_
  6
CONTINUOUS
 62
    3
 10
137.48199462890625
 20
185.99196562895904
 40
46.274049088761615
 50
233.73811340332031
 51
298.51937866210937
  0
ARC
  8
_1-0_
  6
CONTINUOUS
 62
    3
 10
107.67405741923565
 20
141.67720072978253
 40
4.6263270764737516
 50
47.123046875000007
 51
126.50717163085939
  0
ARC
  8
_1-0_
  6
CONTINUOUS
 62
    3
 10
137.78889424092063
 20
185.43134122281461
 40
48.543530025997683
 50
236.25315856933597
 51
299.03501892089844
  0
ARC
  8
_1-0_
  6
CONTINUOUS
 62
    3
 10
160.86077715899495
 20
146.60362862251901
 40
3.0627306731971538
 50
42.6905517578125
 51
126.92074584960937
  0
ARC
  8
_1-0_
  6
CONTINUOUS
 62
    3
 10
211.91995981577281
 20
146.14045839051943
 40
1.0402513194728542
 50
309.08184814453125
 51
1.6144714355468908
  0
ARC
  8
_1-0_
  6
CONTINUOUS
 62
    3
 10
190.48197153452281
 20
185.99196562895904
 40
46.274049088761615
 50
233.73811340332031
 51
298.51937866210937
  0
ARC
  8
_1-0_
  6
CONTINUOUS
 62
    3
 10
160.67405906883448
 20
141.67718835779138
 40
4.6263270764737516
 50
47.123046875000007
 51
126.50717163085939
  0
ARC
  8
_1-0_
  6
CONTINUOUS
 62
    3
 10
190.78889589051943
 20
185.43134122281461
 40
48.543530025997683
 50
236.25315856933597
 51
299.03501892089844
  0
ARC
  8
_1-0_
  6
CONTINUOUS
 62
    3
 10
84.481974421320743
 20
185.99196562895904
 40
46.274049088761615
 50
251.19485473632813
 51
298.51937866210937
  0
ARC
  8
_1-0_
  6
CONTINUOUS
 62
    3
 10
84.788898777317357
 20
185.43134122281461
 40
48.543530025997683
 50
251.72351074218753
 51
299.03501892089844
  0
ARC
  8
_1-0_
  6
CONTINUOUS
 62
    3
 10
211.92000930373734
 20
146.14047076251057
 40
1.0402513194728542
 50
309.08184814453125
 51
1.6144714355468908
  0
ARC
  8
_1-0_
  6
CONTINUOUS
 62
    3
 10
213.86082829655828
 20
146.60362862251901
 40
3.0627306731971538
 50
42.6905517578125
 51
126.92074584960937
  0
ARC
  8
_1-0_
  6
CONTINUOUS
 62
    3
 10
264.92001095333615
 20
146.14047076251057
 40
1.0402513194728542
 50
309.08184814453125
 51
1.6144714355468908
  0
ARC
  8
_1-0_
  6
CONTINUOUS
 62
    3
 10
243.48204741606844
 20
185.99196562895904
 40
46.274049088761615
 50
233.73811340332031
 51
298.51937866210937
  0
ARC
  8
_1-0_
  6
CONTINUOUS
 62
    3
 10
213.67411020639781
 20
141.67720072978253
 40
4.6263270764737516
 50
47.123046875000007
 51
126.50717163085939
  0
ARC
  8
_1-0_
  6
CONTINUOUS
 62
    3
 10
243.78894702808279
 20
185.43134122281461
 40
48.543530025997683
 50
236.25315856933597
 51
299.03501892089844
  0
CIRCLE
  8
_1-2_
  6
CONTINUOUS
 62
    7
 10
264.2098091744088
 20
147.35401462864232
 40
0.2324253240147152
  0
CIRCLE
  8
_1-2_
  6
CONTINUOUS
 62
    7
 10
262.07321579391891
 20
144.23129932300466
 40
0.2324253240147152
  0
CIRCLE
  8
_1-2_
  6
CONTINUOUS
 62
    7
 10
260.26532147381761
 20
145.54613268053211
 40
0.2324253240147152
  0
CIRCLE
  8
_1-2_
  6
CONTINUOUS
 62
    7
 10
261.41579292915964
 20
147.18966509844807
 40
0.2324253240147152
  0
CIRCLE
  8
_1-2_
  6
CONTINUOUS
 62
    7
 10
262.56628912848396
 20
148.66884798616977
 40
0.2324253240147152
  0
CIRCLE
  8
_1-2_
  6
CONTINUOUS
 62
    7
 10
261.74451673353042
 20
149.65496991131758
 40
0.2324253240147152
  0
CIRCLE
  8
_1-2_
  6
CONTINUOUS
 62
    7
 10
258.000579009185
 20
144.34710115999789
 40
0.2324253240147152
  0
CIRCLE
  8
_1-2_
  6
CONTINUOUS
 62
    7
 10
264.04545964421453
 20
145.71048221072635
 40
0.2324253240147152
  0
CIRCLE
  8
_1-2_
  6
CONTINUOUS
 62
    7
 10
258.11447555954391
 20
145.88453138196792
 40
0.2324253240147152
  0
CIRCLE
  8
_1-2_
  6
CONTINUOUS
 62
    7
 10
259.1452356286951
 20
151.50100708007812
 40
0.2324253240147152
  0
CIRCLE
  8
_1-2_
  6
CONTINUOUS
 62
    7
 10
266.40615927206505
 20
150.82924507759714
 40
0.2324253240147152
  0
CIRCLE
  8
_1-2_
  6
CONTINUOUS
 62
    7
 10
264.48830269478464
 20
152.63660740207982
 40
0.2324253240147152
  0
CIRCLE
  8
_1-2_
  6
CONTINUOUS
 62
    7
 10
263.38803677945526
 20
150.31238040408573
 40
0.2324253240147152
  0
CIRCLE
  8
_1-2_
  6
CONTINUOUS
 62
    7
 10
262.40191485430745
 20
145.0530717179582
 40
0.2324253240147152
  0
CIRCLE
  8
_1-2_
  6
CONTINUOUS
 62
    7
 10
260.26532147381761
 20
148.99754704655828
 40
0.2324253240147152
  0
CIRCLE
  8
_1-2_
  6
CONTINUOUS
 62
    7
 10
260.10097194362334
 20
150.64109183646539
 40
0.2324253240147152
  0
CIRCLE
  8
_1-2_
  6
CONTINUOUS
 62
    7
 10
259.60792335304058
 20
146.3678927034945
 40
0.2324253240147152
  0
CIRCLE
  8
_1-2_
  6
CONTINUOUS
 62
    7
 10
261.58014245935391
 20
145.0530717179582
 40
0.2324253240147152
  0
CIRCLE
  8
_1-2_
  6
CONTINUOUS
 62
    7
 10
259.11485001847552
 20
144.72436028557854
 40
0.2324253240147152
  0
CIRCLE
  8
_1-2_
  6
CONTINUOUS
 62
    7
 10
262.07645725559547
 20
151.86792322107263
 40
0.2324253240147152
  0
CIRCLE
  8
_1-2_
  6
CONTINUOUS
 62
    7
 10
261.85514707823057
 20
151.42532761032518
 40
0.2324253240147152
  0
CIRCLE
  8
_1-2_
  6
CONTINUOUS
 62
    7
 10
260.30609955658787
 20
151.64662541569891
 40
0.2324253240147152
  0
CIRCLE
  8
_1-2_
  6
CONTINUOUS
 62
    7
 10
258.20377659153297
 20
151.5359826990076
 40
0.2324253240147152
  0
CIRCLE
  8
_1-2_
  6
CONTINUOUS
 62
    7
 10
258.09314624683276
 20
148.88043377850508
 40
0.2324253240147152
  0
CIRCLE
  8
_1-2_
  6
CONTINUOUS
 62
    7
 10
257.31861011402026
 20
147.4420166015625
 40
0.2324253240147152
  0
CIRCLE
  8
_1-2_
  6
CONTINUOUS
 62
    7
 10
256.65472906989021
 20
150.31885095544763
 40
0.2324253240147152
  0
CIRCLE
  8
_1-2_
  6
CONTINUOUS
 62
    7
 10
256.54407398120776
 20
151.64662541569891
 40
0.2324253240147152
  0
CIRCLE
  8
_1-2_
  6
CONTINUOUS
 62
    7
 10
259.42090833509292
 20
149.65496991131758
 40
0.2324253240147152
  0
CIRCLE
  8
_1-2_
  6
CONTINUOUS
 62
    7
 10
261.63386164484797
 20
147.55267169024495
 40
0.2324253240147152
  0
CIRCLE
  8
_1-2_
  6
CONTINUOUS
 62
    7
 10
256.87601450327281
 20
144.8971227697424
 40
0.2324253240147152
  0
CIRCLE
  8
_1-2_
  6
CONTINUOUS
 62
    7
 10
266.50233913112334
 20
146.5568377520587
 40
0.2324253240147152
  0
CIRCLE
  8
_1-2_
  6
CONTINUOUS
 62
    7
 10
266.05976826435813
 20
148.216552734375
 40
0.2324253240147152
  0
CIRCLE
  8
_1-2_
  6
CONTINUOUS
 62
    7
 10
264.84263652079818
 20
149.32302938925255
 40
0.2324253240147152
  0
CIRCLE
  8
_1-2_
  6
CONTINUOUS
 62
    7
 10
263.84681495460308
 20
149.32302938925255
 40
0.2324253240147152
  0
CIRCLE
  8
_1-2_
  6
CONTINUOUS
 62
    7
 10
263.18293391047297
 20
151.86792322107263
 40
0.2324253240147152
  0
CIRCLE
  8
_1-2_
  6
CONTINUOUS
 62
    7
 10
262.62968321104307
 20
152.97439987595018
 40
0.2324253240147152
  0
CIRCLE
  8
_1-2_
  6
CONTINUOUS
 62
    7
 10
261.08061094541807
 20
152.97439987595018
 40
0.2324253240147152
  0
CIRCLE
  8
_1-2_
  6
CONTINUOUS
 62
    7
 10
257.98249115815037
 20
149.8762677166913
 40
0.2324253240147152
  0
CIRCLE
  8
_1-2_
  6
CONTINUOUS
 62
    7
 10
256.76535941459036
 20
148.88043377850508
 40
0.2324253240147152
  0
CIRCLE
  8
_1-2_
  6
CONTINUOUS
 62
    7
 10
259.53156342377537
 20
147.2207311681799
 40
0.2324253240147152
  0
CIRCLE
  8
_1-2_
  6
CONTINUOUS
 62
    7
 10
263.73615986592063
 20
146.99942099081505
 40
0.2324253240147152
  0
ARC
  8
_1-1_
  6
CONTINUOUS
 62
    7
 10
211.4757805901605
 20
150.8237766575169
 40
44.628933055980788
 50
335.72994995117187
 51
343.33314514160156
  0
ARC
  8
_1-1_
  6
CONTINUOUS
 62
    6
 10
211.4757805901605
 20
150.8237766575169
 40
44.628933055980788
 50
347.53073120117187
 51
2.4896697998047057
  0
TEXT
  8
_0-0_
 62
    7
 10
141.89189395389042
 20
14.594594594594582
 40
2.5
 41
1
 50
0
  1
縮尺
  0
TEXT
  8
_0-0_
 62
    7
 10
377.10214563318203
 20
22.865493362014362
 40
2.5
 41
1
 50
0
  1
ＮＯ
  0
TEXT
  8
_0-0_
 62
    7
 10
14.594594336844779
 20
24.324324324324323
 40
2.5
 41
1
 50
0
  1
和形
  0
TEXT
  8
_0-0_
 62
    7
 10
383.23801896378802
 20
18.523427086907475
 40
3
 41
1
 50
0
  1
Ｊ
  0
TEXT
  8
_1-0_
 62
    7
 10
169.90681828679266
 20
13.3181144095756
 40
2.5
 41
1
 50
0
  1
1/5
  0
TEXT
  8
_1-3_
 62
    7
 10
211.75310701937292
 20
71.844412313925261
 40
2.5
 41
1
 50
0
  1
捨谷
  0
TEXT
  8
_1-3_
 62
    7
 10
39.721904445338907
 20
15.395235628695104
 40
2.5
 41
1
 50
0
  1
壁際　　3
  0
TEXT
  8
_1-3_
 62
    7
 10
25.556194717819636
 20
20.211577544341225
 40
2.5
 41
1
 50
0
  1
鉄骨
  0
TEXT
  8
_1-3_
 62
    7
 10
393.26952547640417
 20
15.668420018376537
 40
2.5
 41
1
 50
0
  1
38
  0
TEXT
  8
_1-3_
 62
    7
 10
60.057900918496614
 20
189.87663475242823
 40
2.5
 41
1
 50
0
  1
※　地域により瓦桟木の大きさは、異なります
  0
TEXT
  8
_1-3_
 62
    7
 10
49.231620479274454
 20
198.83803908889359
 40
2.5
 41
1
 50
0
  1
桟瓦
  0
TEXT
  8
_1-3_
 62
    7
 10
49.231620479274454
 20
192.83804403769005
 40
2.5
 41
1
 50
0
  1
瓦桟
  0
TEXT
  8
_1-3_
 62
    7
 10
49.231620479274454
 20
186.83804898648648
 40
2.5
 41
1
 50
0
  1
流桟
  0
TEXT
  8
_1-3_
 62
    7
 10
49.231619448275183
 20
174.8380588840794
 40
2.5
 41
1
 50
0
  1
野地板　ｔ＝12
  0
TEXT
  8
_1-1_
 62
    7
 10
49.012662011223881
 20
180.83805393528294
 40
2.5
 41
1
 50
0
  1
下葺き材　　　ゴムアス系ルーフィング
  0
TEXT
  8
_1-1_
 62
    7
 10
59.974983833931589
 20
192.83804403769005
 40
2.5
 41
1
 50
0
  1
１５×３０　（樹脂桟木）
  0
TEXT
  8
_1-3_
 62
    7
 10
242.97219353753167
 20
218.12584954339107
 40
2.5
 41
1
 50
0
  1
外壁
  0
TEXT
  8
_1-3_
 62
    7
 10
226.9314451475401
 20
184.50376355970229
 40
2.5
 41
1
 50
0
  1
雨押え板
  0
TEXT
  8
_1-3_
 62
    7
 10
239.40456081081084
 20
184.22964972418708
 40
2.5
 41
1
 50
0
  1
15ｘ90
  0
TEXT
  8
_1-3_
 62
    7
 10
230.73880169842698
 20
152.73169852591852
 40
2.5
 41
1
 50
0
  1
面土漆喰
  0
TEXT
  8
_1-3_
 62
    7
 10
228.27610737568625
 20
172.65487258498734
 40
2.5
 41
1
 50
0
  1
水切鉄板
  0
TEXT
  8
_1-1_
 62
    7
 10
309.6988946038324
 20
171.34316934121622
 40
2.5
 41
1
 50
0
  1
水切り鉄板立上がり寸法
  0
TEXT
  8
_1-1_
 62
    7
 10
296.14187292150552
 20
145.14508221600508
 40
2.5
 41
1
 50
0
  1
下葺き材立上がり寸法
  0
TEXT
  8
_1-1_
 62
    7
 10
233.39038333377323
 20
149.00435164168076
 40
2.5
 41
1
 50
0
  1
及び葺き土
  0
TEXT
  8
_1-3_
 62
    7
 10
305.68648879592484
 20
192.93832933580555
 40
2.5
 41
1
 50
90
  1
50
  0
TEXT
  8
_1-3_
 62
    7
 10
305.68648879592484
 20
172.31333139780406
 40
2.5
 41
1
 50
90
  1
150
  0
TEXT
  8
_1-3_
 62
    7
 10
308.42757848791177
 20
195.2206544618349
 40
3
 41
1
 50
0
  1
下葺き材立上げ長さは、300ｍｍ以上かつ
  0
TEXT
  8
_1-3_
 62
    7
 10
308.81420156118031
 20
189.57357045766472
 40
3
 41
1
 50
0
  1
雨押え板上端より50mm以上とする
  0
TEXT
  8
_1-3_
 62
    7
 10
294.71087481524495
 20
160.14338725322003
 40
2.5
 41
1
 50
90
  1
300  以上
  0
POINT
  8
_1-3_
 62
    7
 10
294.9550484322213
 20
132.3484348606419
  0
POINT
  8
_1-3_
 62
    7
 10
306.18649044552365
 20
199.18832727380703
  0
POINT
  8
_1-3_
 62
    7
 10
306.18649044552365
 20
189.18833139780406
  0
POINT
  8
_1-3_
 62
    7
 10
306.18649044552365
 20
159.18833139780406
  0
POINT
  8
_1-3_
 62
    7
 10
294.9550484322213
 20
199.18832727380703
  0
ENDSEC
  0
EOF
