  0
SECTION
  2
HEADER
  9
$ACADVER
  1
AC1009
  9
$INSBASE
 10
0
 20
0
 30
0
  9
$EXTMIN
 10
0
 20
0
  9
$EXTMAX
 10
420
 20
297
  9
$LIMMIN
 10
0
 20
0
  9
$LIMMAX
 10
420
 20
297
  9
$LTSCALE
 40
1
  0
ENDSEC
  0
SECTION
  2
TABLES
  0
TABLE
  2
LTYPE
 70
     9
  0
LTYPE
  2
CONTINUOUS
 70
    64
  3
実線
 72
    65
 73
     0
 40
0.0
  0
LTYPE
  2
DASHED1
 70
    64
  3
--  --  --  --  --  --  --  --  
 72
    65
 73
     2
 40
2.5
 49
1.25
 49
-1.25
  0
LTYPE
  2
DASHED2
 70
    64
  3
----    ----    ----    ----    
 72
    65
 73
     2
 40
5.0
 49
2.5
 49
-2.5
  0
LTYPE
  2
DASHED3
 70
    64
  3
------  ------  ------  ------  
 72
    65
 73
     2
 40
5.0
 49
3.75
 49
-1.25
  0
LTYPE
  2
CENTER1
 70
    64
  3
----- - ----- - ----- - ----- - 
 72
    65
 73
     4
 40
10.0
 49
6.25
 49
-1.25
 49
1.25
 49
-1.25
  0
LTYPE
  2
CENTER2
 70
    64
  3
----------  --  ----------  --  
 72
    65
 73
     4
 40
20.0
 49
12.5
 49
-2.5
 49
2.5
 49
-2.5
  0
LTYPE
  2
PHANTOM1
 70
    64
  3
--- - - --- - - --- - - --- - - 
 72
    65
 73
     6
 40
10.0
 49
3.25
 49
-1.25
 49
1.25
 49
-1.25
 49
1.25
 49
-1.25
  0
LTYPE
  2
PHANTOM2
 70
    64
  3
--------  -  -  --------  -  -  
 72
    65
 73
     6
 40
20.0
 49
10.0
 49
-2.5
 49
1.25
 49
-2.5
 49
1.25
 49
-2.5
  0
LTYPE
  2
DOT
 70
    64
  3
-   -   -   -   -   -   -   -   
 72
    65
 73
     2
 40
2.5
 49
0.625
 49
-1.875
  0
LTYPE
  2
DUMMY
 70
    64
  3
ダミー
 72
    65
 73
     0
 40
0.0
  0
LTYPE
  2
RAND1
 70
    64
  3
ランダム線1
 72
    65
 73
     4
 40
10.0
 49
1.0
 49
-2.0
 49
3.0
 49
-4.0
  0
LTYPE
  2
RAND2
 70
    64
  3
ランダム線2
 72
    65
 73
     4
 40
14.0
 49
2.0
 49
-3.0
 49
4.0
 49
-5.0
  0
LTYPE
  2
RAND3
 70
    64
  3
ランダム線3
 72
    65
 73
     4
 40
18.0
 49
3.0
 49
-4.0
 49
5.0
 49
-6.0
  0
LTYPE
  2
RAND4
 70
    64
  3
ランダム線4
 72
    65
 73
     4
 40
22.0
 49
4.0
 49
-5.0
 49
6.0
 49
-7.0
  0
LTYPE
  2
RAND5
 70
    64
  3
ランダム線5
 72
    65
 73
     4
 40
26.0
 49
5.0
 49
-6.0
 49
7.0
 49
-8.0
  0
LTYPE
  2
LONG1
 70
    64
  3
----------  --  ----------  --  
 72
    65
 73
     4
 40
40.0
 49
32.5
 49
-2.5
 49
2.5
 49
-2.5
  0
LTYPE
  2
LONG2
 70
    64
  3
--------  -  -  --------  -  -  
 72
    65
 73
     6
 40
40.0
 49
30.0
 49
-2.5
 49
1.25
 49
-2.5
 49
1.25
 49
-2.5
  0
LTYPE
  2
LONG3
 70
    64
  3
+++++++++++++++..+++++++++++++++
 72
    65
 73
     2
 40
40.0
 49
37.5
 49
-2.5
  0
LTYPE
  2
LONG4
 70
    64
  3
+++++++++++++++..+++++++++++++++
 72
    65
 73
     2
 40
80.0
 49
75.0
 49
-5.0
  0
LTYPE
  2
LONG5
 70
    64
  3
----------  --  ----------  --  
 72
    65
 73
     4
 40
60.0
 49
37.5
 49
-7.5
 49
7.5
 49
-7.5
  0
LTYPE
  2
dashed
 70
   64
  3
-------   -------------   ------
 72
   65
 73
    2
 40
7.5
 49
6
 49
-1.5
  0
LTYPE
  2
dashed_spaced
 70
   64
  3
----        --------        ----
 72
   65
 73
    2
 40
12
 49
6
 49
-6
  0
LTYPE
  2
long_dashed_dotted
 70
   64
  3
------------- --- --------------
 72
   65
 73
    4
 40
15.25
 49
12
 49
-1.5
 49
0.25
 49
-1.5
  0
LTYPE
  2
long_dashed_double-dotted
 70
   64
  3
----------- --- --- ------------
 72
   65
 73
    6
 40
17
 49
12
 49
-1.5
 49
0.25
 49
-1.5
 49
0.25
 49
-1.5
  0
LTYPE
  2
long_dashed_triplicate-dotted
 70
   64
  3
--------- --- --- --- ----------
 72
   65
 73
    8
 40
18.75
 49
12
 49
-1.5
 49
0.25
 49
-1.5
 49
0.25
 49
-1.5
 49
0.25
 49
-1.5
  0
LTYPE
  2
dotted
 70
   64
  3
   -       -       -       -    
 72
   65
 73
    2
 40
1.75
 49
0.25
 49
-1.5
  0
LTYPE
  2
chain
 70
   64
  3
-------------- -- --------------
 72
   65
 73
    4
 40
18.5
 49
12
 49
-1.5
 49
3.5
 49
-1.5
  0
LTYPE
  2
chain_double_dash
 70
   64
  3
------------ -- -- -------------
 72
   65
 73
    6
 40
23.5
 49
12
 49
-1.5
 49
3.5
 49
-1.5
 49
3.5
 49
-1.5
  0
LTYPE
  2
dashed_dotted
 70
   64
  3
-----------     -     ----------
 72
   65
 73
    4
 40
9.25
 49
6
 49
-1.5
 49
0.25
 49
-1.5
  0
LTYPE
  2
double-dashed_dotted
 70
   64
  3
------   -----------   -   -----
 72
   65
 73
    6
 40
16.75
 49
6
 49
-1.5
 49
6
 49
-1.5
 49
0.25
 49
-1.5
  0
LTYPE
  2
dashed_double-dotted
 70
   64
  3
---------    -    -    ---------
 72
   65
 73
    6
 40
11
 49
6
 49
-1.5
 49
0.25
 49
-1.5
 49
0.25
 49
-1.5
  0
LTYPE
  2
double-dashed_double-dotted
 70
   64
  3
-----   ---------   -   -   ----
 72
   65
 73
    8
 40
18.5
 49
6
 49
-1.5
 49
6
 49
-1.5
 49
0.25
 49
-1.5
 49
0.25
 49
-1.5
  0
LTYPE
  2
dashed_triplicate-dotted
 70
   64
  3
-------    -    -    -    ------
 72
   65
 73
    8
 40
12.75
 49
6
 49
-1.5
 49
0.25
 49
-1.5
 49
0.25
 49
-1.5
 49
0.25
 49
-1.5
  0
LTYPE
  2
double-dashed_triplicate-dotted
 70
   64
  3
-----  ---------  -  -  -  -----
 72
   65
 73
   10
 40
20.25
 49
6
 49
-1.5
 49
6
 49
-1.5
 49
0.25
 49
-1.5
 49
0.25
 49
-1.5
 49
0.25
 49
-1.5
  0
LTYPE
  2
undefined
 70
   64
  3
--------------------------------
 72
   65
 73
    0
 40
0
  0
ENDTAB
  0
TABLE
  2
STYLE
  5
3
100
AcDbSymbolTable
 70
     1
  0
STYLE
  5
10
100
AcDbSymbolTableRecord
100
AcDbTextStyleTableRecord
  2
STANDARD
 70
     0
 40
0.0
 41
1.0
 50
0.0
 71
     0
 42
0.2
  3
txt
  4
bigfont.shx
  0
STYLE
  5
26
100
AcDbSymbolTableRecord
100
AcDbTextStyleTableRecord
  2
TATEGAKI
 70
    68
 40
0.0
 41
1.0
 50
0.0
 71
     0
 42
1.0
  3
txt
  4
bigfont.shx
  0
ENDTAB
  0
TABLE
  2
LAYER
 70
   11
  0
LAYER
  2
_0-0_
 70
   64
 62
    7
  6
CONTINUOUS
  0
LAYER
  2
_1-0_
 70
   64
 62
    7
  6
CONTINUOUS
  0
LAYER
  2
_1-1_
 70
   64
 62
    7
  6
CONTINUOUS
  0
LAYER
  2
_1-2_
 70
   64
 62
    7
  6
CONTINUOUS
  0
LAYER
  2
_1-4_
 70
   64
 62
    7
  6
CONTINUOUS
  0
LAYER
  2
_1-5_
 70
   64
 62
    7
  6
CONTINUOUS
  0
LAYER
  2
_1-a_
 70
   64
 62
    7
  6
CONTINUOUS
  0
LAYER
  2
_1-b_
 70
   64
 62
    7
  6
CONTINUOUS
  0
LAYER
  2
_1-c_
 70
   64
 62
    7
  6
CONTINUOUS
  0
LAYER
  2
_1-f_
 70
   64
 62
    7
  6
CONTINUOUS
  0
LAYER
  2
ADD_LINE
 70
   64
 62
    7
  6
CONTINUOUS
  0
ENDTAB
  0
ENDSEC
  0
SECTION
  2
BLOCKS
  0
ENDSEC
  0
SECTION
  2
ENTITIES
  0
LINE
  8
_0-0_
  6
CONTINUOUS
 62
    5
 10
6.7567526327597136
 20
280.13513513513516
 11
406.75677325274495
 21
280.13513513513516
  0
LINE
  8
_0-0_
  6
CONTINUOUS
 62
    5
 10
406.75677325274495
 20
10.13513513513513
 11
6.7567526327597136
 21
10.13513513513513
  0
LINE
  8
_0-0_
  6
CONTINUOUS
 62
    5
 10
406.75677325274495
 20
30.135133073136615
 11
6.7567402607685949
 21
30.135133073136615
  0
LINE
  8
_0-0_
  6
CONTINUOUS
 62
    5
 10
371.75678150073907
 20
10.13513513513513
 11
371.75678150073907
 21
30.135133073136615
  0
LINE
  8
_0-0_
  6
CONTINUOUS
 62
    5
 10
137.02703939901818
 20
30.135133073136615
 11
137.02703939901818
 21
10.13513513513513
  0
LINE
  8
_0-0_
  6
CONTINUOUS
 62
    5
 10
214.86486486486487
 20
30.135133073136615
 11
214.86486486486487
 21
10.13513513513513
  0
LINE
  8
_0-0_
  6
CONTINUOUS
 62
    5
 10
137.02703939901818
 20
20.135134104135886
 11
214.86486486486487
 21
20.135134104135886
  0
LINE
  8
_0-0_
  6
CONTINUOUS
 62
    5
 10
396.48648648648651
 20
25.945945945945951
 11
383.91891891891896
 21
13.378379924877265
  0
LINE
  8
_1-0_
  6
CONTINUOUS
 62
    7
 10
96.656712712468334
 20
100.57061685098185
 11
101.58108685467695
 21
89.627565950960729
  0
LINE
  8
_1-0_
  6
CONTINUOUS
 62
    7
 10
99.666051091374584
 20
82.186283420872044
 11
104.04327392578125
 21
84.156040500950169
  0
LINE
  8
_1-0_
  6
CONTINUOUS
 62
    7
 10
101.58108685467695
 20
89.627565950960729
 11
104.04327392578125
 21
84.156040500950169
  0
LINE
  8
_1-0_
  6
CONTINUOUS
 62
    7
 10
92.279489878061653
 20
98.600872142894858
 11
99.666051091374584
 21
82.186283420872044
  0
LINE
  8
_1-0_
  6
CONTINUOUS
 62
    7
 10
101.33488423115499
 20
107.72008122624578
 11
101.58109922666809
 21
107.17292991844384
  0
LINE
  8
_1-1_
  6
CONTINUOUS
 62
    7
 10
124.53001692488388
 20
118.15789712441935
 11
123.29891720333616
 21
120.8936660354202
  0
LINE
  8
_1-1_
  6
CONTINUOUS
 62
    7
 10
123.29891720333616
 20
120.8936660354202
 11
127.67614003774283
 21
122.86342311549832
  0
LINE
  8
_1-1_
  6
CONTINUOUS
 62
    7
 10
127.67614003774283
 20
122.86342311549832
 11
128.90723975929055
 21
120.12765420449747
  0
LINE
  8
_1-1_
  6
CONTINUOUS
 62
    7
 10
128.90723975929055
 20
120.12765420449747
 11
124.53001692488388
 21
118.15789712441935
  0
LINE
  8
ADD_LINE
  6
DOT
 62
    3
 10
68.382865287162161
 20
106.79075911238387
 11
66.525346910631356
 21
113.98142221811656
  0
LINE
  8
_1-a_
  6
CONTINUOUS
 62
    3
 10
71.755024677998335
 20
104.93164474899704
 11
73.157983728357266
 21
99.500662313925261
  0
LINE
  8
_1-a_
  6
CONTINUOUS
 62
    3
 10
127.67614003774283
 20
122.86342311549832
 11
71.755024677998335
 21
104.93164474899704
  0
LINE
  8
_1-a_
  6
CONTINUOUS
 62
    3
 10
68.382865287162161
 20
106.79075911238387
 11
66.378652211782082
 21
114.54930898305533
  0
LINE
  8
ADD_LINE
  6
DOT
 62
    3
 10
68.382865287162161
 20
106.79075911238387
 11
70.888131631387239
 21
97.092553216057865
  0
LINE
  8
_1-a_
  6
CONTINUOUS
 62
    3
 10
68.382865287162161
 20
106.79075911238387
 11
70.888131631387239
 21
97.092553216057865
  0
LINE
  8
_1-a_
  6
CONTINUOUS
 62
    3
 10
63.707959974134297
 20
113.69291975691513
 11
66.378652211782082
 21
114.54930898305533
  0
LINE
  8
_1-a_
  6
CONTINUOUS
 62
    3
 10
63.707959974134297
 20
113.69291975691513
 11
68.217427021748335
 21
96.236163989917657
  0
LINE
  8
_1-a_
  6
CONTINUOUS
 62
    3
 10
68.217427021748335
 20
96.236163989917657
 11
70.888131631387239
 21
97.092553216057865
  0
LINE
  8
_1-a_
  6
CONTINUOUS
 62
    3
 10
70.487291490709481
 20
98.644273087785052
 11
73.157983728357266
 21
99.500662313925261
  0
LINE
  8
ADD_LINE
  6
DOT
 62
    3
 10
63.543189796241563
 20
106.33433161555111
 11
64.973070299303231
 21
100.79909041121199
  0
LINE
  8
_1-a_
  6
CONTINUOUS
 62
    3
 10
126.51980425860431
 20
125.43306092958193
 11
68.382865287162161
 21
106.79075911238387
  0
LINE
  8
_1-a_
  6
CONTINUOUS
 62
    3
 10
126.51980425860431
 20
125.43306092958193
 11
127.37693580421242
 21
122.76006750158362
  0
LINE
  8
_1-a_
  6
CONTINUOUS
 62
    3
 10
68.382865287162161
 20
106.79075911238387
 11
70.888131631387239
 21
97.092553216057865
  0
LINE
  8
_1-1_
  6
CONTINUOUS
 62
    7
 10
167.39031817461995
 20
137.44502711940456
 11
166.15921845307221
 21
140.18079603040542
  0
LINE
  8
_1-1_
  6
CONTINUOUS
 62
    7
 10
166.15921845307221
 20
140.18079603040542
 11
170.53644128747891
 21
142.15055311048354
  0
LINE
  8
_1-1_
  6
CONTINUOUS
 62
    7
 10
170.53644128747891
 20
142.15055311048354
 11
171.76754100902662
 21
139.41478419948268
  0
LINE
  8
_1-1_
  6
CONTINUOUS
 62
    7
 10
171.76754100902662
 20
139.41478419948268
 11
167.39031817461995
 21
137.44502711940456
  0
LINE
  8
_1-1_
  6
CONTINUOUS
 62
    7
 10
210.25063179634714
 20
156.73216948638091
 11
209.01951970280828
 21
159.46793839738177
  0
LINE
  8
_1-1_
  6
CONTINUOUS
 62
    7
 10
209.01951970280828
 20
159.46793839738177
 11
213.39675490920609
 21
161.4376954774599
  0
LINE
  8
_1-1_
  6
CONTINUOUS
 62
    7
 10
213.39675490920609
 20
161.4376954774599
 11
214.62784225876268
 21
158.70192656645904
  0
LINE
  8
_1-1_
  6
CONTINUOUS
 62
    7
 10
214.62784225876268
 20
158.70192656645904
 11
210.25063179634714
 21
156.73216948638091
  0
LINE
  8
_1-1_
  6
CONTINUOUS
 62
    7
 10
253.11094541807435
 20
176.01931185335727
 11
251.8798333245355
 21
178.75508076435813
  0
LINE
  8
_1-1_
  6
CONTINUOUS
 62
    7
 10
251.8798333245355
 20
178.75508076435813
 11
256.25706853093328
 21
180.72483784443625
  0
LINE
  8
_1-1_
  6
CONTINUOUS
 62
    7
 10
256.25706853093328
 20
180.72483784443625
 11
257.4881558804899
 21
177.98906893343539
  0
LINE
  8
_1-1_
  6
CONTINUOUS
 62
    7
 10
257.4881558804899
 20
177.98906893343539
 11
253.11094541807435
 21
176.01931185335727
  0
LINE
  8
_1-1_
  6
CONTINUOUS
 62
    7
 10
295.97125903980151
 20
195.30647896431589
 11
294.74014694626271
 21
198.04222313133448
  0
LINE
  8
_1-1_
  6
CONTINUOUS
 62
    7
 10
294.74014694626271
 20
198.04222313133448
 11
299.11738215266047
 21
200.01199258340372
  0
LINE
  8
_1-1_
  6
CONTINUOUS
 62
    7
 10
299.11738215266047
 20
200.01199258340372
 11
300.34846950221709
 21
197.27622367240289
  0
LINE
  8
_1-1_
  6
CONTINUOUS
 62
    7
 10
300.34846950221709
 20
197.27622367240289
 11
295.97125903980151
 21
195.30647896431589
  0
LINE
  8
_1-1_
  6
CONTINUOUS
 62
    7
 10
294.74014694626271
 20
198.04222313133448
 11
300.34849424619932
 21
197.27619892842063
  0
LINE
  8
_1-1_
  6
CONTINUOUS
 62
    7
 10
251.8798333245355
 20
178.75508076435813
 11
257.4881558804899
 21
177.98906893343539
  0
LINE
  8
_1-1_
  6
CONTINUOUS
 62
    7
 10
209.01951970280828
 20
159.46793839738177
 11
214.62784225876268
 21
158.70192656645904
  0
LINE
  8
_1-1_
  6
CONTINUOUS
 62
    7
 10
166.15921845307221
 20
140.18079603040542
 11
171.76754100902662
 21
139.41478419948268
  0
LINE
  8
_1-1_
  6
CONTINUOUS
 62
    7
 10
123.29891720333616
 20
120.8936660354202
 11
128.90723975929055
 21
120.12765420449747
  0
LINE
  8
_1-b_
  6
CONTINUOUS
 62
    3
 10
115.02014984955659
 20
121.74556422877957
 11
170.71428865999789
 21
142.24496377480997
  0
LINE
  8
_1-b_
  6
CONTINUOUS
 62
    3
 10
171.40512827280406
 20
140.36807086016682
 11
173.09433808197846
 21
140.98981290250211
  0
LINE
  8
_1-b_
  6
CONTINUOUS
 62
    3
 10
170.71428865999789
 20
142.24496377480997
 11
171.40512827280406
 21
140.36807086016682
  0
LINE
  8
_1-b_
  6
CONTINUOUS
 62
    3
 10
115.73643864812078
 20
124.99285311312289
 11
169.93481610272383
 21
144.94171142578125
  0
LINE
  8
_1-b_
  6
CONTINUOUS
 62
    3
 10
114.78758116026184
 20
122.93865719357053
 11
115.20491316511826
 21
121.80481369430954
  0
LINE
  8
_1-1_
  6
CONTINUOUS
 62
    7
 10
166.15923082506336
 20
140.18080840239654
 11
170.53645365947003
 21
142.15056548247466
  0
LINE
  8
_1-1_
  6
CONTINUOUS
 62
    7
 10
210.25063179634714
 20
156.73216948638091
 11
209.01954444679055
 21
159.46793839738177
  0
LINE
  8
_1-1_
  6
CONTINUOUS
 62
    7
 10
209.01954444679055
 20
159.46793839738177
 11
213.39675490920609
 21
161.4376954774599
  0
LINE
  8
_1-1_
  6
CONTINUOUS
 62
    7
 10
213.39675490920609
 20
161.4376954774599
 11
214.62786700274495
 21
158.70192656645904
  0
LINE
  8
_1-1_
  6
CONTINUOUS
 62
    7
 10
214.62786700274495
 20
158.70192656645904
 11
210.25063179634714
 21
156.73216948638091
  0
LINE
  8
_1-1_
  6
CONTINUOUS
 62
    7
 10
209.01954444679055
 20
159.46793839738177
 11
214.62786700274495
 21
158.70192656645904
  0
LINE
  8
_1-b_
  6
CONTINUOUS
 62
    3
 10
157.8804634712838
 20
141.03270659575591
 11
213.57461465371622
 21
161.53210614178633
  0
LINE
  8
_1-b_
  6
CONTINUOUS
 62
    3
 10
214.26544189453125
 20
159.65521322714318
 11
215.95463933171453
 21
160.27695526947846
  0
LINE
  8
_1-b_
  6
CONTINUOUS
 62
    3
 10
213.57461465371622
 20
161.53210614178633
 11
214.26544189453125
 21
159.65521322714318
  0
LINE
  8
_1-b_
  6
CONTINUOUS
 62
    3
 10
158.59675226984797
 20
144.27999548009925
 11
212.79512972445102
 21
164.2288537927576
  0
LINE
  8
_1-b_
  6
CONTINUOUS
 62
    3
 10
157.64789478198904
 20
142.22579956054687
 11
158.06522678684544
 21
141.09195606128591
  0
LINE
  8
_1-1_
  6
CONTINUOUS
 62
    7
 10
209.01954444679055
 20
159.46795076937289
 11
213.39675490920609
 21
161.43770784945102
  0
LINE
  8
_1-1_
  6
CONTINUOUS
 62
    7
 10
253.11094541807435
 20
176.01931185335727
 11
251.8798333245355
 21
178.75508076435813
  0
LINE
  8
_1-1_
  6
CONTINUOUS
 62
    7
 10
251.8798333245355
 20
178.75508076435813
 11
256.25706853093328
 21
180.72483784443625
  0
LINE
  8
_1-1_
  6
CONTINUOUS
 62
    7
 10
256.25706853093328
 20
180.72483784443625
 11
257.4881558804899
 21
177.98906893343539
  0
LINE
  8
_1-1_
  6
CONTINUOUS
 62
    7
 10
257.4881558804899
 20
177.98906893343539
 11
253.11094541807435
 21
176.01931185335727
  0
LINE
  8
_1-1_
  6
CONTINUOUS
 62
    7
 10
251.8798333245355
 20
178.75508076435813
 11
257.4881558804899
 21
177.98906893343539
  0
LINE
  8
_1-b_
  6
CONTINUOUS
 62
    3
 10
200.74077709301099
 20
160.31984896273227
 11
256.43490353146115
 21
180.81924850876268
  0
LINE
  8
_1-b_
  6
CONTINUOUS
 62
    3
 10
257.12575551625844
 20
178.94235559411953
 11
258.81497769742401
 21
179.56409763645482
  0
LINE
  8
_1-b_
  6
CONTINUOUS
 62
    3
 10
256.43490353146115
 20
180.81924850876268
 11
257.12575551625844
 21
178.94235559411953
  0
LINE
  8
_1-b_
  6
CONTINUOUS
 62
    3
 10
201.45706589157518
 20
163.5671378470756
 11
255.65544334617823
 21
183.51599615973396
  0
LINE
  8
_1-b_
  6
CONTINUOUS
 62
    3
 10
200.50820840371622
 20
161.51294192752323
 11
200.92554040857266
 21
160.37909842826227
  0
LINE
  8
_1-1_
  6
CONTINUOUS
 62
    7
 10
251.8798333245355
 20
178.75508076435813
 11
256.25706853093328
 21
180.72483784443625
  0
LINE
  8
_1-1_
  6
CONTINUOUS
 62
    7
 10
256.25706853093328
 20
180.72483784443625
 11
257.4881558804899
 21
177.98906893343539
  0
LINE
  8
_1-1_
  6
CONTINUOUS
 62
    7
 10
295.97125903980151
 20
195.30645422033362
 11
294.74014694626271
 21
198.04222313133448
  0
LINE
  8
_1-1_
  6
CONTINUOUS
 62
    7
 10
294.74014694626271
 20
198.04222313133448
 11
299.11738215266047
 21
200.01199258340372
  0
LINE
  8
_1-1_
  6
CONTINUOUS
 62
    7
 10
299.11738215266047
 20
200.01199258340372
 11
300.34846950221709
 21
197.27619892842063
  0
LINE
  8
_1-1_
  6
CONTINUOUS
 62
    7
 10
300.34846950221709
 20
197.27619892842063
 11
295.97125903980151
 21
195.30645422033362
  0
LINE
  8
_1-1_
  6
CONTINUOUS
 62
    7
 10
294.74014694626271
 20
198.04222313133448
 11
300.34846950221709
 21
197.27619892842063
  0
LINE
  8
_1-1_
  6
CONTINUOUS
 62
    7
 10
251.8798333245355
 20
178.75508076435813
 11
257.4881558804899
 21
177.98906893343539
  0
LINE
  8
_1-1_
  6
CONTINUOUS
 62
    7
 10
251.87985806851776
 20
178.75508076435813
 11
256.25706853093328
 21
180.72483784443625
  0
LINE
  8
_1-1_
  6
CONTINUOUS
 62
    7
 10
256.25706853093328
 20
180.72483784443625
 11
257.48818062447214
 21
177.98906893343539
  0
LINE
  8
_1-1_
  6
CONTINUOUS
 62
    7
 10
251.87985806851776
 20
178.75508076435813
 11
257.48818062447214
 21
177.98906893343539
  0
LINE
  8
_1-b_
  6
CONTINUOUS
 62
    3
 10
257.12575551625844
 20
178.94235559411953
 11
258.81495295344172
 21
179.56409763645482
  0
LINE
  8
_1-b_
  6
CONTINUOUS
 62
    3
 10
256.43492827544344
 20
180.81924850876268
 11
257.12575551625844
 21
178.94235559411953
  0
LINE
  8
_1-1_
  6
CONTINUOUS
 62
    7
 10
251.87985806851776
 20
178.75509313634925
 11
256.25706853093328
 21
180.72485021642737
  0
LINE
  8
_1-1_
  6
CONTINUOUS
 62
    7
 10
295.97125903980151
 20
195.30645422033362
 11
294.74014694626271
 21
198.04222313133448
  0
LINE
  8
_1-1_
  6
CONTINUOUS
 62
    7
 10
294.74014694626271
 20
198.04222313133448
 11
299.11738215266047
 21
200.01199258340372
  0
LINE
  8
_1-1_
  6
CONTINUOUS
 62
    7
 10
299.11738215266047
 20
200.01199258340372
 11
300.34846950221709
 21
197.27619892842063
  0
LINE
  8
_1-1_
  6
CONTINUOUS
 62
    7
 10
300.34846950221709
 20
197.27619892842063
 11
295.97125903980151
 21
195.30645422033362
  0
LINE
  8
_1-1_
  6
CONTINUOUS
 62
    7
 10
294.74014694626271
 20
198.04222313133448
 11
300.34846950221709
 21
197.27619892842063
  0
LINE
  8
_1-b_
  6
CONTINUOUS
 62
    3
 10
244.31737951330237
 20
182.85428021405195
 11
298.51575696790542
 21
202.80313852671031
  0
LINE
  8
_1-b_
  6
CONTINUOUS
 62
    3
 10
243.36852202544344
 20
180.80008429449958
 11
243.78585403029984
 21
179.66624079523862
  0
LINE
  8
_1-1_
  6
CONTINUOUS
 62
    7
 10
295.96455342060813
 20
195.32132535367398
 11
294.73344132706927
 21
198.05709426467484
  0
LINE
  8
_1-1_
  6
CONTINUOUS
 62
    7
 10
294.73344132706927
 20
198.05709426467484
 11
299.11067653346709
 21
200.02683897276182
  0
LINE
  8
_1-1_
  6
CONTINUOUS
 62
    7
 10
299.11067653346709
 20
200.02683897276182
 11
300.34176388302365
 21
197.29109480574326
  0
LINE
  8
_1-1_
  6
CONTINUOUS
 62
    7
 10
300.34176388302365
 20
197.29109480574326
 11
295.96455342060813
 21
195.32132535367398
  0
LINE
  8
_1-1_
  6
CONTINUOUS
 62
    7
 10
294.73344132706927
 20
198.05709426467484
 11
300.34176388302365
 21
197.29109480574326
  0
LINE
  8
_1-1_
  6
CONTINUOUS
 62
    7
 10
295.96455342060813
 20
195.32132535367398
 11
294.73344132706927
 21
198.05709426467484
  0
LINE
  8
_1-1_
  6
CONTINUOUS
 62
    7
 10
294.73344132706927
 20
198.05709426467484
 11
299.11067653346709
 21
200.02683897276182
  0
LINE
  8
_1-1_
  6
CONTINUOUS
 62
    7
 10
299.11067653346709
 20
200.02683897276182
 11
300.34176388302365
 21
197.29109480574326
  0
LINE
  8
_1-1_
  6
CONTINUOUS
 62
    7
 10
300.34176388302365
 20
197.29109480574326
 11
295.96455342060813
 21
195.32132535367398
  0
LINE
  8
_1-1_
  6
CONTINUOUS
 62
    7
 10
294.73344132706927
 20
198.05709426467484
 11
300.34176388302365
 21
197.29109480574326
  0
LINE
  8
_1-b_
  6
CONTINUOUS
 62
    3
 10
299.97936351879224
 20
198.24438146642737
 11
301.66858569995776
 21
198.86609876478042
  0
LINE
  8
_1-1_
  6
CONTINUOUS
 62
    7
 10
294.73344132706927
 20
198.05709426467484
 11
299.11067653346709
 21
200.02683897276182
  0
LINE
  8
_1-1_
  6
CONTINUOUS
 62
    7
 10
299.11067653346709
 20
200.02683897276182
 11
300.34176388302365
 21
197.29109480574326
  0
LINE
  8
_1-1_
  6
CONTINUOUS
 62
    7
 10
294.73344132706927
 20
198.05709426467484
 11
300.34176388302365
 21
197.29109480574326
  0
LINE
  8
_1-1_
  6
CONTINUOUS
 62
    7
 10
294.73346607105151
 20
198.05709426467484
 11
299.11067653346709
 21
200.02683897276182
  0
LINE
  8
_1-1_
  6
CONTINUOUS
 62
    7
 10
299.11067653346709
 20
200.02683897276182
 11
300.34178862700594
 21
197.29109480574326
  0
LINE
  8
_1-1_
  6
CONTINUOUS
 62
    7
 10
294.73346607105151
 20
198.05709426467484
 11
300.34178862700594
 21
197.29109480574326
  0
LINE
  8
_1-b_
  6
CONTINUOUS
 62
    3
 10
299.97936351879224
 20
198.24438146642737
 11
301.66856095597552
 21
198.86609876478042
  0
LINE
  8
_1-1_
  6
CONTINUOUS
 62
    7
 10
294.73346607105151
 20
198.05711900865711
 11
299.11067653346709
 21
200.02686371674409
  0
LINE
  8
_1-b_
  6
CONTINUOUS
 62
    3
 10
286.22213002797719
 20
200.10211016680745
 11
286.63946203283365
 21
198.96824192356419
  0
LINE
  8
_1-0_
  6
CONTINUOUS
 62
    7
 10
101.58108685467695
 20
89.627565950960729
 11
330.3350830078125
 21
192.56687473606419
  0
LINE
  8
_1-0_
  6
CONTINUOUS
 62
    7
 10
86.807964428051108
 20
96.138685071790547
 11
325.41073360958615
 21
203.50992563608531
  0
LINE
  8
_1-0_
  6
CONTINUOUS
 62
    7
 10
101.99146580051732
 20
106.26100282411318
 11
324.17962151604729
 21
206.24569454708617
  0
LINE
  8
_1-b_
  6
CONTINUOUS
 62
    3
 10
286.45469871727198
 20
198.90900483002534
 11
321.65142987225511
 21
211.86391469594597
  0
LINE
  8
_1-b_
  6
CONTINUOUS
 62
    3
 10
287.17098751583615
 20
202.15630608635982
 11
320.49957275390625
 21
214.42358068517737
  0
LINE
  8
_1-b_
  6
CONTINUOUS
 62
    3
 10
298.33792196737755
 20
203.28289959881758
 11
298.50905134871203
 21
202.81800966005068
  0
LINE
  8
_1-b_
  6
CONTINUOUS
 62
    3
 10
298.33901070259714
 20
203.2832955025338
 11
298.51575696790542
 21
202.80313852671031
  0
LINE
  8
_1-b_
  6
CONTINUOUS
 62
    3
 10
298.33794671135979
 20
203.28287485483531
 11
298.50905134871203
 21
202.81800966005068
  0
LINE
  8
_1-b_
  6
CONTINUOUS
 62
    3
 10
299.83946104307432
 20
203.83555644267315
 11
301.66858569995776
 21
198.86609876478042
  0
LINE
  8
_1-b_
  6
CONTINUOUS
 62
    3
 10
255.48433870882602
 20
183.98086135451859
 11
255.65544334617823
 21
183.51599615973396
  0
LINE
  8
_1-b_
  6
CONTINUOUS
 62
    3
 10
256.98582829655828
 20
184.53354294235643
 11
258.81495295344172
 21
179.56409763645482
  0
LINE
  8
_1-b_
  6
CONTINUOUS
 62
    3
 10
255.48433870882602
 20
183.98086135451859
 11
255.65544334617823
 21
183.51599615973396
  0
LINE
  8
_1-b_
  6
CONTINUOUS
 62
    3
 10
256.98585304054058
 20
184.53354294235643
 11
258.81497769742401
 21
179.56409763645482
  0
LINE
  8
_1-b_
  6
CONTINUOUS
 62
    3
 10
212.62402508709883
 20
164.69373135953336
 11
212.79512972445102
 21
164.2288537927576
  0
LINE
  8
_1-b_
  6
CONTINUOUS
 62
    3
 10
214.12551467483109
 20
165.24638820338893
 11
215.95463933171453
 21
160.27695526947846
  0
LINE
  8
_1-b_
  6
CONTINUOUS
 62
    3
 10
169.7636990933805
 20
145.406588992557
 11
169.93481610272383
 21
144.94171142578125
  0
LINE
  8
_1-b_
  6
CONTINUOUS
 62
    3
 10
171.26522579708615
 20
145.95924583641261
 11
173.09433808197846
 21
140.98981290250211
  0
LINE
  8
_1-c_
  6
CONTINUOUS
 62
    7
 10
112.30058824693835
 20
129.6955088022593
 11
114.78758116026184
 21
122.93866956556167
  0
LINE
  8
_1-c_
  6
CONTINUOUS
 62
    7
 10
155.16090186866555
 20
148.98265116923565
 11
157.64789478198904
 21
142.22581193253802
  0
LINE
  8
_1-c_
  6
CONTINUOUS
 62
    7
 10
198.02121549039273
 20
168.26979353621201
 11
200.50820840371622
 21
161.51295429951438
  0
LINE
  8
_1-c_
  6
CONTINUOUS
 62
    7
 10
240.88152911211995
 20
187.55691115920609
 11
243.36852202544344
 21
180.80008429449958
  0
LINE
  8
_1-c_
  6
CONTINUOUS
 62
    7
 10
283.73513711465375
 20
206.85894940350508
 11
286.22213002797719
 21
200.10208542282518
  0
LINE
  8
_1-c_
  6
CONTINUOUS
 62
    7
 10
284.68396985853042
 20
208.91314532305745
 11
318.01257984058276
 21
221.180419921875
  0
LINE
  8
_1-c_
  6
CONTINUOUS
 62
    7
 10
241.83036185599664
 20
189.61110707875847
 11
284.32636982685813
 21
205.25266905088682
  0
LINE
  8
_1-c_
  6
CONTINUOUS
 62
    7
 10
112.71569329339106
 20
128.56772757865289
 11
67.305586531355573
 21
114.00643838418497
  0
LINE
  8
_1-0_
  6
CONTINUOUS
 62
    7
 10
99.541551744615717
 20
82.462945886560391
 11
99.770990320154141
 21
82.233507311021967
  0
LINE
  8
_1-0_
  6
CONTINUOUS
 62
    7
 10
97.690231735641902
 20
86.577004097603464
 11
101.33149430558488
 21
82.935741527660483
  0
LINE
  8
_1-0_
  6
CONTINUOUS
 62
    7
 10
95.838899354676954
 20
90.691074680637669
 11
102.89201066300676
 21
83.637963372307865
  0
LINE
  8
_1-0_
  6
CONTINUOUS
 62
    7
 10
93.987566973711992
 20
94.805132891680742
 11
103.55777224978885
 21
85.234939987595027
  0
LINE
  8
_1-0_
  6
CONTINUOUS
 62
    7
 10
92.400240511507604
 20
98.655209927945535
 11
101.70643986882391
 21
89.349010570629233
  0
LINE
  8
_1-0_
  6
CONTINUOUS
 62
    7
 10
93.960744496938347
 20
99.357431772592918
 11
99.855119859850092
 21
93.463056409681172
  0
LINE
  8
_1-0_
  6
CONTINUOUS
 62
    7
 10
95.521248482369089
 20
100.05966598923142
 11
98.003787478885144
 21
97.577126992715378
  0
LINE
  8
_1-c_
  6
CONTINUOUS
 62
    7
 10
198.97006060626057
 20
170.32397708377323
 11
241.46712019636826
 21
185.96592258762669
  0
LINE
  8
_1-c_
  6
CONTINUOUS
 62
    7
 10
156.10974698453336
 20
151.03683471679687
 11
198.60681894663219
 21
166.67878022065034
  0
LINE
  8
_1-c_
  6
CONTINUOUS
 62
    7
 10
113.24943336280617
 20
131.74969234982052
 11
155.746505324905
 21
147.39163785367398
  0
LINE
  8
_1-4_
  6
CONTINUOUS
 62
    7
 10
102.38769118850296
 20
149.81769871067357
 11
84.121683481577278
 21
190.40880357896961
  0
LINE
  8
_1-4_
  6
CONTINUOUS
 62
    7
 10
84.121683481577278
 20
190.40880357896961
 11
126.98199710330448
 21
209.69594594594597
  0
LINE
  8
_1-4_
  6
CONTINUOUS
 62
    7
 10
102.38767881651184
 20
149.81769871067357
 11
84.121683481577278
 21
190.40880357896961
  0
LINE
  8
_1-4_
  6
CONTINUOUS
 62
    7
 10
145.24799243823904
 20
169.10484107764992
 11
126.98199710330448
 21
209.69594594594597
  0
LINE
  8
_1-4_
  6
CONTINUOUS
 62
    7
 10
126.98199710330448
 20
209.69594594594597
 11
170.01866108662375
 21
229.06246700802367
  0
LINE
  8
_1-4_
  6
CONTINUOUS
 62
    7
 10
188.28465642155828
 20
188.47134976773648
 11
170.01866108662375
 21
229.06244226404141
  0
LINE
  8
_1-4_
  6
CONTINUOUS
 62
    7
 10
170.01866108662375
 20
229.06246700802367
 11
212.70263671875
 21
248.27023067989867
  0
LINE
  8
_1-4_
  6
CONTINUOUS
 62
    7
 10
230.96861968169341
 20
207.67913818359375
 11
212.70261197476773
 21
248.27025542388094
  0
LINE
  8
_1-4_
  6
CONTINUOUS
 62
    7
 10
212.70263671875
 20
248.27023067989867
 11
255.73875633445948
 21
267.63647955817146
  0
LINE
  8
_1-4_
  6
CONTINUOUS
 62
    7
 10
274.00476404138516
 20
227.04538706186656
 11
255.73875633445948
 21
267.63647955817146
  0
LINE
  8
_1-a_
  6
CONTINUOUS
 62
    7
 10
39.552909232474661
 20
170.35285331107477
 11
84.121695853568411
 21
190.40880357896961
  0
LINE
  8
_1-a_
  6
CONTINUOUS
 62
    7
 10
57.818916939400339
 20
129.76174844277872
 11
39.552909232474661
 21
170.35285331107477
  0
LINE
  8
_1-a_
  6
CONTINUOUS
 62
    7
 10
102.38769118850296
 20
149.81769871067357
 11
84.121695853568411
 21
190.40880357896961
  0
LINE
  8
_1-4_
  6
CONTINUOUS
 62
    7
 10
81.142538947028072
 20
74.396382924672722
 11
93.909895613386823
 21
80.141700538429063
  0
LINE
  8
_1-4_
  6
CONTINUOUS
 62
    7
 10
75.937735067831511
 20
85.96261101800043
 11
81.142538947028072
 21
74.396382924672722
  0
LINE
  8
_1-4_
  6
CONTINUOUS
 62
    7
 10
88.705097920185821
 20
91.707922445761199
 11
93.909895613386823
 21
80.14169435243349
  0
LINE
  8
_1-4_
  6
CONTINUOUS
 62
    7
 10
98.108108108108112
 20
120.81081081081082
 11
78.121106946790547
 21
155.42931221626901
  0
LINE
  8
_1-4_
  6
CONTINUOUS
 62
    7
 10
91.213086102459883
 20
108.38960389833193
 11
71.609226948506148
 21
142.34448407147383
  0
LINE
  8
_1-4_
  6
CONTINUOUS
 62
    7
 10
102.97297297297298
 20
85.135135135135144
 11
116.9914163125528
 21
60.854471567514793
  0
LINE
  8
_1-4_
  6
CONTINUOUS
 62
    7
 10
78.121106946790547
 20
155.42931221626901
 11
73.783783783783804
 21
155.42931221626901
  0
LINE
  8
_1-4_
  6
CONTINUOUS
 62
    7
 10
71.609226948506148
 20
142.34448407147383
 11
64.054054054054063
 21
142.34448407147383
  0
LINE
  8
_1-4_
  6
CONTINUOUS
 62
    7
 10
116.9914163125528
 20
60.854471567514793
 11
121.26518455711572
 21
60.854471567514793
  0
LINE
  8
_1-4_
  6
CONTINUOUS
 62
    7
 10
211.27503266205659
 20
158.58819085198482
 11
245.62933019689612
 21
99.084814948004649
  0
LINE
  8
_1-4_
  6
CONTINUOUS
 62
    7
 10
231.8918918918919
 20
180
 11
216.82015908730997
 21
206.10498789194469
  0
LINE
  8
_1-4_
  6
CONTINUOUS
 62
    7
 10
216.82015908730997
 20
206.10498789194469
 11
209.18918918918919
 21
206.10498789194469
  0
LINE
  8
_1-5_
  6
CONTINUOUS
 62
    7
 10
248.03075841955237
 20
94.925407203468126
 11
249.67125969964107
 21
94.925407203468126
  0
LINE
  8
_1-5_
  6
CONTINUOUS
 62
    7
 10
245.62933019689612
 20
99.084814948004649
 11
248.03075841955237
 21
94.925413389463685
  0
LINE
  8
_1-b_
  6
CONTINUOUS
 62
    3
 10
243.60109071473818
 20
179.60699132970862
 11
299.29412841796875
 21
200.10599497202281
  0
LINE
  8
_1-b_
  6
CONTINUOUS
 62
    3
 10
299.29412841796875
 20
200.10599497202281
 11
299.97936351879224
 21
198.24438146642737
  0
LINE
  8
_1-4_
  6
CONTINUOUS
 62
    7
 10
233.0858137800887
 20
120.81081081081082
 11
248.65438100453972
 21
120.81081081081082
  0
LINE
  8
_1-5_
  6
CONTINUOUS
 62
    7
 10
248.65438100453972
 20
114.2908828322952
 11
236.85009105785474
 21
114.2908828322952
  0
LINE
  8
_1-5_
  6
CONTINUOUS
 62
    7
 10
248.65438100453972
 20
107.11063694309544
 11
240.99562361433701
 21
107.11063694309544
  0
LINE
  8
_1-5_
  6
CONTINUOUS
 62
    7
 10
248.65438100453972
 20
100.24951419314823
 11
244.95688773490289
 21
100.24951419314823
  0
ARC
  8
_1-a_
  6
CONTINUOUS
 62
    3
 10
84.662636421822214
 20
109.79516106682856
 40
21.314104441049938
 50
169.462890625
 51
219.50543212890628
  0
ARC
  8
_1-b_
  6
CONTINUOUS
 62
    3
 10
116.28909549197635
 20
123.49132640941724
 40
1.5999999239638045
 50
110.20680236816406
 51
200.20738220214844
  0
ARC
  8
_1-b_
  6
CONTINUOUS
 62
    3
 10
159.14940911370357
 20
142.77846877639359
 40
1.5999999239638045
 50
110.20680236816406
 51
200.20738220214844
  0
ARC
  8
_1-b_
  6
CONTINUOUS
 62
    3
 10
202.00972273543076
 20
162.06561114336995
 40
1.5999999239638045
 50
110.20680236816406
 51
200.20738220214844
  0
ARC
  8
_1-b_
  6
CONTINUOUS
 62
    3
 10
244.87003635715794
 20
181.3527535103463
 40
1.5999999239638045
 50
110.20680236816406
 51
200.20738220214844
  0
ARC
  8
_1-b_
  6
CONTINUOUS
 62
    3
 10
287.72364435969172
 20
200.65476701066302
 40
1.5999999239638045
 50
110.20680236816406
 51
200.20738220214844
  0
ARC
  8
_1-c_
  6
CONTINUOUS
 62
    7
 10
113.80210257865288
 20
130.24816564611487
 40
1.5999999239638045
 50
110.20722961425781
 51
200.20695495605469
  0
ARC
  8
_1-c_
  6
CONTINUOUS
 62
    7
 10
156.66241620038008
 20
149.53530801309122
 40
1.5999999239638045
 50
110.20722961425781
 51
200.20695495605469
  0
ARC
  8
_1-c_
  6
CONTINUOUS
 62
    7
 10
199.52272982210727
 20
168.82245038006758
 40
1.5999999239638045
 50
110.20722961425781
 51
200.20695495605469
  0
ARC
  8
_1-c_
  6
CONTINUOUS
 62
    7
 10
242.38304344383448
 20
188.10956800306167
 40
1.5999999239638045
 50
110.20748901367187
 51
200.20695495605469
  0
ARC
  8
_1-c_
  6
CONTINUOUS
 62
    7
 10
285.23665144636828
 20
207.41160624736065
 40
1.5999999239638045
 50
110.20748901367187
 51
200.20695495605469
  0
ARC
  8
_1-c_
  6
CONTINUOUS
 62
    7
 10
67.152569745038022
 20
114.80795782965583
 40
0.8160004744658599
 50
198.47985839843753
 51
280.80862426757812
  0
TEXT
  8
_0-0_
 62
    7
 10
141.89189395389042
 20
14.594594594594582
 40
2.5
 41
1
 50
0
  1
縮尺
  0
TEXT
  8
_0-0_
 62
    7
 10
377.10214563318203
 20
22.865493362014362
 40
2.5
 41
1
 50
0
  1
ＮＯ
  0
TEXT
  8
_0-0_
 62
    7
 10
14.594594336844779
 20
24.324324324324323
 40
2.5
 41
1
 50
0
  1
和形
  0
TEXT
  8
_0-0_
 62
    7
 10
25.556194717819636
 20
20.211577544341225
 40
2.5
 41
1
 50
0
  1
木造
  0
TEXT
  8
_0-0_
 62
    7
 10
383.23801896378802
 20
18.523427086907475
 40
3
 41
1
 50
0
  1
Ｊ
  0
TEXT
  8
_1-0_
 62
    7
 10
169.90681828679266
 20
13.3181144095756
 40
2.5
 41
1
 50
0
  1
1/5
  0
TEXT
  8
_1-a_
 62
    7
 10
59.922266086654787
 20
180.06735280784272
 40
2.5
 41
1
 50
24.227719460851628
  1
245
  0
TEXT
  8
_1-4_
 62
    7
 10
86.181137892698047
 20
77.21204414630833
 40
2.5
 41
1
 50
24.227700068058738
  1
70
  0
TEXT
  8
_1-5_
 62
    7
 10
202.84917676771011
 20
205.1842024519637
 40
2.5
 41
1
 50
0
  1
桟瓦
  0
TEXT
  8
_1-5_
 62
    7
 10
252.48460099503802
 20
119.97025773331926
 40
2.5
 41
1
 50
0
  1
瓦桟　
  0
TEXT
  8
_1-5_
 62
    7
 10
252.48615986592063
 20
112.97025938291809
 40
2.5
 41
1
 50
0
  1
流し桟
  0
TEXT
  8
_1-5_
 62
    7
 10
252.48616398991766
 20
105.9702610325169
 40
2.5
 41
1
 50
0
  1
下葺き材
  0
TEXT
  8
_1-5_
 62
    7
 10
252.48615986592063
 20
98.970262682115717
 40
2.5
 41
1
 50
0
  1
野地板
  0
TEXT
  8
_1-5_
 62
    7
 10
266.49065997149495
 20
98.970262682115717
 40
2.5
 41
1
 50
0
  1
ｔ＝12
  0
TEXT
  8
_1-5_
 62
    7
 10
62.573307140453437
 20
154.61365158493456
 40
2.5
 41
1
 50
0
  1
万十軒瓦
  0
TEXT
  8
_1-5_
 62
    7
 10
42.049463117444844
 20
142.01947186444258
 40
2.5
 41
1
 50
0
  1
瓦座
  0
TEXT
  8
_1-5_
 62
    7
 10
53.541690723316094
 20
141.85744826858109
 40
2.5
 41
1
 50
0
  1
30ｘ30
  0
TEXT
  8
_1-5_
 62
    7
 10
123.10237575221706
 20
59.442765519425677
 40
2.5
 41
1
 50
0
  1
鼻隠　
  0
TEXT
  8
_1-5_
 62
    7
 10
133.69215681746201
 20
59.497653858081719
 40
2.5
 41
1
 50
0
  1
24ｘ90
  0
TEXT
  8
_1-5_
 62
    7
 10
39.721903414339636
 20
15.395235628695104
 40
2.5
 41
1
 50
0
  1
軒先　1
  0
TEXT
  8
_1-5_
 62
    7
 10
393.4627182419236
 20
15.458008018699843
 40
2.5
 41
1
 50
0
  1
1
  0
TEXT
  8
_1-5_
 62
    7
 10
252.99800975902662
 20
93.793438060863608
 40
2.5
 41
1
 50
0
  1
垂木
  0
TEXT
  8
_1-5_
 62
    7
 10
262.81697041279563
 20
93.793438060863608
 40
2.5
 41
1
 50
0
  1
60ｘ60
  0
TEXT
  8
_1-1_
 62
    7
 10
266.56892518739443
 20
105.9702610325169
 40
2.5
 41
1
 50
0
  1
アスファルトルーフィング940
  0
TEXT
  8
_1-4_
 62
    7
 10
103.6368061510034
 20
199.7388939810055
 40
2.5
 41
1
 50
24.227891841336795
  1
237
  0
TEXT
  8
_1-4_
 62
    7
 10
146.58529495352664
 20
219.06572569553254
 40
2.5
 41
1
 50
24.227891841336653
  1
237
  0
TEXT
  8
_1-4_
 62
    7
 10
189.44560857525383
 20
238.35289280649116
 40
2.5
 41
1
 50
24.227891841336675
  1
237
  0
TEXT
  8
_1-4_
 62
    7
 10
232.30565724090377
 20
257.63988439463378
 40
2.5
 41
1
 50
24.227969413213476
  1
237
  0
POINT
  8
_1-4_
 62
    7
 10
84.121695853568411
 20
190.40880357896961
  0
POINT
  8
_1-4_
 62
    7
 10
84.121683481577278
 20
190.40880357896961
  0
POINT
  8
_1-4_
 62
    7
 10
126.98199710330448
 20
209.69594594594597
  0
POINT
  8
_1-4_
 62
    7
 10
170.01866108662375
 20
229.06246700802367
  0
POINT
  8
_1-4_
 62
    7
 10
212.70263671875
 20
248.27023067989867
  0
POINT
  8
_1-4_
 62
    7
 10
255.73875633445948
 20
267.63647955817146
  0
POINT
  8
_1-a_
 62
    7
 10
39.552909232474661
 20
170.35285331107477
  0
POINT
  8
_1-a_
 62
    7
 10
84.121695853568411
 20
190.40880357896961
  0
POINT
  8
_1-4_
 62
    7
 10
81.142538947028072
 20
74.396382924672722
  0
POINT
  8
_1-4_
 62
    7
 10
93.909895613386823
 20
80.141700538429063
  0
LINE
  8
_1-0_
  6
CONTINUOUS
 62
    7
 10
84.345780222292845
 20
101.61021583903764
 11
86.807964428051108
 21
96.138685071790547
  0
LINE
  8
_1-0_
  6
CONTINUOUS
 62
    7
 10
84.345780222292845
 20
101.61021583903764
 11
100.76036898477363
 21
108.99678039914706
  0
LINE
  8
_1-0_
  6
CONTINUOUS
 62
    7
 10
100.76036898477363
 20
108.99678039914706
 11
103.22255315007391
 21
103.52524628510346
  0
LINE
  8
_1-1_
  6
DASHED1
 62
    3
 10
100.89040495436186
 20
109.32520736462448
 11
101.89421601877098
 21
107.09451050608951
  0
LINE
  8
_1-1_
  6
DASHED1
 62
    3
 10
101.89421601877098
 20
107.09451050608951
 11
323.85134310335729
 21
206.97524612014359
  0
LINE
  8
_1-0_
  6
CONTINUOUS
 62
    7
 10
102.27930899354955
 20
108.14507241402308
 11
323.52306469066724
 21
207.70477294921875
  0
LINE
  8
_1-0_
  6
CONTINUOUS
 62
    7
 10
102.27930899354955
 20
108.14507241402308
 11
102.52552655417288
 21
107.59792233677356
  0
LINE
  8
_1-0_
  6
CONTINUOUS
 62
    7
 10
102.52552655417288
 20
107.59792233677356
 11
323.76926731418922
 21
207.15763401340794
  0
LINE
  8
_1-0_
  6
CONTINUOUS
 62
    7
 10
87.304691117383115
 20
109.91321178798532
 11
89.766879075550492
 21
104.44168270932224
  0
LINE
  8
_1-0_
  6
CONTINUOUS
 62
    7
 10
89.766879075550492
 20
104.44168270932224
 11
95.238408154213559
 21
106.90387066748963
  0
LINE
  8
_1-0_
  6
CONTINUOUS
 62
    7
 10
95.238408154213559
 20
106.90387066748963
 11
93.052699842615894
 21
111.76100049980491
  0
LINE
  8
_1-0_
  6
CONTINUOUS
 62
    7
 10
87.304691117383115
 20
109.91321178798532
 11
95.238408154213559
 21
106.90387066748963
  0
LINE
  8
_1-0_
  6
CONTINUOUS
 62
    7
 10
93.052699842615894
 20
111.76100049980491
 11
89.766879075550492
 21
104.44168270932224
  0
LINE
  8
_1-0_
  6
CONTINUOUS
 62
    7
 10
86.645373016728456
 20
96.5
 11
87.610886532371765
 21
96.5
  0
LINE
  8
_1-0_
  6
CONTINUOUS
 62
    7
 10
85.745374712598633
 20
98.5
 11
92.055331207268821
 21
98.5
  0
LINE
  8
_1-0_
  6
CONTINUOUS
 62
    7
 10
84.845376408468809
 20
100.5
 11
96.499775882165864
 21
100.5
  0
LINE
  8
_1-0_
  6
CONTINUOUS
 62
    7
 10
86.323078460291299
 20
102.5
 11
100.94422055706292
 21
102.5
  0
LINE
  8
_1-0_
  6
CONTINUOUS
 62
    7
 10
90.767523135188355
 20
104.5
 11
102.78391508040971
 21
104.5
  0
LINE
  8
_1-0_
  6
CONTINUOUS
 62
    7
 10
95.211967810085397
 20
106.5
 11
101.88391734157422
 21
106.5
  0
LINE
  8
_1-0_
  6
CONTINUOUS
 62
    7
 10
99.656412484982454
 20
108.5
 11
100.98391960273871
 21
108.5
  0
TEXT
  8
_1-1_
 62
    7
 10
266.25900680954396
 20
119.97025773331926
 40
2.5
 41
1
 50
0
  1
15×21　以上　（防腐処理）
  0
TEXT
  8
_1-5_
 62
    7
 10
299.19975304608795
 20
119.92973026099041
 40
2.5
 41
1
 50
0
  1
※　地域により瓦桟木の大きさは、異なります
  0
TEXT
  8
_1-f_
 62
    7
 10
240.04991680532447
 20
73.025790349417633
 40
2.5
 41
1
 50
0
  1
※軒面戸の納まりには、木製、金属製、樹脂製、面戸付き軒瓦等があります。
  0
TEXT
  8
_1-f_
 62
    7
 10
242.31851517576087
 20
69.270568187795703
 40
2.5
 41
1
 50
0
  1
その他に漆喰またはモルタル仕上げもありますが、この場合は、左官仕事となります。
  0
LINE
  8
_1-1_
  6
DASHED1
 62
    3
 10
85.209855361929925
 20
102.26896041265432
 11
100.89040495436186
 21
109.32520736462448
  0
ARC
  8
_1-2_
  6
DASHED1
 62
    3
 10
80.878907571611677
 20
107.79294907780107
 40
6.7665506823864625
 50
18.260912986946757
 51
99.828950556278201
  0
LINE
  8
_1-2_
  6
DASHED1
 62
    3
 10
82.473879718146208
 20
108.34890660190413
 11
79.723807386903246
 21
114.46017876490436
  0
CIRCLE
  8
_1-2_
  6
CONTINUOUS
 62
    7
 10
86.087768185014198
 20
107.45898951426422
 40
0.2069063868059775
  0
CIRCLE
  8
_1-2_
  6
CONTINUOUS
 62
    7
 10
87.272239436698442
 20
106.10581934178384
 40
0.2069063868059775
  0
CIRCLE
  8
_1-2_
  6
CONTINUOUS
 62
    7
 10
87.526574782976482
 20
104.22373777932636
 40
0.2069063868059775
  0
CIRCLE
  8
_1-2_
  6
CONTINUOUS
 62
    7
 10
86.560100467119938
 20
104.02026950230392
 40
0.2069063868059775
  0
CIRCLE
  8
_1-2_
  6
CONTINUOUS
 62
    7
 10
85.23755666647412
 20
104.52894019486
 40
0.2069063868059775
  0
CIRCLE
  8
_1-2_
  6
CONTINUOUS
 62
    7
 10
86.560100467119938
 20
105.34281330294974
 40
0.2069063868059775
  0
CIRCLE
  8
_1-2_
  6
CONTINUOUS
 62
    7
 10
84.016747004339535
 20
106.76709124210674
 40
0.2069063868059775
  0
CIRCLE
  8
_1-2_
  6
CONTINUOUS
 62
    7
 10
84.779753043173656
 20
107.27576193466282
 40
0.2069063868059775
  0
CIRCLE
  8
_1-2_
  6
CONTINUOUS
 62
    7
 10
86.000562705308241
 20
106.66535710359554
 40
0.2069063868059775
  0
CIRCLE
  8
_1-2_
  6
CONTINUOUS
 62
    7
 10
86.254898051586281
 20
107.32662900391844
 40
0.2069063868059775
  0
CIRCLE
  8
_1-2_
  6
CONTINUOUS
 62
    7
 10
87.017904090420402
 20
108.03876797349696
 40
0.2069063868059775
  0
CIRCLE
  8
_1-2_
  6
CONTINUOUS
 62
    7
 10
88.49304909883304
 20
105.59714864922776
 40
0.2069063868059775
  0
CIRCLE
  8
_1-2_
  6
CONTINUOUS
 62
    7
 10
87.679175990743303
 20
104.78327554113804
 40
0.2069063868059775
  0
CIRCLE
  8
_1-2_
  6
CONTINUOUS
 62
    7
 10
84.932354250940477
 20
105.39368037220534
 40
0.2069063868059775
  0
CIRCLE
  8
_1-2_
  6
CONTINUOUS
 62
    7
 10
85.441024943496558
 20
104.12200364081514
 40
0.2069063868059775
  0
CIRCLE
  8
_1-2_
  6
CONTINUOUS
 62
    7
 10
85.644493220518996
 20
103.8676682945371
 40
0.2069063868059775
  0
CIRCLE
  8
_1-2_
  6
CONTINUOUS
 62
    7
 10
83.711544588805893
 20
107.78443262721891
 40
0.2069063868059775
  0
CIRCLE
  8
_1-2_
  6
CONTINUOUS
 62
    7
 10
85.084955458707299
 20
106.25842054955066
 40
0.2069063868059775
  0
CIRCLE
  8
_1-2_
  6
CONTINUOUS
 62
    7
 10
85.542759082007777
 20
108.3439703890306
 40
0.2069063868059775
  0
CIRCLE
  8
_1-2_
  6
CONTINUOUS
 62
    7
 10
86.661834605631157
 20
108.54743866605304
 40
0.2069063868059775
  0
CIRCLE
  8
_1-2_
  6
CONTINUOUS
 62
    7
 10
85.7462273590302
 20
110.73472264404417
 40
0.2069063868059775
  0
CIRCLE
  8
_1-2_
  6
CONTINUOUS
 62
    7
 10
83.304608034761031
 20
109.86998246669884
 40
0.2069063868059775
  0
CIRCLE
  8
_1-2_
  6
CONTINUOUS
 62
    7
 10
85.034088389451696
 20
109.97171660521005
 40
0.2069063868059775
  0
CIRCLE
  8
_1-2_
  6
CONTINUOUS
 62
    7
 10
83.711544588805893
 20
110.32778608999931
 40
0.2069063868059775
  0
CIRCLE
  8
_1-2_
  6
CONTINUOUS
 62
    7
 10
83.457209242527853
 20
111.03992505957783
 40
0.2069063868059775
  0
CIRCLE
  8
_1-2_
  6
CONTINUOUS
 62
    7
 10
82.541601995926911
 20
111.75206402915633
 40
0.2069063868059775
  0
CIRCLE
  8
_1-2_
  6
CONTINUOUS
 62
    7
 10
81.422526472303531
 20
112.97287369129093
 40
0.2069063868059775
  0
CIRCLE
  8
_1-2_
  6
CONTINUOUS
 62
    7
 10
82.439867857415692
 20
113.17634196831335
 40
0.2069063868059775
  0
CIRCLE
  8
_1-2_
  6
CONTINUOUS
 62
    7
 10
83.660677519550276
 20
112.76940541426849
 40
0.2069063868059775
  0
CIRCLE
  8
_1-2_
  6
CONTINUOUS
 62
    7
 10
86.051429774563857
 20
110.93819092106661
 40
0.2069063868059775
  0
CIRCLE
  8
_1-2_
  6
CONTINUOUS
 62
    7
 10
82.694203203693732
 20
109.41217884339837
 40
0.2069063868059775
  0
CIRCLE
  8
_1-2_
  6
CONTINUOUS
 62
    7
 10
87.601501656972147
 20
105.84779250334302
 40
0.2069063868059775
  0
CIRCLE
  8
_1-2_
  6
CONTINUOUS
 62
    7
 10
87.529408833308878
 20
107.21755615294532
 40
0.2069063868059775
  0
CIRCLE
  8
_1-2_
  6
CONTINUOUS
 62
    7
 10
88.899172482911183
 20
105.12686426671021
 40
0.2069063868059775
  0
CIRCLE
  8
_1-2_
  6
CONTINUOUS
 62
    7
 10
85.582902594400338
 20
103.10826520413842
 40
0.2069063868059775
  0
CIRCLE
  8
_1-2_
  6
CONTINUOUS
 62
    7
 10
81.11314752727705
 20
112.33614663303811
 40
0.2069063868059775
  0
CIRCLE
  8
_1-2_
  6
CONTINUOUS
 62
    7
 10
80.75268340896065
 20
113.77800310630369
 40
0.2069063868059775
  0
CIRCLE
  8
_1-2_
  6
CONTINUOUS
 62
    7
 10
82.627096824205907
 20
113.77800310630369
 40
0.2069063868059775
  0
CIRCLE
  8
_1-2_
  6
CONTINUOUS
 62
    7
 10
84.861974357767565
 20
112.40823945670139
 40
0.2069063868059775
  0
CIRCLE
  8
_1-2_
  6
CONTINUOUS
 62
    7
 10
84.861974357767565
 20
111.18266145442566
 40
0.2069063868059775
  0
CIRCLE
  8
_1-2_
  6
CONTINUOUS
 62
    7
 10
84.141046121134764
 20
109.3082480391804
 40
0.2069063868059775
  0
CIRCLE
  8
_1-2_
  6
CONTINUOUS
 62
    7
 10
84.789881534104282
 20
108.15476286056794
 40
0.2069063868059775
  0
CIRCLE
  8
_1-2_
  6
CONTINUOUS
 62
    7
 10
83.420117884501977
 20
107.79429874225154
 40
0.2069063868059775
  0
CIRCLE
  8
_1-2_
  6
CONTINUOUS
 62
    7
 10
84.645695886777716
 20
106.13616379799613
 40
0.2069063868059775
  0
CIRCLE
  8
_1-2_
  6
CONTINUOUS
 62
    7
 10
86.303830831033139
 20
105.19895709037351
 40
0.2069063868059775
  0
CIRCLE
  8
_1-2_
  6
CONTINUOUS
 62
    7
 10
85.727088241726904
 20
105.19895709037351
 40
0.2069063868059775
  0
CIRCLE
  8
_1-2_
  6
CONTINUOUS
 62
    7
 10
85.510809770737069
 20
104.33384320641416
 40
0.2069063868059775
  0
CIRCLE
  8
_1-2_
  6
CONTINUOUS
 62
    7
 10
88.682894011921334
 20
104.47802885374071
 40
0.2069063868059775
  0
CIRCLE
  8
_1-2_
  6
CONTINUOUS
 62
    7
 10
88.8270796592479
 20
106.13616379799613
 40
0.2069063868059775
  0
LINE
  8
_1-2_
  6
CONTINUOUS
 62
    3
 10
85.310861471921584
 20
102.044502378852
 11
82.473879718146208
 21
108.34890660190413
  0
LINE
  8
_1-2_
  6
CONTINUOUS
 62
    7
 10
82.837022282757545
 20
104.12161235566703
 11
69.409357483280104
 21
127.37901008098603
  0
LINE
  8
_1-2_
  6
CONTINUOUS
 62
    7
 10
82.837022282757545
 20
104.12161235566703
 11
85.083781603262935
 21
104.12161235566703
  0
LINE
  8
_1-2_
  6
CONTINUOUS
 62
    7
 10
89.248229434704754
 20
98.137688585466918
 11
113.44765070533805
 21
46.798729441226186
  0
LINE
  8
_1-2_
  6
CONTINUOUS
 62
    7
 10
113.44765070533805
 20
46.798729441226186
 11
117.40549997857248
 21
46.798729441226186
  0
TEXT
  8
_1-5_
 62
    7
 10
118.99180377681083
 20
45.611961624403406
 40
2.5
 41
1
 50
0
  1
広小舞
  0
TEXT
  8
_1-5_
 62
    7
 10
129.35233803237989
 20
45.497706286301622
 40
2.5
 41
1
 50
0
  1
30ｘ90
  0
LINE
  8
_1-2_
  6
CONTINUOUS
 62
    7
 10
69.409357483280104
 20
127.37901008098603
 11
65.451853677038542
 21
127.37901008098603
  0
TEXT
  8
_1-2_
 62
    7
 10
51.682415054221877
 20
125.99192277983727
 40
2.5
 41
1
 50
0
  1
面戸、漆喰
  0
ENDSEC
  0
EOF
