  0
SECTION
  2
HEADER
  9
$ACADVER
  1
AC1009
  9
$INSBASE
 10
0
 20
0
 30
0
  9
$EXTMIN
 10
0
 20
0
  9
$EXTMAX
 10
420
 20
297
  9
$LIMMIN
 10
0
 20
0
  9
$LIMMAX
 10
420
 20
297
  9
$LTSCALE
 40
1
  0
ENDSEC
  0
SECTION
  2
TABLES
  0
TABLE
  2
LTYPE
 70
     9
  0
LTYPE
  2
CONTINUOUS
 70
    64
  3
実線
 72
    65
 73
     0
 40
0.0
  0
LTYPE
  2
DASHED1
 70
    64
  3
--  --  --  --  --  --  --  --  
 72
    65
 73
     2
 40
2.5
 49
1.25
 49
-1.25
  0
LTYPE
  2
DASHED2
 70
    64
  3
----    ----    ----    ----    
 72
    65
 73
     2
 40
5.0
 49
2.5
 49
-2.5
  0
LTYPE
  2
DASHED3
 70
    64
  3
------  ------  ------  ------  
 72
    65
 73
     2
 40
5.0
 49
3.75
 49
-1.25
  0
LTYPE
  2
CENTER1
 70
    64
  3
----- - ----- - ----- - ----- - 
 72
    65
 73
     4
 40
10.0
 49
6.25
 49
-1.25
 49
1.25
 49
-1.25
  0
LTYPE
  2
CENTER2
 70
    64
  3
----------  --  ----------  --  
 72
    65
 73
     4
 40
20.0
 49
12.5
 49
-2.5
 49
2.5
 49
-2.5
  0
LTYPE
  2
PHANTOM1
 70
    64
  3
--- - - --- - - --- - - --- - - 
 72
    65
 73
     6
 40
10.0
 49
3.25
 49
-1.25
 49
1.25
 49
-1.25
 49
1.25
 49
-1.25
  0
LTYPE
  2
PHANTOM2
 70
    64
  3
--------  -  -  --------  -  -  
 72
    65
 73
     6
 40
20.0
 49
10.0
 49
-2.5
 49
1.25
 49
-2.5
 49
1.25
 49
-2.5
  0
LTYPE
  2
DOT
 70
    64
  3
-   -   -   -   -   -   -   -   
 72
    65
 73
     2
 40
2.5
 49
0.625
 49
-1.875
  0
LTYPE
  2
DUMMY
 70
    64
  3
ダミー
 72
    65
 73
     0
 40
0.0
  0
LTYPE
  2
RAND1
 70
    64
  3
ランダム線1
 72
    65
 73
     4
 40
10.0
 49
1.0
 49
-2.0
 49
3.0
 49
-4.0
  0
LTYPE
  2
RAND2
 70
    64
  3
ランダム線2
 72
    65
 73
     4
 40
14.0
 49
2.0
 49
-3.0
 49
4.0
 49
-5.0
  0
LTYPE
  2
RAND3
 70
    64
  3
ランダム線3
 72
    65
 73
     4
 40
18.0
 49
3.0
 49
-4.0
 49
5.0
 49
-6.0
  0
LTYPE
  2
RAND4
 70
    64
  3
ランダム線4
 72
    65
 73
     4
 40
22.0
 49
4.0
 49
-5.0
 49
6.0
 49
-7.0
  0
LTYPE
  2
RAND5
 70
    64
  3
ランダム線5
 72
    65
 73
     4
 40
26.0
 49
5.0
 49
-6.0
 49
7.0
 49
-8.0
  0
LTYPE
  2
LONG1
 70
    64
  3
----------  --  ----------  --  
 72
    65
 73
     4
 40
40.0
 49
32.5
 49
-2.5
 49
2.5
 49
-2.5
  0
LTYPE
  2
LONG2
 70
    64
  3
--------  -  -  --------  -  -  
 72
    65
 73
     6
 40
40.0
 49
30.0
 49
-2.5
 49
1.25
 49
-2.5
 49
1.25
 49
-2.5
  0
LTYPE
  2
LONG3
 70
    64
  3
+++++++++++++++..+++++++++++++++
 72
    65
 73
     2
 40
40.0
 49
37.5
 49
-2.5
  0
LTYPE
  2
LONG4
 70
    64
  3
+++++++++++++++..+++++++++++++++
 72
    65
 73
     2
 40
80.0
 49
75.0
 49
-5.0
  0
LTYPE
  2
LONG5
 70
    64
  3
----------  --  ----------  --  
 72
    65
 73
     4
 40
60.0
 49
37.5
 49
-7.5
 49
7.5
 49
-7.5
  0
LTYPE
  2
dashed
 70
   64
  3
-------   -------------   ------
 72
   65
 73
    2
 40
7.5
 49
6
 49
-1.5
  0
LTYPE
  2
dashed_spaced
 70
   64
  3
----        --------        ----
 72
   65
 73
    2
 40
12
 49
6
 49
-6
  0
LTYPE
  2
long_dashed_dotted
 70
   64
  3
------------- --- --------------
 72
   65
 73
    4
 40
15.25
 49
12
 49
-1.5
 49
0.25
 49
-1.5
  0
LTYPE
  2
long_dashed_double-dotted
 70
   64
  3
----------- --- --- ------------
 72
   65
 73
    6
 40
17
 49
12
 49
-1.5
 49
0.25
 49
-1.5
 49
0.25
 49
-1.5
  0
LTYPE
  2
long_dashed_triplicate-dotted
 70
   64
  3
--------- --- --- --- ----------
 72
   65
 73
    8
 40
18.75
 49
12
 49
-1.5
 49
0.25
 49
-1.5
 49
0.25
 49
-1.5
 49
0.25
 49
-1.5
  0
LTYPE
  2
dotted
 70
   64
  3
   -       -       -       -    
 72
   65
 73
    2
 40
1.75
 49
0.25
 49
-1.5
  0
LTYPE
  2
chain
 70
   64
  3
-------------- -- --------------
 72
   65
 73
    4
 40
18.5
 49
12
 49
-1.5
 49
3.5
 49
-1.5
  0
LTYPE
  2
chain_double_dash
 70
   64
  3
------------ -- -- -------------
 72
   65
 73
    6
 40
23.5
 49
12
 49
-1.5
 49
3.5
 49
-1.5
 49
3.5
 49
-1.5
  0
LTYPE
  2
dashed_dotted
 70
   64
  3
-----------     -     ----------
 72
   65
 73
    4
 40
9.25
 49
6
 49
-1.5
 49
0.25
 49
-1.5
  0
LTYPE
  2
double-dashed_dotted
 70
   64
  3
------   -----------   -   -----
 72
   65
 73
    6
 40
16.75
 49
6
 49
-1.5
 49
6
 49
-1.5
 49
0.25
 49
-1.5
  0
LTYPE
  2
dashed_double-dotted
 70
   64
  3
---------    -    -    ---------
 72
   65
 73
    6
 40
11
 49
6
 49
-1.5
 49
0.25
 49
-1.5
 49
0.25
 49
-1.5
  0
LTYPE
  2
double-dashed_double-dotted
 70
   64
  3
-----   ---------   -   -   ----
 72
   65
 73
    8
 40
18.5
 49
6
 49
-1.5
 49
6
 49
-1.5
 49
0.25
 49
-1.5
 49
0.25
 49
-1.5
  0
LTYPE
  2
dashed_triplicate-dotted
 70
   64
  3
-------    -    -    -    ------
 72
   65
 73
    8
 40
12.75
 49
6
 49
-1.5
 49
0.25
 49
-1.5
 49
0.25
 49
-1.5
 49
0.25
 49
-1.5
  0
LTYPE
  2
double-dashed_triplicate-dotted
 70
   64
  3
-----  ---------  -  -  -  -----
 72
   65
 73
   10
 40
20.25
 49
6
 49
-1.5
 49
6
 49
-1.5
 49
0.25
 49
-1.5
 49
0.25
 49
-1.5
 49
0.25
 49
-1.5
  0
LTYPE
  2
undefined
 70
   64
  3
--------------------------------
 72
   65
 73
    0
 40
0
  0
ENDTAB
  0
TABLE
  2
STYLE
  5
3
100
AcDbSymbolTable
 70
     1
  0
STYLE
  5
10
100
AcDbSymbolTableRecord
100
AcDbTextStyleTableRecord
  2
STANDARD
 70
     0
 40
0.0
 41
1.0
 50
0.0
 71
     0
 42
0.2
  3
txt
  4
bigfont.shx
  0
STYLE
  5
26
100
AcDbSymbolTableRecord
100
AcDbTextStyleTableRecord
  2
TATEGAKI
 70
    68
 40
0.0
 41
1.0
 50
0.0
 71
     0
 42
1.0
  3
txt
  4
bigfont.shx
  0
ENDTAB
  0
TABLE
  2
LAYER
 70
   11
  0
LAYER
  2
_0-0_
 70
   64
 62
    7
  6
CONTINUOUS
  0
LAYER
  2
_1-0_
 70
   64
 62
    7
  6
CONTINUOUS
  0
LAYER
  2
_1-1_
 70
   64
 62
    7
  6
CONTINUOUS
  0
LAYER
  2
_1-2_
 70
   64
 62
    7
  6
CONTINUOUS
  0
LAYER
  2
_1-3_
 70
   64
 62
    7
  6
CONTINUOUS
  0
LAYER
  2
_1-4_
 70
   64
 62
    7
  6
CONTINUOUS
  0
LAYER
  2
_1-5_
 70
   64
 62
    7
  6
CONTINUOUS
  0
LAYER
  2
_1-a_
 70
   64
 62
    7
  6
CONTINUOUS
  0
LAYER
  2
_1-b_
 70
   64
 62
    7
  6
CONTINUOUS
  0
LAYER
  2
_1-c_
 70
   64
 62
    7
  6
CONTINUOUS
  0
LAYER
  2
ADD_LINE
 70
   64
 62
    7
  6
CONTINUOUS
  0
ENDTAB
  0
ENDSEC
  0
SECTION
  2
BLOCKS
  0
ENDSEC
  0
SECTION
  2
ENTITIES
  0
LINE
  8
_0-0_
  6
CONTINUOUS
 62
    5
 10
6.7567526327597136
 20
280.13513513513516
 11
406.75677325274495
 21
280.13513513513516
  0
LINE
  8
_0-0_
  6
CONTINUOUS
 62
    5
 10
406.75677325274495
 20
10.13513513513513
 11
6.7567526327597136
 21
10.13513513513513
  0
LINE
  8
_0-0_
  6
CONTINUOUS
 62
    5
 10
406.75677325274495
 20
30.135133073136615
 11
6.7567402607685949
 21
30.135133073136615
  0
LINE
  8
_0-0_
  6
CONTINUOUS
 62
    5
 10
371.75678150073907
 20
10.13513513513513
 11
371.75678150073907
 21
30.135133073136615
  0
LINE
  8
_0-0_
  6
CONTINUOUS
 62
    5
 10
137.02703939901818
 20
30.135133073136615
 11
137.02703939901818
 21
10.13513513513513
  0
LINE
  8
_0-0_
  6
CONTINUOUS
 62
    5
 10
214.86486486486487
 20
30.135133073136615
 11
214.86486486486487
 21
10.13513513513513
  0
LINE
  8
_0-0_
  6
CONTINUOUS
 62
    5
 10
137.02703939901818
 20
20.135134104135886
 11
214.86486486486487
 21
20.135134104135886
  0
LINE
  8
_0-0_
  6
CONTINUOUS
 62
    5
 10
396.48648648648651
 20
25.945945945945951
 11
383.91891891891896
 21
13.378379924877265
  0
LINE
  8
_1-1_
  6
CONTINUOUS
 62
    7
 10
40.483542777396536
 20
109.3699852195946
 11
44.860765611803203
 21
111.33974229967272
  0
LINE
  8
_1-1_
  6
CONTINUOUS
 62
    7
 10
44.860765611803203
 20
111.33974229967272
 11
46.091865333350938
 21
108.60397338867187
  0
LINE
  8
_1-1_
  6
CONTINUOUS
 62
    7
 10
46.091865333350938
 20
108.60397338867187
 11
41.714642498944272
 21
106.63421630859375
  0
LINE
  8
_1-1_
  6
CONTINUOUS
 62
    7
 10
84.574956120671459
 20
125.9213586755701
 11
83.343844027132604
 21
128.65712758657097
  0
LINE
  8
_1-1_
  6
CONTINUOUS
 62
    7
 10
83.343844027132604
 20
128.65712758657097
 11
87.721079233530403
 21
130.62688466664909
  0
LINE
  8
_1-1_
  6
CONTINUOUS
 62
    7
 10
87.721079233530403
 20
130.62688466664909
 11
88.952166583086992
 21
127.89111575564823
  0
LINE
  8
_1-1_
  6
CONTINUOUS
 62
    7
 10
88.952166583086992
 20
127.89111575564823
 11
84.574956120671459
 21
125.9213586755701
  0
LINE
  8
_1-1_
  6
CONTINUOUS
 62
    7
 10
127.43526974239866
 20
145.20850104254646
 11
126.20415764885981
 21
147.94426995354732
  0
LINE
  8
_1-1_
  6
CONTINUOUS
 62
    7
 10
126.20415764885981
 20
147.94426995354732
 11
130.5813928552576
 21
149.91402703362544
  0
LINE
  8
_1-1_
  6
CONTINUOUS
 62
    7
 10
130.5813928552576
 20
149.91402703362544
 11
131.81248020481419
 21
147.17825812262458
  0
LINE
  8
_1-1_
  6
CONTINUOUS
 62
    7
 10
131.81248020481419
 20
147.17825812262458
 11
127.43526974239866
 21
145.20850104254646
  0
LINE
  8
_1-1_
  6
CONTINUOUS
 62
    7
 10
170.29558336412586
 20
164.49566815350508
 11
169.06447127058701
 21
167.23141232052365
  0
LINE
  8
_1-1_
  6
CONTINUOUS
 62
    7
 10
169.06447127058701
 20
167.23141232052365
 11
173.44170647698482
 21
169.20118177259292
  0
LINE
  8
_1-1_
  6
CONTINUOUS
 62
    7
 10
173.44170647698482
 20
169.20118177259292
 11
174.67279382654141
 21
166.46541286159206
  0
LINE
  8
_1-1_
  6
CONTINUOUS
 62
    7
 10
174.67279382654141
 20
166.46541286159206
 11
170.29558336412586
 21
164.49566815350508
  0
LINE
  8
_1-1_
  6
CONTINUOUS
 62
    7
 10
169.06447127058701
 20
167.23141232052365
 11
174.67281857052365
 21
166.46538811760982
  0
LINE
  8
_1-1_
  6
CONTINUOUS
 62
    7
 10
126.20415764885981
 20
147.94426995354732
 11
131.81248020481419
 21
147.17825812262458
  0
LINE
  8
_1-1_
  6
CONTINUOUS
 62
    7
 10
83.343844027132604
 20
128.65712758657097
 11
88.952166583086992
 21
127.89111575564823
  0
LINE
  8
_1-b_
  6
CONTINUOUS
 62
    3
 10
45.729452597128386
 20
109.557260049356
 11
47.418662406302786
 21
110.1790020916913
  0
LINE
  8
_1-b_
  6
CONTINUOUS
 62
    3
 10
45.038612984322214
 20
111.43415296399917
 11
45.729452597128386
 21
109.557260049356
  0
LINE
  8
ADD_LINE
  6
DOT
 62
    3
 10
44.860765611803203
 20
111.33975467166385
 11
44.860765611803203
 21
111.79854521880279
  0
LINE
  8
ADD_LINE
  6
DOT
 62
    3
 10
44.860765611803203
 20
111.33975467166385
 11
44.860765611803203
 21
110.95671782622466
  0
LINE
  8
_1-1_
  6
CONTINUOUS
 62
    7
 10
40.483555149387655
 20
109.36999759158573
 11
44.86077798379435
 21
111.33975467166385
  0
LINE
  8
_1-1_
  6
CONTINUOUS
 62
    7
 10
84.574956120671459
 20
125.9213586755701
 11
83.34386877111487
 21
128.65712758657097
  0
LINE
  8
_1-1_
  6
CONTINUOUS
 62
    7
 10
83.34386877111487
 20
128.65712758657097
 11
87.721079233530403
 21
130.62688466664909
  0
LINE
  8
_1-1_
  6
CONTINUOUS
 62
    7
 10
87.721079233530403
 20
130.62688466664909
 11
88.952191327069258
 21
127.89111575564823
  0
LINE
  8
_1-1_
  6
CONTINUOUS
 62
    7
 10
88.952191327069258
 20
127.89111575564823
 11
84.574956120671459
 21
125.9213586755701
  0
LINE
  8
_1-1_
  6
CONTINUOUS
 62
    7
 10
83.34386877111487
 20
128.65712758657097
 11
88.952191327069258
 21
127.89111575564823
  0
LINE
  8
_1-b_
  6
CONTINUOUS
 62
    3
 10
88.589766218855573
 20
128.84440241633234
 11
90.278963656038854
 21
129.46614445866766
  0
LINE
  8
_1-b_
  6
CONTINUOUS
 62
    3
 10
87.898938978040547
 20
130.72129533097552
 11
88.589766218855573
 21
128.84440241633234
  0
LINE
  8
_1-b_
  6
CONTINUOUS
 62
    3
 10
32.921076594172291
 20
113.46918466928844
 11
87.119454048775339
 21
133.4180429819468
  0
LINE
  8
_1-1_
  6
CONTINUOUS
 62
    7
 10
83.34386877111487
 20
128.65713995856208
 11
87.721079233530403
 21
130.62689703864021
  0
LINE
  8
_1-1_
  6
CONTINUOUS
 62
    7
 10
127.43526974239866
 20
145.20850104254646
 11
126.20415764885981
 21
147.94426995354732
  0
LINE
  8
_1-1_
  6
CONTINUOUS
 62
    7
 10
126.20415764885981
 20
147.94426995354732
 11
130.5813928552576
 21
149.91402703362544
  0
LINE
  8
_1-1_
  6
CONTINUOUS
 62
    7
 10
130.5813928552576
 20
149.91402703362544
 11
131.81248020481419
 21
147.17825812262458
  0
LINE
  8
_1-1_
  6
CONTINUOUS
 62
    7
 10
131.81248020481419
 20
147.17825812262458
 11
127.43526974239866
 21
145.20850104254646
  0
LINE
  8
_1-1_
  6
CONTINUOUS
 62
    7
 10
126.20415764885981
 20
147.94426995354732
 11
131.81248020481419
 21
147.17825812262458
  0
LINE
  8
_1-b_
  6
CONTINUOUS
 62
    3
 10
75.065101417335313
 20
129.50903815192146
 11
130.75922785578547
 21
150.00843769795188
  0
LINE
  8
_1-b_
  6
CONTINUOUS
 62
    3
 10
131.45007984058279
 20
148.1315447833087
 11
133.13930202174831
 21
148.75328682564401
  0
LINE
  8
_1-b_
  6
CONTINUOUS
 62
    3
 10
130.75922785578547
 20
150.00843769795188
 11
131.45007984058279
 21
148.1315447833087
  0
LINE
  8
_1-b_
  6
CONTINUOUS
 62
    3
 10
75.781390215899478
 20
132.75632703626479
 11
129.97976767050255
 21
152.70518534892315
  0
LINE
  8
_1-b_
  6
CONTINUOUS
 62
    3
 10
74.832532728040547
 20
130.70213111671242
 11
75.249864732896981
 21
129.56828761745143
  0
LINE
  8
_1-1_
  6
CONTINUOUS
 62
    7
 10
126.20415764885981
 20
147.94426995354732
 11
130.5813928552576
 21
149.91402703362544
  0
LINE
  8
_1-1_
  6
CONTINUOUS
 62
    7
 10
130.5813928552576
 20
149.91402703362544
 11
131.81248020481419
 21
147.17825812262458
  0
LINE
  8
_1-1_
  6
CONTINUOUS
 62
    7
 10
170.29558336412586
 20
164.49564340952281
 11
169.06447127058701
 21
167.23141232052365
  0
LINE
  8
_1-1_
  6
CONTINUOUS
 62
    7
 10
169.06447127058701
 20
167.23141232052365
 11
173.44170647698482
 21
169.20118177259292
  0
LINE
  8
_1-1_
  6
CONTINUOUS
 62
    7
 10
173.44170647698482
 20
169.20118177259292
 11
174.67279382654141
 21
166.46538811760982
  0
LINE
  8
_1-1_
  6
CONTINUOUS
 62
    7
 10
174.67279382654141
 20
166.46538811760982
 11
170.29558336412586
 21
164.49564340952281
  0
LINE
  8
_1-1_
  6
CONTINUOUS
 62
    7
 10
169.06447127058701
 20
167.23141232052365
 11
174.67279382654141
 21
166.46538811760982
  0
LINE
  8
_1-1_
  6
CONTINUOUS
 62
    7
 10
126.20415764885981
 20
147.94426995354732
 11
131.81248020481419
 21
147.17825812262458
  0
LINE
  8
_1-1_
  6
CONTINUOUS
 62
    7
 10
126.20418239284207
 20
147.94426995354732
 11
130.5813928552576
 21
149.91402703362544
  0
LINE
  8
_1-1_
  6
CONTINUOUS
 62
    7
 10
130.5813928552576
 20
149.91402703362544
 11
131.81250494879646
 21
147.17825812262458
  0
LINE
  8
_1-1_
  6
CONTINUOUS
 62
    7
 10
126.20418239284207
 20
147.94426995354732
 11
131.81250494879646
 21
147.17825812262458
  0
LINE
  8
_1-b_
  6
CONTINUOUS
 62
    3
 10
130.75925259976773
 20
150.00843769795188
 11
131.45007984058279
 21
148.1315447833087
  0
LINE
  8
ADD_LINE
  6
DOT
 62
    3
 10
130.5813928552576
 20
149.91403940561656
 11
130.5813928552576
 21
150.3728299527555
  0
LINE
  8
ADD_LINE
  6
DOT
 62
    3
 10
130.5813928552576
 20
149.91403940561656
 11
130.5813928552576
 21
149.53100256017737
  0
LINE
  8
_1-1_
  6
CONTINUOUS
 62
    7
 10
126.20418239284207
 20
147.94428232553844
 11
130.5813928552576
 21
149.91403940561656
  0
LINE
  8
_1-1_
  6
CONTINUOUS
 62
    7
 10
170.29558336412586
 20
164.49564340952281
 11
169.06447127058701
 21
167.23141232052365
  0
LINE
  8
_1-1_
  6
CONTINUOUS
 62
    7
 10
169.06447127058701
 20
167.23141232052365
 11
173.44170647698482
 21
169.20118177259292
  0
LINE
  8
_1-1_
  6
CONTINUOUS
 62
    7
 10
173.44170647698482
 20
169.20118177259292
 11
174.67279382654141
 21
166.46538811760982
  0
LINE
  8
_1-1_
  6
CONTINUOUS
 62
    7
 10
174.67279382654141
 20
166.46538811760982
 11
170.29558336412586
 21
164.49564340952281
  0
LINE
  8
_1-1_
  6
CONTINUOUS
 62
    7
 10
169.06447127058701
 20
167.23141232052365
 11
174.67279382654141
 21
166.46538811760982
  0
LINE
  8
_1-b_
  6
CONTINUOUS
 62
    3
 10
117.9254150390625
 20
148.79618051889781
 11
173.61954147751268
 21
169.29558006492823
  0
LINE
  8
_1-b_
  6
CONTINUOUS
 62
    3
 10
174.31039346230997
 20
167.41867477829393
 11
175.99961564347552
 21
168.04044156461148
  0
LINE
  8
_1-b_
  6
CONTINUOUS
 62
    3
 10
173.61954147751268
 20
169.29558006492823
 11
174.31039346230997
 21
167.41867477829393
  0
LINE
  8
_1-b_
  6
CONTINUOUS
 62
    3
 10
118.64170383762669
 20
152.04346940324115
 11
172.84008129222974
 21
171.99232771589951
  0
LINE
  8
_1-b_
  6
CONTINUOUS
 62
    3
 10
117.69284634976775
 20
149.98927348368878
 11
118.11017835462417
 21
148.85542998442779
  0
LINE
  8
ADD_LINE
  6
DOT
 62
    3
 10
173.44170647698482
 20
169.20118177259292
 11
173.44170647698482
 21
169.65998469172297
  0
LINE
  8
ADD_LINE
  6
DOT
 62
    3
 10
173.44170647698482
 20
169.20118177259292
 11
173.44170647698482
 21
168.81814492715372
  0
LINE
  8
_1-1_
  6
CONTINUOUS
 62
    7
 10
170.28887774493245
 20
164.51051454286318
 11
169.05776565139359
 21
167.24628345386404
  0
LINE
  8
_1-1_
  6
CONTINUOUS
 62
    7
 10
169.05776565139359
 20
167.24628345386404
 11
173.43500085779141
 21
169.21602816195102
  0
LINE
  8
_1-1_
  6
CONTINUOUS
 62
    7
 10
173.43500085779141
 20
169.21602816195102
 11
174.666088207348
 21
166.48028399493245
  0
LINE
  8
_1-1_
  6
CONTINUOUS
 62
    7
 10
174.666088207348
 20
166.48028399493245
 11
170.28887774493245
 21
164.51051454286318
  0
LINE
  8
_1-1_
  6
CONTINUOUS
 62
    7
 10
169.05776565139359
 20
167.24628345386404
 11
174.666088207348
 21
166.48028399493245
  0
LINE
  8
_1-1_
  6
CONTINUOUS
 62
    7
 10
170.28887774493245
 20
164.51051454286318
 11
169.05776565139359
 21
167.24628345386404
  0
LINE
  8
_1-1_
  6
CONTINUOUS
 62
    7
 10
169.05776565139359
 20
167.24628345386404
 11
173.43500085779141
 21
169.21602816195102
  0
LINE
  8
_1-1_
  6
CONTINUOUS
 62
    7
 10
173.43500085779141
 20
169.21602816195102
 11
174.666088207348
 21
166.48028399493245
  0
LINE
  8
_1-1_
  6
CONTINUOUS
 62
    7
 10
174.666088207348
 20
166.48028399493245
 11
170.28887774493245
 21
164.51051454286318
  0
LINE
  8
_1-1_
  6
CONTINUOUS
 62
    7
 10
169.05776565139359
 20
167.24628345386404
 11
174.666088207348
 21
166.48028399493245
  0
LINE
  8
_1-b_
  6
CONTINUOUS
 62
    3
 10
174.30368784311656
 20
167.43357065561656
 11
175.99291002428211
 21
168.05528795396961
  0
LINE
  8
_1-b_
  6
CONTINUOUS
 62
    3
 10
173.61283585831927
 20
169.31045119826859
 11
174.30368784311656
 21
167.43357065561656
  0
LINE
  8
ADD_LINE
  6
DOT
 62
    3
 10
173.43500085779141
 20
169.21605290593328
 11
173.43500085779141
 21
169.67483108108109
  0
LINE
  8
ADD_LINE
  6
DOT
 62
    3
 10
173.43500085779141
 20
169.21605290593328
 11
173.43500085779141
 21
168.83301606049409
  0
LINE
  8
_1-1_
  6
CONTINUOUS
 62
    7
 10
169.05776565139359
 20
167.24628345386404
 11
173.43500085779141
 21
169.21602816195102
  0
LINE
  8
_1-1_
  6
CONTINUOUS
 62
    7
 10
173.43500085779141
 20
169.21602816195102
 11
174.666088207348
 21
166.48028399493245
  0
LINE
  8
_1-1_
  6
CONTINUOUS
 62
    7
 10
169.05776565139359
 20
167.24628345386404
 11
174.666088207348
 21
166.48028399493245
  0
LINE
  8
_1-1_
  6
CONTINUOUS
 62
    7
 10
169.05779039537586
 20
167.24628345386404
 11
173.43500085779141
 21
169.21602816195102
  0
LINE
  8
_1-1_
  6
CONTINUOUS
 62
    7
 10
173.43500085779141
 20
169.21602816195102
 11
174.66611295133023
 21
166.48028399493245
  0
LINE
  8
_1-1_
  6
CONTINUOUS
 62
    7
 10
169.05779039537586
 20
167.24628345386404
 11
174.66611295133023
 21
166.48028399493245
  0
LINE
  8
_1-b_
  6
CONTINUOUS
 62
    3
 10
174.30368784311656
 20
167.43357065561656
 11
175.99288528029984
 21
168.05528795396961
  0
LINE
  8
_1-b_
  6
CONTINUOUS
 62
    3
 10
173.61286060230154
 20
169.31045119826859
 11
174.30368784311656
 21
167.43357065561656
  0
LINE
  8
ADD_LINE
  6
DOT
 62
    3
 10
173.43500085779141
 20
169.21605290593328
 11
173.43500085779141
 21
169.67483108108109
  0
LINE
  8
ADD_LINE
  6
DOT
 62
    3
 10
173.43500085779141
 20
169.21605290593328
 11
173.43500085779141
 21
168.83301606049409
  0
LINE
  8
_1-1_
  6
CONTINUOUS
 62
    7
 10
169.05779039537586
 20
167.2463081978463
 11
173.43500085779141
 21
169.21605290593328
  0
LINE
  8
_1-b_
  6
CONTINUOUS
 62
    3
 10
172.66224629170188
 20
172.47208878800677
 11
172.83337567303633
 21
172.00719884923987
  0
LINE
  8
_1-b_
  6
CONTINUOUS
 62
    3
 10
172.66227103568414
 20
172.47206404402451
 11
172.83337567303633
 21
172.00719884923987
  0
LINE
  8
_1-b_
  6
CONTINUOUS
 62
    3
 10
174.16376062341641
 20
173.02474563186234
 11
175.99288528029984
 21
168.05528795396961
  0
LINE
  8
_1-b_
  6
CONTINUOUS
 62
    3
 10
174.16378536739865
 20
173.02474563186234
 11
175.99291002428211
 21
168.05528795396961
  0
LINE
  8
_1-b_
  6
CONTINUOUS
 62
    3
 10
129.80866303315034
 20
153.17005054370779
 11
129.97976767050255
 21
152.70518534892315
  0
LINE
  8
_1-b_
  6
CONTINUOUS
 62
    3
 10
131.3101526208826
 20
153.72273213154563
 11
133.13927727776604
 21
148.75328682564401
  0
LINE
  8
_1-b_
  6
CONTINUOUS
 62
    3
 10
129.80866303315034
 20
153.17005054370779
 11
129.97976767050255
 21
152.70518534892315
  0
LINE
  8
_1-b_
  6
CONTINUOUS
 62
    3
 10
131.31017736486487
 20
153.72273213154563
 11
133.13930202174831
 21
148.75328682564401
  0
LINE
  8
_1-b_
  6
CONTINUOUS
 62
    3
 10
86.948349411423152
 20
133.88292054872255
 11
87.119454048775339
 21
133.4180429819468
  0
LINE
  8
_1-b_
  6
CONTINUOUS
 62
    3
 10
88.449838999155403
 20
134.43557739257812
 11
90.278963656038854
 21
129.46614445866766
  0
LINE
  8
_1-b_
  6
CONTINUOUS
 62
    3
 10
44.088023417704818
 20
114.59577818174621
 11
44.259140427048152
 21
114.13090061497044
  0
LINE
  8
_1-b_
  6
CONTINUOUS
 62
    3
 10
45.589550121410468
 20
115.14843502560178
 11
47.418662406302786
 21
110.1790020916913
  0
LINE
  8
_1-c_
  6
CONTINUOUS
 62
    7
 10
72.345539814717085
 20
137.4589827254012
 11
74.832532728040547
 21
130.70214348870354
  0
LINE
  8
_1-c_
  6
CONTINUOUS
 62
    7
 10
115.20585343644426
 20
156.74610034839529
 11
117.69284634976775
 21
149.98927348368878
  0
LINE
  8
_1-c_
  6
CONTINUOUS
 62
    7
 10
116.15468618032095
 20
158.80029626794763
 11
158.65069415118245
 21
174.44185824007602
  0
LINE
  8
_1-c_
  6
CONTINUOUS
 62
    7
 10
73.294384930584897
 20
139.51316627296242
 11
115.79144452069258
 21
155.15511177681589
  0
LINE
  8
_1-4_
  6
CONTINUOUS
 62
    7
 10
106.21621621621622
 20
149.18918918918919
 11
91.144483411634297
 21
175.29417708113388
  0
LINE
  8
_1-4_
  6
CONTINUOUS
 62
    7
 10
91.144483411634297
 20
175.29417708113388
 11
83.513513513513516
 21
175.29417708113388
  0
LINE
  8
_1-b_
  6
CONTINUOUS
 62
    3
 10
33.243243243243228
 20
107.0926233240076
 11
45.038612984322214
 21
111.43415296399917
  0
LINE
  8
_1-b_
  6
CONTINUOUS
 62
    3
 10
33.243243243243228
 20
110.0762650773332
 11
44.259140427048152
 21
114.13090061497044
  0
LINE
  8
_1-b_
  6
CONTINUOUS
 62
    3
 10
33.243243243243228
 20
110.6041160789696
 11
87.898938978040547
 21
130.72129533097552
  0
LINE
  8
_1-c_
  6
CONTINUOUS
 62
    7
 10
33.243243243243228
 20
121.26000069283151
 11
72.931143270956511
 21
135.86796940983953
  0
LINE
  8
_1-0_
  6
CONTINUOUS
 62
    7
 10
33.243243243243228
 20
84.618790085251277
 11
181.99290507548565
 21
151.55613667256125
  0
LINE
  8
_1-0_
  6
CONTINUOUS
 62
    7
 10
33.243243243243228
 20
97.777800688872475
 11
181.99290507548565
 21
164.71514727618245
  0
LINE
  8
_1-1_
  6
DASHED1
 62
    3
 10
33.243243243243228
 20
101.9448233939506
 11
181.99290507548565
 21
168.88218235325169
  0
LINE
  8
_1-b_
  6
CONTINUOUS
 62
    3
 10
173.92709680505703
 20
173.67113268053211
 11
175.99961564347552
 21
168.04044156461148
  0
LINE
  8
_1-1_
  6
CONTINUOUS
 62
    3
 10
172.42555772936024
 20
173.11846346468539
 11
173.92709680505703
 21
173.67113268053211
  0
LINE
  8
_1-b_
  6
CONTINUOUS
 62
    3
 10
172.42555772936024
 20
173.11846346468539
 11
172.84008129222974
 21
171.99232771589951
  0
LINE
  8
_1-1_
  6
CONTINUOUS
 62
    7
 10
158.65069415118245
 20
174.44185824007602
 11
171.41234114363388
 21
179.13905788112331
  0
LINE
  8
_1-1_
  6
CONTINUOUS
 62
    7
 10
174.16378536739865
 20
173.02474563186234
 11
171.41234114363388
 21
179.13905788112331
  0
LINE
  8
_1-1_
  6
CONTINUOUS
 62
    7
 10
172.42555772936024
 20
173.11846346468539
 11
169.95728363861909
 21
178.60349912901182
  0
LINE
  8
_1-1_
  6
CONTINUOUS
 62
    7
 10
323.50227974556589
 20
109.3699852195946
 11
319.12504453916807
 21
111.33974229967272
  0
LINE
  8
_1-1_
  6
CONTINUOUS
 62
    7
 10
319.12504453916807
 20
111.33974229967272
 11
317.89395718961151
 21
108.60397338867187
  0
LINE
  8
_1-1_
  6
CONTINUOUS
 62
    7
 10
317.89395718961151
 20
108.60397338867187
 11
322.27116765202703
 21
106.63421630859375
  0
LINE
  8
_1-1_
  6
CONTINUOUS
 62
    7
 10
279.41085403029984
 20
125.9213586755701
 11
280.6419661238387
 21
128.65712758657097
  0
LINE
  8
_1-1_
  6
CONTINUOUS
 62
    7
 10
280.6419661238387
 20
128.65712758657097
 11
276.26473091744089
 21
130.62688466664909
  0
LINE
  8
_1-1_
  6
CONTINUOUS
 62
    7
 10
276.26473091744089
 20
130.62688466664909
 11
275.03364356788433
 21
127.89111575564823
  0
LINE
  8
_1-1_
  6
CONTINUOUS
 62
    7
 10
275.03364356788433
 20
127.89111575564823
 11
279.41085403029984
 21
125.9213586755701
  0
LINE
  8
_1-1_
  6
CONTINUOUS
 62
    7
 10
236.55054040857266
 20
145.20850104254646
 11
237.78165250211151
 21
147.94426995354732
  0
LINE
  8
_1-1_
  6
CONTINUOUS
 62
    7
 10
237.78165250211151
 20
147.94426995354732
 11
233.4044172957137
 21
149.91402703362544
  0
LINE
  8
_1-1_
  6
CONTINUOUS
 62
    7
 10
233.4044172957137
 20
149.91402703362544
 11
232.17332994615711
 21
147.17825812262458
  0
LINE
  8
_1-1_
  6
CONTINUOUS
 62
    7
 10
232.17332994615711
 20
147.17825812262458
 11
236.55054040857266
 21
145.20850104254646
  0
LINE
  8
_1-1_
  6
CONTINUOUS
 62
    7
 10
193.69022678684544
 20
164.49566815350508
 11
194.9213388803843
 21
167.23141232052365
  0
LINE
  8
_1-1_
  6
CONTINUOUS
 62
    7
 10
194.9213388803843
 20
167.23141232052365
 11
190.54410367398648
 21
169.20118177259292
  0
LINE
  8
_1-1_
  6
CONTINUOUS
 62
    7
 10
190.54410367398648
 20
169.20118177259292
 11
189.3130163244299
 21
166.46541286159206
  0
LINE
  8
_1-1_
  6
CONTINUOUS
 62
    7
 10
189.3130163244299
 20
166.46541286159206
 11
193.69022678684544
 21
164.49566815350508
  0
LINE
  8
_1-1_
  6
CONTINUOUS
 62
    7
 10
194.9213388803843
 20
167.23141232052365
 11
189.31299158044766
 21
166.46538811760982
  0
LINE
  8
_1-1_
  6
CONTINUOUS
 62
    7
 10
237.78165250211151
 20
147.94426995354732
 11
232.17332994615711
 21
147.17825812262458
  0
LINE
  8
_1-1_
  6
CONTINUOUS
 62
    7
 10
280.6419661238387
 20
128.65712758657097
 11
275.03364356788433
 21
127.89111575564823
  0
LINE
  8
_1-b_
  6
CONTINUOUS
 62
    3
 10
318.25635755384292
 20
109.557260049356
 11
316.5671353726774
 21
110.1790020916913
  0
LINE
  8
_1-b_
  6
CONTINUOUS
 62
    3
 10
318.94720953864021
 20
111.43415296399917
 11
318.25635755384292
 21
109.557260049356
  0
LINE
  8
_1-1_
  6
CONTINUOUS
 62
    7
 10
323.50225500158365
 20
109.36999759158573
 11
319.12501979518584
 21
111.33975467166385
  0
LINE
  8
_1-1_
  6
CONTINUOUS
 62
    7
 10
279.41085403029984
 20
125.9213586755701
 11
280.64194137985646
 21
128.65712758657097
  0
LINE
  8
_1-1_
  6
CONTINUOUS
 62
    7
 10
280.64194137985646
 20
128.65712758657097
 11
276.26473091744089
 21
130.62688466664909
  0
LINE
  8
_1-1_
  6
CONTINUOUS
 62
    7
 10
276.26473091744089
 20
130.62688466664909
 11
275.03361882390203
 21
127.89111575564823
  0
LINE
  8
_1-1_
  6
CONTINUOUS
 62
    7
 10
275.03361882390203
 20
127.89111575564823
 11
279.41085403029984
 21
125.9213586755701
  0
LINE
  8
_1-1_
  6
CONTINUOUS
 62
    7
 10
280.64194137985646
 20
128.65712758657097
 11
275.03361882390203
 21
127.89111575564823
  0
LINE
  8
_1-b_
  6
CONTINUOUS
 62
    3
 10
275.39604393211573
 20
128.84440241633234
 11
273.70684649493245
 21
129.46614445866766
  0
LINE
  8
_1-b_
  6
CONTINUOUS
 62
    3
 10
276.08687117293078
 20
130.72129533097552
 11
275.39604393211573
 21
128.84440241633234
  0
LINE
  8
_1-b_
  6
CONTINUOUS
 62
    3
 10
331.06473355679901
 20
113.46918466928844
 11
276.86635610219594
 21
133.4180429819468
  0
LINE
  8
_1-1_
  6
CONTINUOUS
 62
    7
 10
280.64194137985646
 20
128.65713995856208
 11
276.26473091744089
 21
130.62689703864021
  0
LINE
  8
_1-1_
  6
CONTINUOUS
 62
    7
 10
236.55054040857266
 20
145.20850104254646
 11
237.78165250211151
 21
147.94426995354732
  0
LINE
  8
_1-1_
  6
CONTINUOUS
 62
    7
 10
237.78165250211151
 20
147.94426995354732
 11
233.4044172957137
 21
149.91402703362544
  0
LINE
  8
_1-1_
  6
CONTINUOUS
 62
    7
 10
233.4044172957137
 20
149.91402703362544
 11
232.17332994615711
 21
147.17825812262458
  0
LINE
  8
_1-1_
  6
CONTINUOUS
 62
    7
 10
232.17332994615711
 20
147.17825812262458
 11
236.55054040857266
 21
145.20850104254646
  0
LINE
  8
_1-1_
  6
CONTINUOUS
 62
    7
 10
237.78165250211151
 20
147.94426995354732
 11
232.17332994615711
 21
147.17825812262458
  0
LINE
  8
_1-b_
  6
CONTINUOUS
 62
    3
 10
288.92070873363599
 20
129.50903815192146
 11
233.22658229518584
 21
150.00843769795188
  0
LINE
  8
_1-b_
  6
CONTINUOUS
 62
    3
 10
232.53573031038852
 20
148.1315447833087
 11
230.846508129223
 21
148.75328682564401
  0
LINE
  8
_1-b_
  6
CONTINUOUS
 62
    3
 10
233.22658229518584
 20
150.00843769795188
 11
232.53573031038852
 21
148.1315447833087
  0
LINE
  8
_1-b_
  6
CONTINUOUS
 62
    3
 10
288.20441993507183
 20
132.75632703626479
 11
234.00604248046875
 21
152.70518534892315
  0
LINE
  8
_1-b_
  6
CONTINUOUS
 62
    3
 10
289.15327742293078
 20
130.70213111671242
 11
288.73594541807432
 21
129.56828761745143
  0
LINE
  8
_1-1_
  6
CONTINUOUS
 62
    7
 10
237.78165250211151
 20
147.94426995354732
 11
233.4044172957137
 21
149.91402703362544
  0
LINE
  8
_1-1_
  6
CONTINUOUS
 62
    7
 10
233.4044172957137
 20
149.91402703362544
 11
232.17332994615711
 21
147.17825812262458
  0
LINE
  8
_1-1_
  6
CONTINUOUS
 62
    7
 10
193.69022678684544
 20
164.49564340952281
 11
194.9213388803843
 21
167.23141232052365
  0
LINE
  8
_1-1_
  6
CONTINUOUS
 62
    7
 10
194.9213388803843
 20
167.23141232052365
 11
190.54410367398648
 21
169.20118177259292
  0
LINE
  8
_1-1_
  6
CONTINUOUS
 62
    7
 10
190.54410367398648
 20
169.20118177259292
 11
189.3130163244299
 21
166.46538811760982
  0
LINE
  8
_1-1_
  6
CONTINUOUS
 62
    7
 10
189.3130163244299
 20
166.46538811760982
 11
193.69022678684544
 21
164.49564340952281
  0
LINE
  8
_1-1_
  6
CONTINUOUS
 62
    7
 10
194.9213388803843
 20
167.23141232052365
 11
189.3130163244299
 21
166.46538811760982
  0
LINE
  8
_1-1_
  6
CONTINUOUS
 62
    7
 10
237.78165250211151
 20
147.94426995354732
 11
232.17332994615711
 21
147.17825812262458
  0
LINE
  8
_1-1_
  6
CONTINUOUS
 62
    7
 10
237.78162775812925
 20
147.94426995354732
 11
233.4044172957137
 21
149.91402703362544
  0
LINE
  8
_1-1_
  6
CONTINUOUS
 62
    7
 10
233.4044172957137
 20
149.91402703362544
 11
232.17330520217484
 21
147.17825812262458
  0
LINE
  8
_1-1_
  6
CONTINUOUS
 62
    7
 10
237.78162775812925
 20
147.94426995354732
 11
232.17330520217484
 21
147.17825812262458
  0
LINE
  8
_1-b_
  6
CONTINUOUS
 62
    3
 10
232.53573031038852
 20
148.1315447833087
 11
230.84653287320526
 21
148.75328682564401
  0
LINE
  8
_1-b_
  6
CONTINUOUS
 62
    3
 10
233.22655755120357
 20
150.00843769795188
 11
232.53573031038852
 21
148.1315447833087
  0
LINE
  8
ADD_LINE
  6
DOT
 62
    3
 10
233.4044172957137
 20
149.91403940561656
 11
233.4044172957137
 21
150.3728299527555
  0
LINE
  8
ADD_LINE
  6
DOT
 62
    3
 10
233.4044172957137
 20
149.91403940561656
 11
233.4044172957137
 21
149.53100256017737
  0
LINE
  8
_1-1_
  6
CONTINUOUS
 62
    7
 10
237.78162775812925
 20
147.94428232553844
 11
233.4044172957137
 21
149.91403940561656
  0
LINE
  8
_1-1_
  6
CONTINUOUS
 62
    7
 10
193.69022678684544
 20
164.49564340952281
 11
194.9213388803843
 21
167.23141232052365
  0
LINE
  8
_1-1_
  6
CONTINUOUS
 62
    7
 10
194.9213388803843
 20
167.23141232052365
 11
190.54410367398648
 21
169.20118177259292
  0
LINE
  8
_1-1_
  6
CONTINUOUS
 62
    7
 10
190.54410367398648
 20
169.20118177259292
 11
189.3130163244299
 21
166.46538811760982
  0
LINE
  8
_1-1_
  6
CONTINUOUS
 62
    7
 10
189.3130163244299
 20
166.46538811760982
 11
193.69022678684544
 21
164.49564340952281
  0
LINE
  8
_1-1_
  6
CONTINUOUS
 62
    7
 10
194.9213388803843
 20
167.23141232052365
 11
189.3130163244299
 21
166.46538811760982
  0
LINE
  8
_1-b_
  6
CONTINUOUS
 62
    3
 10
246.0603951119088
 20
148.79618051889781
 11
190.36626867345862
 21
169.29558006492823
  0
LINE
  8
_1-b_
  6
CONTINUOUS
 62
    3
 10
189.67541668866133
 20
167.41867477829393
 11
187.98619450749578
 21
168.04044156461148
  0
LINE
  8
_1-b_
  6
CONTINUOUS
 62
    3
 10
190.36626867345862
 20
169.29558006492823
 11
189.67541668866133
 21
167.41867477829393
  0
LINE
  8
_1-b_
  6
CONTINUOUS
 62
    3
 10
245.34410631334461
 20
152.04346940324115
 11
191.14572885874156
 21
171.99232771589951
  0
LINE
  8
_1-b_
  6
CONTINUOUS
 62
    3
 10
246.29296380120357
 20
149.98927348368878
 11
245.87563179634714
 21
148.85542998442779
  0
LINE
  8
ADD_LINE
  6
DOT
 62
    3
 10
190.54410367398648
 20
169.20118177259292
 11
190.54410367398648
 21
169.65998469172297
  0
LINE
  8
ADD_LINE
  6
DOT
 62
    3
 10
190.54410367398648
 20
169.20118177259292
 11
190.54410367398648
 21
168.81814492715372
  0
LINE
  8
_1-1_
  6
CONTINUOUS
 62
    7
 10
193.69693240603885
 20
164.51051454286318
 11
194.92804449957771
 21
167.24628345386404
  0
LINE
  8
_1-1_
  6
CONTINUOUS
 62
    7
 10
194.92804449957771
 20
167.24628345386404
 11
190.5508092931799
 21
169.21602816195102
  0
LINE
  8
_1-1_
  6
CONTINUOUS
 62
    7
 10
190.5508092931799
 20
169.21602816195102
 11
189.31972194362334
 21
166.48028399493245
  0
LINE
  8
_1-1_
  6
CONTINUOUS
 62
    7
 10
189.31972194362334
 20
166.48028399493245
 11
193.69693240603885
 21
164.51051454286318
  0
LINE
  8
_1-1_
  6
CONTINUOUS
 62
    7
 10
194.92804449957771
 20
167.24628345386404
 11
189.31972194362334
 21
166.48028399493245
  0
LINE
  8
_1-1_
  6
CONTINUOUS
 62
    7
 10
193.69693240603885
 20
164.51051454286318
 11
194.92804449957771
 21
167.24628345386404
  0
LINE
  8
_1-1_
  6
CONTINUOUS
 62
    7
 10
194.92804449957771
 20
167.24628345386404
 11
190.5508092931799
 21
169.21602816195102
  0
LINE
  8
_1-1_
  6
CONTINUOUS
 62
    7
 10
190.5508092931799
 20
169.21602816195102
 11
189.31972194362334
 21
166.48028399493245
  0
LINE
  8
_1-1_
  6
CONTINUOUS
 62
    7
 10
189.31972194362334
 20
166.48028399493245
 11
193.69693240603885
 21
164.51051454286318
  0
LINE
  8
_1-1_
  6
CONTINUOUS
 62
    7
 10
194.92804449957771
 20
167.24628345386404
 11
189.31972194362334
 21
166.48028399493245
  0
LINE
  8
_1-b_
  6
CONTINUOUS
 62
    3
 10
189.68212230785474
 20
167.43357065561656
 11
187.99290012668919
 21
168.05528795396961
  0
LINE
  8
_1-b_
  6
CONTINUOUS
 62
    3
 10
190.37297429265203
 20
169.31045119826859
 11
189.68212230785474
 21
167.43357065561656
  0
LINE
  8
ADD_LINE
  6
DOT
 62
    3
 10
190.5508092931799
 20
169.21605290593328
 11
190.5508092931799
 21
169.67483108108109
  0
LINE
  8
ADD_LINE
  6
DOT
 62
    3
 10
190.5508092931799
 20
169.21605290593328
 11
190.5508092931799
 21
168.83301606049409
  0
LINE
  8
_1-1_
  6
CONTINUOUS
 62
    7
 10
194.92804449957771
 20
167.24628345386404
 11
190.5508092931799
 21
169.21602816195102
  0
LINE
  8
_1-1_
  6
CONTINUOUS
 62
    7
 10
190.5508092931799
 20
169.21602816195102
 11
189.31972194362334
 21
166.48028399493245
  0
LINE
  8
_1-1_
  6
CONTINUOUS
 62
    7
 10
194.92804449957771
 20
167.24628345386404
 11
189.31972194362334
 21
166.48028399493245
  0
LINE
  8
_1-1_
  6
CONTINUOUS
 62
    7
 10
194.92801975559544
 20
167.24628345386404
 11
190.5508092931799
 21
169.21602816195102
  0
LINE
  8
_1-1_
  6
CONTINUOUS
 62
    7
 10
190.5508092931799
 20
169.21602816195102
 11
189.31969719964107
 21
166.48028399493245
  0
LINE
  8
_1-1_
  6
CONTINUOUS
 62
    7
 10
194.92801975559544
 20
167.24628345386404
 11
189.31969719964107
 21
166.48028399493245
  0
LINE
  8
_1-b_
  6
CONTINUOUS
 62
    3
 10
189.68212230785474
 20
167.43357065561656
 11
187.99292487067146
 21
168.05528795396961
  0
LINE
  8
_1-b_
  6
CONTINUOUS
 62
    3
 10
190.37294954866977
 20
169.31045119826859
 11
189.68212230785474
 21
167.43357065561656
  0
LINE
  8
ADD_LINE
  6
DOT
 62
    3
 10
190.5508092931799
 20
169.21605290593328
 11
190.5508092931799
 21
169.67483108108109
  0
LINE
  8
ADD_LINE
  6
DOT
 62
    3
 10
190.5508092931799
 20
169.21605290593328
 11
190.5508092931799
 21
168.83301606049409
  0
LINE
  8
_1-1_
  6
CONTINUOUS
 62
    7
 10
194.92801975559544
 20
167.2463081978463
 11
190.5508092931799
 21
169.21605290593328
  0
LINE
  8
_1-b_
  6
CONTINUOUS
 62
    3
 10
191.32356385926943
 20
172.47208878800677
 11
191.15243447793497
 21
172.00719884923987
  0
LINE
  8
_1-b_
  6
CONTINUOUS
 62
    3
 10
191.32353911528716
 20
172.47206404402451
 11
191.15243447793497
 21
172.00719884923987
  0
LINE
  8
_1-b_
  6
CONTINUOUS
 62
    3
 10
189.8220495275549
 20
173.02474563186234
 11
187.99292487067146
 21
168.05528795396961
  0
LINE
  8
_1-b_
  6
CONTINUOUS
 62
    3
 10
189.82202478357266
 20
173.02474563186234
 11
187.99290012668919
 21
168.05528795396961
  0
LINE
  8
_1-b_
  6
CONTINUOUS
 62
    3
 10
234.17714711782097
 20
153.17005054370779
 11
234.00604248046875
 21
152.70518534892315
  0
LINE
  8
_1-b_
  6
CONTINUOUS
 62
    3
 10
232.6756575300887
 20
153.72273213154563
 11
230.84653287320526
 21
148.75328682564401
  0
LINE
  8
_1-b_
  6
CONTINUOUS
 62
    3
 10
234.17714711782097
 20
153.17005054370779
 11
234.00604248046875
 21
152.70518534892315
  0
LINE
  8
_1-b_
  6
CONTINUOUS
 62
    3
 10
232.67563278610643
 20
153.72273213154563
 11
230.846508129223
 21
148.75328682564401
  0
LINE
  8
_1-b_
  6
CONTINUOUS
 62
    3
 10
277.03746073954818
 20
133.88292054872255
 11
276.86635610219594
 21
133.4180429819468
  0
LINE
  8
_1-b_
  6
CONTINUOUS
 62
    3
 10
275.53597115181589
 20
134.43557739257812
 11
273.70684649493245
 21
129.46614445866766
  0
LINE
  8
_1-b_
  6
CONTINUOUS
 62
    3
 10
319.89777436127537
 20
114.59577818174621
 11
319.72666972392318
 21
114.13090061497044
  0
LINE
  8
_1-b_
  6
CONTINUOUS
 62
    3
 10
318.39626002956084
 20
115.14843502560178
 11
316.5671353726774
 21
110.1790020916913
  0
LINE
  8
_1-c_
  6
CONTINUOUS
 62
    7
 10
291.64027033625422
 20
137.4589827254012
 11
289.15327742293078
 21
130.70214348870354
  0
LINE
  8
_1-c_
  6
CONTINUOUS
 62
    7
 10
248.77995671452703
 20
156.74610034839529
 11
246.29296380120357
 21
149.98927348368878
  0
LINE
  8
_1-c_
  6
CONTINUOUS
 62
    7
 10
247.83112397065034
 20
158.80029626794763
 11
205.33511599978885
 21
174.44185824007602
  0
LINE
  8
_1-c_
  6
CONTINUOUS
 62
    7
 10
290.69141284839526
 20
139.51316627296242
 11
248.19436563027872
 21
155.15511177681589
  0
LINE
  8
_1-b_
  6
CONTINUOUS
 62
    3
 10
330.74256690772808
 20
107.0926233240076
 11
318.94720953864021
 21
111.43415296399917
  0
LINE
  8
_1-b_
  6
CONTINUOUS
 62
    3
 10
330.74256690772808
 20
110.0762650773332
 11
319.72666972392318
 21
114.13090061497044
  0
LINE
  8
_1-b_
  6
CONTINUOUS
 62
    3
 10
330.74256690772808
 20
110.6041160789696
 11
276.08687117293078
 21
130.72129533097552
  0
LINE
  8
_1-c_
  6
CONTINUOUS
 62
    7
 10
330.74256690772808
 20
121.26000069283151
 11
291.05465450802365
 21
135.86796940983953
  0
LINE
  8
_1-0_
  6
CONTINUOUS
 62
    7
 10
330.74256690772808
 20
84.618790085251277
 11
181.99290507548565
 21
151.55613667256125
  0
LINE
  8
_1-0_
  6
CONTINUOUS
 62
    7
 10
330.74256690772808
 20
101.06755024677999
 11
181.99290507548565
 21
168.00490920608109
  0
LINE
  8
_1-0_
  6
CONTINUOUS
 62
    7
 10
330.74256690772808
 20
102.82209654112121
 11
181.99290507548565
 21
169.75944312843117
  0
LINE
  8
_1-0_
  6
CONTINUOUS
 62
    7
 10
330.74256690772808
 20
102.16414168074324
 11
181.99290507548565
 21
169.10151301203547
  0
LINE
  8
_1-b_
  6
CONTINUOUS
 62
    3
 10
190.05871334591427
 20
173.67113268053211
 11
187.98619450749578
 21
168.04044156461148
  0
LINE
  8
_1-1_
  6
CONTINUOUS
 62
    3
 10
191.56025242161107
 20
173.11846346468539
 11
190.05871334591427
 21
173.67113268053211
  0
LINE
  8
_1-b_
  6
CONTINUOUS
 62
    3
 10
191.56025242161107
 20
173.11846346468539
 11
191.14572885874156
 21
171.99232771589951
  0
LINE
  8
_1-1_
  6
CONTINUOUS
 62
    7
 10
205.33511599978885
 20
174.44185824007602
 11
192.57346900733742
 21
179.13905788112331
  0
LINE
  8
_1-1_
  6
CONTINUOUS
 62
    7
 10
189.82202478357266
 20
173.02474563186234
 11
192.57346900733742
 21
179.13905788112331
  0
LINE
  8
_1-1_
  6
CONTINUOUS
 62
    7
 10
191.56025242161107
 20
173.11846346468539
 11
194.02852651235222
 21
178.60349912901182
  0
LINE
  8
_1-1_
  6
CONTINUOUS
 62
    7
 10
205.33511599978885
 20
174.44185824007602
 11
192.57346900733742
 21
179.13905788112331
  0
LINE
  8
_1-0_
  6
CONTINUOUS
 62
    7
 10
330.74256690772808
 20
97.777800688872475
 11
183.62368197054477
 21
163.98130262220229
  0
LINE
  8
_1-0_
  6
CONTINUOUS
 62
    7
 10
182.96367335963893
 20
164.27830464131125
 11
181.99290507548565
 21
164.71514727618245
  0
LINE
  8
_1-0_
  6
CONTINUOUS
 62
    7
 10
33.243243243243228
 20
101.06755024677999
 11
181.40559428447003
 21
167.74061873152451
  0
LINE
  8
_1-0_
  6
CONTINUOUS
 62
    7
 10
181.84332770270271
 20
167.93760557432432
 11
181.99290507548565
 21
168.00490920608109
  0
LINE
  8
_1-0_
  6
CONTINUOUS
 62
    7
 10
33.243243243243228
 20
102.16414168074324
 11
180.99524008261193
 21
168.65257056983742
  0
LINE
  8
_1-0_
  6
CONTINUOUS
 62
    7
 10
181.43297350084461
 20
168.84954504064612
 11
181.99290507548565
 21
169.10151301203547
  0
LINE
  8
_1-0_
  6
CONTINUOUS
 62
    7
 10
33.243243243243228
 20
102.82209654112121
 11
180.74901271510768
 21
169.19969713365711
  0
LINE
  8
_1-0_
  6
CONTINUOUS
 62
    7
 10
181.18673376134925
 20
169.39667160446581
 11
181.99290507548565
 21
169.75944312843117
  0
LINE
  8
_1-3_
  6
DASHED1
 62
    7
 10
180.74901271510768
 20
169.19969713365711
 11
181.18674613334039
 21
169.39667160446581
  0
LINE
  8
_1-3_
  6
DASHED1
 62
    7
 10
180.99524008261193
 20
168.65257056983742
 11
181.43297350084461
 21
168.84954504064612
  0
LINE
  8
_1-3_
  6
DASHED1
 62
    7
 10
181.40559428447003
 20
167.74061873152451
 11
181.84332770270271
 21
167.93760557432432
  0
LINE
  8
_1-3_
  6
DASHED1
 62
    7
 10
182.96366098764781
 20
164.27831701330237
 11
183.62368197054477
 21
163.98130262220229
  0
LINE
  8
_1-3_
  6
CONTINUOUS
 62
    7
 10
229.29040857263516
 20
135.81551216744089
 11
260.70853568412161
 21
190.23324502480997
  0
LINE
  8
_1-3_
  6
CONTINUOUS
 62
    7
 10
260.70853568412161
 20
190.23324502480997
 11
266.45621634818411
 21
190.23324502480997
  0
LINE
  8
_1-3_
  6
CONTINUOUS
 62
    7
 10
208.13796584670609
 20
239.33599523595862
 11
213.24324324324326
 21
239.33599523595862
  0
LINE
  8
_1-4_
  6
CONTINUOUS
 62
    7
 10
167.37084466057857
 20
227.61415223817568
 11
162.22790692303633
 21
227.61415223817568
  0
LINE
  8
_1-4_
  6
CONTINUOUS
 62
    7
 10
40.483542777396536
 20
109.3699852195946
 11
41.707621393976979
 21
106.6498173894109
  0
LINE
  8
_1-4_
  6
CONTINUOUS
 62
    7
 10
40.483542777396536
 20
109.3699852195946
 11
46.091865333350938
 21
108.60397338867187
  0
LINE
  8
_1-4_
  6
CONTINUOUS
 62
    7
 10
323.50227974556589
 20
109.3699852195946
 11
322.27893726245782
 21
106.65143812024917
  0
LINE
  8
_1-4_
  6
CONTINUOUS
 62
    7
 10
319.12504453916807
 20
111.33974229967272
 11
322.27893726245782
 21
106.65143812024917
  0
LINE
  8
_1-1_
  6
DASHED1
 62
    3
 10
227.5889876082137
 20
148.36394026472763
 11
181.99290507548565
 21
168.88218235325169
  0
LINE
  8
_1-1_
  6
DASHED1
 62
    3
 10
136.56243401604729
 20
147.99983256572003
 11
181.99290507548565
 21
168.44354577966641
  0
LINE
  8
_1-1_
  6
DASHED1
 62
    3
 10
227.42483602987755
 20
147.99917685019005
 11
181.99290507548565
 21
168.44354577966641
  0
LINE
  8
_1-1_
  6
DASHED1
 62
    3
 10
227.42483602987755
 20
147.99917685019005
 11
331.38907767630911
 21
101.21525944890203
  0
LINE
  8
_1-a_
  6
CONTINUOUS
 62
    7
 10
153.19365630278716
 20
111.04156494140625
 11
139.03597857501057
 21
142.50306825380068
  0
LINE
  8
_1-a_
  6
CONTINUOUS
 62
    7
 10
198.62412736222552
 20
131.48527815535263
 11
184.46644963444891
 21
162.94678146774706
  0
LINE
  8
_1-a_
  6
CONTINUOUS
 62
    7
 10
153.19365630278716
 20
111.04156494140625
 11
198.62412736222552
 21
131.48527815535263
  0
LINE
  8
_1-a_
  6
CONTINUOUS
 62
    7
 10
167.16520979597763
 20
135.49311045053844
 11
179.5886684108425
 21
163.10078801335516
  0
LINE
  8
_1-a_
  6
CONTINUOUS
 62
    7
 10
212.59712837837839
 20
115.04875389305322
 11
225.02058699324326
 21
142.6564190838788
  0
LINE
  8
_1-a_
  6
CONTINUOUS
 62
    7
 10
167.16520979597763
 20
135.49311045053844
 11
212.59712837837839
 21
115.04875389305322
  0
LINE
  8
_1-2_
  6
CONTINUOUS
 62
    7
 10
181.99290507548565
 20
164.71514727618245
 11
181.99290507548565
 21
145.76061351879224
  0
LINE
  8
_1-2_
  6
CONTINUOUS
 62
    3
 10
160.02200564822635
 20
204.18367952913852
 11
160.49264856286953
 21
198.8042264371305
  0
LINE
  8
_1-2_
  6
CONTINUOUS
 62
    3
 10
180.13022757865289
 20
209.55666206978464
 11
180.44399364574537
 21
205.97036825644005
  0
LINE
  8
_1-2_
  6
CONTINUOUS
 62
    3
 10
159.08940495671453
 20
198.06868682036529
 11
159.56004787135768
 21
192.68922135636615
  0
LINE
  8
_1-2_
  6
CONTINUOUS
 62
    3
 10
179.19762688714107
 20
203.44168173300255
 11
179.51139295423354
 21
199.85537554766682
  0
LINE
  8
_1-2_
  6
CONTINUOUS
 62
    3
 10
166.99290507548565
 20
207.33447925464529
 11
170.14385326488599
 21
207.93447133657097
  0
LINE
  8
_1-2_
  6
CONTINUOUS
 62
    3
 10
193.84195688608531
 20
207.93447133657097
 11
196.99290507548565
 21
207.33447925464529
  0
LINE
  8
_1-2_
  6
CONTINUOUS
 62
    3
 10
158.08538076039909
 20
191.93509900892104
 11
158.55602367504224
 21
186.55563354492187
  0
LINE
  8
_1-2_
  6
CONTINUOUS
 62
    3
 10
178.1936026908256
 20
197.30809392155828
 11
178.50736875791807
 21
193.72178773622255
  0
LINE
  8
_1-2_
  6
CONTINUOUS
 62
    3
 10
153.95921037003802
 20
184.43152350348396
 11
154.42985328468117
 21
179.05205803948482
  0
LINE
  8
_1-2_
  6
CONTINUOUS
 62
    3
 10
174.06743230046453
 20
189.8045184161212
 11
174.38119836755703
 21
186.2182122307855
  0
LINE
  8
_1-2_
  6
CONTINUOUS
 62
    3
 10
149.37647639094172
 20
176.84136880410685
 11
149.8471193055849
 21
171.46190334010768
  0
LINE
  8
_1-2_
  6
CONTINUOUS
 62
    3
 10
169.48469832136826
 20
182.21436371674409
 11
169.79846438846073
 21
178.62805753140836
  0
LINE
  8
_1-2_
  6
CONTINUOUS
 62
    3
 10
203.96380450274495
 20
204.18367952913852
 11
203.4931615881018
 21
198.8042264371305
  0
LINE
  8
_1-2_
  6
CONTINUOUS
 62
    3
 10
183.85558257231841
 20
209.55666206978464
 11
183.54181650522594
 21
205.97036825644005
  0
LINE
  8
_1-2_
  6
CONTINUOUS
 62
    3
 10
204.89640519425677
 20
198.06868682036529
 11
204.42576227961362
 21
192.68922135636615
  0
LINE
  8
_1-2_
  6
CONTINUOUS
 62
    3
 10
184.78818326383023
 20
203.44168173300255
 11
184.47441719673776
 21
199.85537554766682
  0
LINE
  8
_1-2_
  6
CONTINUOUS
 62
    3
 10
196.99290507548565
 20
207.33447925464529
 11
193.84195688608531
 21
207.93447133657097
  0
LINE
  8
_1-2_
  6
CONTINUOUS
 62
    3
 10
205.90042939057221
 20
191.93509900892104
 11
205.42978647592906
 21
186.55563354492187
  0
LINE
  8
_1-2_
  6
CONTINUOUS
 62
    3
 10
185.7922074601457
 20
197.30809392155828
 11
185.47844139305323
 21
193.72178773622255
  0
LINE
  8
_1-2_
  6
CONTINUOUS
 62
    3
 10
210.02659978093328
 20
184.43152350348396
 11
209.55596923828125
 21
179.05205803948482
  0
LINE
  8
_1-2_
  6
CONTINUOUS
 62
    3
 10
189.91837785050677
 20
189.8045184161212
 11
189.60461178341427
 21
186.2182122307855
  0
LINE
  8
_1-2_
  6
CONTINUOUS
 62
    3
 10
214.60933376002959
 20
176.84136880410685
 11
214.13870321737755
 21
171.46190334010768
  0
LINE
  8
_1-2_
  6
CONTINUOUS
 62
    3
 10
194.50111182960305
 20
182.21436371674409
 11
194.18734576251057
 21
178.62805753140836
  0
LINE
  8
_1-3_
  6
CONTINUOUS
 62
    7
 10
163.99289517789273
 20
161.44014513170399
 11
163.99289517789273
 21
161.00150855811867
  0
LINE
  8
_1-3_
  6
CONTINUOUS
 62
    7
 10
199.9928902290963
 20
161.4401575036951
 11
199.9928902290963
 21
161.00150855811867
  0
LINE
  8
_1-3_
  6
CONTINUOUS
 62
    7
 10
163.99289517789273
 20
161.44014513170399
 11
181.99290507548565
 21
169.54014958562078
  0
LINE
  8
_1-3_
  6
CONTINUOUS
 62
    7
 10
199.99287785710516
 20
161.4401575036951
 11
181.99290507548565
 21
169.54014958562078
  0
LINE
  8
_1-3_
  6
CONTINUOUS
 62
    7
 10
176.99288857949747
 20
176.82996182828336
 11
186.99289682749156
 21
176.82996182828336
  0
LINE
  8
_1-3_
  6
CONTINUOUS
 62
    7
 10
176.99288857949747
 20
176.82996182828336
 11
176.99288857949747
 21
167.29014216242609
  0
LINE
  8
_1-3_
  6
CONTINUOUS
 62
    7
 10
186.99289682749156
 20
176.82996182828336
 11
186.99289682749156
 21
167.29015453441724
  0
LINE
  8
_1-3_
  6
CONTINUOUS
 62
    7
 10
181.29289781725086
 20
176.42996298300255
 11
181.29289781725086
 21
169.22514631941513
  0
LINE
  8
_1-3_
  6
CONTINUOUS
 62
    7
 10
182.69288758973818
 20
176.42996298300255
 11
182.69288758973818
 21
169.22515869140625
  0
LINE
  8
_1-3_
  6
CONTINUOUS
 62
    7
 10
181.29289781725086
 20
182.08960455817146
 11
182.69288758973818
 21
182.08960455817146
  0
LINE
  8
_1-3_
  6
CONTINUOUS
 62
    7
 10
181.29289781725086
 20
181.68960571289062
 11
182.69288758973818
 21
181.68960571289062
  0
LINE
  8
_1-3_
  6
CONTINUOUS
 62
    7
 10
181.29289781725086
 20
181.28960686760982
 11
182.69288758973818
 21
181.28960686760982
  0
LINE
  8
_1-3_
  6
CONTINUOUS
 62
    7
 10
181.29289781725086
 20
180.88960802232899
 11
182.69288758973818
 21
180.88960802232899
  0
LINE
  8
_1-3_
  6
CONTINUOUS
 62
    7
 10
181.29289781725086
 20
180.48960917704815
 11
182.69288758973818
 21
180.48960917704815
  0
LINE
  8
_1-3_
  6
CONTINUOUS
 62
    7
 10
181.29289781725086
 20
180.08961033176732
 11
182.69288758973818
 21
180.08961033176732
  0
LINE
  8
_1-3_
  6
CONTINUOUS
 62
    7
 10
181.29289781725086
 20
179.68961148648648
 11
182.69288758973818
 21
179.68961148648648
  0
LINE
  8
_1-3_
  6
CONTINUOUS
 62
    7
 10
181.29289781725086
 20
179.28961264120568
 11
182.69288758973818
 21
179.28961264120568
  0
LINE
  8
_1-3_
  6
CONTINUOUS
 62
    7
 10
181.29289781725086
 20
178.88961379592484
 11
182.69288758973818
 21
178.88961379592484
  0
LINE
  8
_1-3_
  6
CONTINUOUS
 62
    7
 10
181.29289781725086
 20
178.48961495064401
 11
182.69288758973818
 21
178.48961495064401
  0
LINE
  8
_1-3_
  6
CONTINUOUS
 62
    7
 10
181.29289781725086
 20
178.08961610536318
 11
182.69288758973818
 21
178.08961610536318
  0
LINE
  8
_1-3_
  6
CONTINUOUS
 62
    7
 10
181.29289781725086
 20
177.68961726008237
 11
182.69288758973818
 21
177.68961726008237
  0
LINE
  8
_1-3_
  6
CONTINUOUS
 62
    7
 10
181.29289781725086
 20
177.28961841480154
 11
182.69288758973818
 21
177.28961841480154
  0
LINE
  8
_1-3_
  6
CONTINUOUS
 62
    7
 10
181.29289781725086
 20
176.8896195695207
 11
182.69288758973818
 21
176.8896195695207
  0
LINE
  8
_1-3_
  6
CONTINUOUS
 62
    7
 10
181.29289781725086
 20
176.02996413772172
 11
182.69288758973818
 21
176.02996413772172
  0
LINE
  8
_1-3_
  6
CONTINUOUS
 62
    7
 10
177.39288742477831
 20
176.42996298300255
 11
186.59289798221073
 21
176.42996298300255
  0
LINE
  8
_1-3_
  6
CONTINUOUS
 62
    7
 10
186.59289798221073
 20
176.42996298300255
 11
186.59289798221073
 21
167.47015463339318
  0
LINE
  8
_1-3_
  6
CONTINUOUS
 62
    7
 10
177.39288742477831
 20
176.42996298300255
 11
177.39288742477831
 21
167.47014226140203
  0
LINE
  8
_1-3_
  6
CONTINUOUS
 62
    7
 10
177.39288742477831
 20
176.42996298300255
 11
186.59289798221073
 21
176.42996298300255
  0
LINE
  8
_1-3_
  6
CONTINUOUS
 62
    7
 10
181.29289781725086
 20
175.62996529244089
 11
182.69288758973818
 21
175.62996529244089
  0
LINE
  8
_1-3_
  6
CONTINUOUS
 62
    7
 10
181.29289781725086
 20
175.22996644716005
 11
182.69288758973818
 21
175.22996644716005
  0
LINE
  8
_1-3_
  6
CONTINUOUS
 62
    7
 10
181.29289781725086
 20
174.82996760187925
 11
182.69288758973818
 21
174.82996760187925
  0
LINE
  8
_1-3_
  6
CONTINUOUS
 62
    7
 10
181.29289781725086
 20
174.42996875659841
 11
182.69288758973818
 21
174.42996875659841
  0
LINE
  8
_1-3_
  6
CONTINUOUS
 62
    7
 10
181.29289781725086
 20
174.02996991131758
 11
182.69288758973818
 21
174.02996991131758
  0
LINE
  8
_1-3_
  6
CONTINUOUS
 62
    7
 10
181.29289781725086
 20
173.62997106603675
 11
182.69288758973818
 21
173.62997106603675
  0
LINE
  8
_1-3_
  6
CONTINUOUS
 62
    7
 10
181.29289781725086
 20
173.22997222075591
 11
182.69288758973818
 21
173.22997222075591
  0
LINE
  8
_1-3_
  6
CONTINUOUS
 62
    7
 10
181.29289781725086
 20
172.82997337547511
 11
182.69288758973818
 21
172.82997337547511
  0
LINE
  8
_1-3_
  6
CONTINUOUS
 62
    7
 10
181.29289781725086
 20
172.42997453019427
 11
182.69288758973818
 21
172.42997453019427
  0
LINE
  8
_1-3_
  6
CONTINUOUS
 62
    7
 10
181.29289781725086
 20
172.02997568491344
 11
182.69288758973818
 21
172.02997568491344
  0
LINE
  8
_1-3_
  6
CONTINUOUS
 62
    7
 10
181.29289781725086
 20
171.6299768396326
 11
182.69288758973818
 21
171.6299768396326
  0
LINE
  8
_1-3_
  6
CONTINUOUS
 62
    7
 10
181.29289781725086
 20
171.22997799435177
 11
182.69288758973818
 21
171.22997799435177
  0
LINE
  8
_1-3_
  6
CONTINUOUS
 62
    7
 10
181.29289781725086
 20
170.82997914907097
 11
182.69288758973818
 21
170.82997914907097
  0
LINE
  8
_1-3_
  6
CONTINUOUS
 62
    7
 10
181.29289781725086
 20
170.42998030379013
 11
182.69288758973818
 21
170.42998030379013
  0
LINE
  8
_1-3_
  6
CONTINUOUS
 62
    7
 10
181.29289781725086
 20
170.0299814585093
 11
182.69288758973818
 21
170.0299814585093
  0
LINE
  8
_1-3_
  6
CONTINUOUS
 62
    7
 10
181.29289781725086
 20
169.62998261322846
 11
182.69288758973818
 21
169.62998261322846
  0
LINE
  8
_1-3_
  6
DASHED2
 62
    7
 10
181.29289781725086
 20
169.22514631941513
 11
181.99289270349453
 21
167.35494665197425
  0
LINE
  8
_1-3_
  6
DASHED2
 62
    7
 10
181.99289270349453
 20
167.35494665197425
 11
182.69288758973818
 21
169.22515869140625
  0
LINE
  8
_1-3_
  6
CONTINUOUS
 62
    7
 10
178.99289517789273
 20
210.01920133023648
 11
178.99289517789273
 21
216.01919638144005
  0
LINE
  8
_1-3_
  6
CONTINUOUS
 62
    7
 10
178.99289517789273
 20
216.01919638144005
 11
184.9928902290963
 21
216.01919638144005
  0
LINE
  8
_1-3_
  6
CONTINUOUS
 62
    7
 10
184.9928902290963
 20
216.01919638144005
 11
184.9928902290963
 21
210.01920133023648
  0
LINE
  8
_1-3_
  6
CONTINUOUS
 62
    7
 10
184.9928902290963
 20
210.01920133023648
 11
178.99289517789273
 21
210.01920133023648
  0
LINE
  8
_1-3_
  6
CONTINUOUS
 62
    7
 10
178.39289072397594
 20
209.61164319837417
 11
185.5928946830131
 21
209.61164319837417
  0
LINE
  8
_1-3_
  6
CONTINUOUS
 62
    7
 10
178.39289072397594
 20
209.61164319837417
 11
178.39289072397594
 21
214.60339520428633
  0
LINE
  8
_1-3_
  6
CONTINUOUS
 62
    7
 10
185.5928946830131
 20
214.60339520428633
 11
185.5928946830131
 21
209.61164319837417
  0
LINE
  8
_1-3_
  6
CONTINUOUS
 62
    7
 10
184.9928902290963
 20
214.60339520428633
 11
185.5928946830131
 21
214.60339520428633
  0
LINE
  8
_1-3_
  6
CONTINUOUS
 62
    7
 10
178.99289517789273
 20
216.01919638144005
 11
184.9928902290963
 21
210.01920133023648
  0
LINE
  8
_1-3_
  6
CONTINUOUS
 62
    7
 10
184.9928902290963
 20
216.01919638144005
 11
178.99289517789273
 21
210.01920133023648
  0
LINE
  8
_1-3_
  6
CONTINUOUS
 62
    7
 10
181.29289781725086
 20
209.61164319837417
 11
181.29289781725086
 21
176.82996182828336
  0
LINE
  8
_1-3_
  6
CONTINUOUS
 62
    7
 10
182.69288758973818
 20
209.61164319837417
 11
182.69288758973818
 21
176.82996182828336
  0
LINE
  8
_1-3_
  6
DASHED1
 62
    7
 10
178.39289072397594
 20
212.61920001055745
 11
185.5928946830131
 21
212.61920001055745
  0
LINE
  8
_1-3_
  6
DASHED1
 62
    7
 10
178.39289072397594
 20
213.41919770111909
 11
185.5928946830131
 21
213.41919770111909
  0
LINE
  8
_1-3_
  6
DASHED1
 62
    7
 10
181.48455233187289
 20
213.52752685546875
 11
181.99289270349453
 21
212.11919836095862
  0
LINE
  8
_1-3_
  6
DASHED1
 62
    7
 10
181.99289270349453
 20
212.11919836095862
 11
182.49289435309333
 21
213.51918813344597
  0
LINE
  8
_1-3_
  6
DASHED1
 62
    7
 10
182.49289435309333
 20
219.97019174936656
 11
182.49289435309333
 21
213.51918813344597
  0
LINE
  8
_1-3_
  6
DASHED1
 62
    7
 10
181.4928910538957
 20
219.97019174936656
 11
181.4928910538957
 21
213.52752685546875
  0
LINE
  8
_1-3_
  6
DASHED1
 62
    7
 10
181.4928910538957
 20
213.52752685546875
 11
182.50123307511615
 21
213.52752685546875
  0
LINE
  8
_1-3_
  6
CONTINUOUS
 62
    7
 10
181.86605505041175
 20
220.91848012563347
 11
182.13254773938979
 21
220.91848012563347
  0
LINE
  8
_1-3_
  6
CONTINUOUS
 62
    7
 10
180.99288940429687
 20
220.3854700036951
 11
182.99289600269216
 21
220.3854700036951
  0
LINE
  8
_1-3_
  6
CONTINUOUS
 62
    7
 10
180.99288940429687
 20
219.93733174092063
 11
180.99288940429687
 21
220.3854700036951
  0
LINE
  8
_1-3_
  6
CONTINUOUS
 62
    7
 10
182.99289600269216
 20
219.93733174092063
 11
182.99289600269216
 21
220.3854700036951
  0
LINE
  8
_1-3_
  6
CONTINUOUS
 62
    7
 10
178.39289072397594
 20
214.60339520428633
 11
179.01152739653716
 21
214.60339520428633
  0
LINE
  8
_1-3_
  6
CONTINUOUS
 62
    7
 10
182.07232088656039
 20
194.18901598131336
 11
208.13796584670609
 21
239.33599523595862
  0
LINE
  8
_1-3_
  6
CONTINUOUS
 62
    7
 10
207.49825967324747
 20
185.00484157252956
 11
213.20390031144427
 21
221.44671465899495
  0
LINE
  8
_1-3_
  6
CONTINUOUS
 62
    7
 10
202.78519913956927
 20
203.40101499815245
 11
213.20390031144427
 21
221.44671465899495
  0
LINE
  8
_1-3_
  6
CONTINUOUS
 62
    7
 10
213.20390031144427
 20
221.44671465899495
 11
217.53127639358109
 21
221.44671465899495
  0
LINE
  8
_1-3_
  6
CONTINUOUS
 62
    7
 10
187.88582054344386
 20
217.54020897117823
 11
207.01879552892737
 21
250.67947800095018
  0
LINE
  8
_1-3_
  6
CONTINUOUS
 62
    7
 10
207.01879552892737
 20
250.67947800095018
 11
211.37361268739443
 21
250.67947800095018
  0
LINE
  8
_1-4_
  6
CONTINUOUS
 62
    7
 10
179.88090721336573
 20
193.24305353937925
 11
167.37084466057857
 21
227.61415223817568
  0
LINE
  8
_1-4_
  6
CONTINUOUS
 62
    7
 10
167.37084466057857
 20
227.61415223817568
 11
179.82458990973396
 21
185.13231019716005
  0
LINE
  8
_1-3_
  6
CONTINUOUS
 62
    7
 10
133.98188410578547
 20
210.05619358372044
 11
130.54054054054055
 21
210.05619358372044
  0
LINE
  8
_1-3_
  6
CONTINUOUS
 62
    7
 10
148.96690162452492
 20
168.22847108583193
 11
133.98188410578547
 21
210.05619358372044
  0
LINE
  8
_1-3_
  6
CONTINUOUS
 62
    7
 10
148.96690162452492
 20
168.22847108583193
 11
157.79963725322003
 21
170.76180947793497
  0
LINE
  8
_1-3_
  6
CONTINUOUS
 62
    7
 10
181.78263071421031
 20
220.87770204286318
 11
173.79079457875847
 21
242.83511599978885
  0
LINE
  8
_1-3_
  6
CONTINUOUS
 62
    7
 10
179.90764308620143
 20
214.37773008604307
 11
172.22257047086148
 21
235.49228977512669
  0
LINE
  8
_1-3_
  6
CONTINUOUS
 62
    7
 10
173.79079457875847
 20
242.83511599978885
 11
171.42668028135557
 21
242.83511599978885
  0
LINE
  8
_1-3_
  6
CONTINUOUS
 62
    7
 10
172.22257047086148
 20
235.49228977512669
 11
169.15314133102831
 21
235.49228977512669
  0
CIRCLE
  8
_1-3_
  6
CONTINUOUS
 62
    7
 10
186.1295916583087
 20
174.86042744404563
 40
0.3036581503378378
  0
ARC
  8
_1-b_
  6
CONTINUOUS
 62
    3
 10
76.334047059755051
 20
131.25480033255914
 40
1.5999999239638045
 50
110.20680236816406
 51
200.20738220214844
  0
ARC
  8
_1-b_
  6
CONTINUOUS
 62
    3
 10
119.19436068148227
 20
150.54194269953547
 40
1.5999999239638045
 50
110.20680236816406
 51
200.20738220214844
  0
ARC
  8
_1-c_
  6
CONTINUOUS
 62
    7
 10
73.847054146431589
 20
138.01163956925677
 40
1.5999999239638045
 50
110.20722961425781
 51
200.20695495605469
  0
ARC
  8
_1-c_
  6
CONTINUOUS
 62
    7
 10
116.70736776815879
 20
157.29875719225086
 40
1.5999999239638045
 50
110.20748901367187
 51
200.20695495605469
  0
ARC
  8
_1-b_
  6
CONTINUOUS
 62
    3
 10
287.65176309121625
 20
131.25480033255914
 40
1.5999999239638045
 50
339.79261779785156
 51
69.793197631835938
  0
ARC
  8
_1-b_
  6
CONTINUOUS
 62
    3
 10
244.79144946948904
 20
150.54194269953547
 40
1.5999999239638045
 50
339.79261779785156
 51
69.793197631835938
  0
ARC
  8
_1-c_
  6
CONTINUOUS
 62
    7
 10
290.13875600453969
 20
138.01163956925677
 40
1.5999999239638045
 50
339.79304504394526
 51
69.792770385742131
  0
ARC
  8
_1-c_
  6
CONTINUOUS
 62
    7
 10
247.2784423828125
 20
157.29875719225086
 40
1.5999999239638045
 50
339.79304504394526
 51
69.792510986328125
  0
CIRCLE
  8
_1-3_
  6
CONTINUOUS
 62
    7
 10
178.08252695444469
 20
193.38385917044977
 40
0.3036581503378378
  0
CIRCLE
  8
_1-3_
  6
CONTINUOUS
 62
    7
 10
179.44901337494721
 20
195.05400374129013
 40
0.3036581503378378
  0
CIRCLE
  8
_1-3_
  6
CONTINUOUS
 62
    7
 10
179.44901337494721
 20
194.2948459934544
 40
0.3036581503378378
  0
CIRCLE
  8
_1-3_
  6
CONTINUOUS
 62
    7
 10
180.66367072028083
 20
193.99118784311656
 40
0.3036581503378378
  0
CIRCLE
  8
_1-3_
  6
CONTINUOUS
 62
    7
 10
183.09296066696581
 20
194.9021746661212
 40
0.3036581503378378
  0
CIRCLE
  8
_1-3_
  6
CONTINUOUS
 62
    7
 10
184.76310523780617
 20
194.44667506862334
 40
0.3036581503378378
  0
CIRCLE
  8
_1-3_
  6
CONTINUOUS
 62
    7
 10
187.34424900364232
 20
193.23203009528083
 40
0.3036581503378378
  0
CIRCLE
  8
_1-3_
  6
CONTINUOUS
 62
    7
 10
189.62170987515836
 20
192.77653049778294
 40
0.3036581503378378
  0
CIRCLE
  8
_1-3_
  6
CONTINUOUS
 62
    7
 10
184.45944708746833
 20
187.31060955975508
 40
0.3036581503378378
  0
CIRCLE
  8
_1-3_
  6
CONTINUOUS
 62
    7
 10
186.28142073347763
 20
187.00693903742612
 40
0.3036581503378378
  0
CIRCLE
  8
_1-3_
  6
CONTINUOUS
 62
    7
 10
186.73692033097552
 20
187.00693903742612
 40
0.3036581503378378
  0
CIRCLE
  8
_1-3_
  6
CONTINUOUS
 62
    7
 10
189.16622264965162
 20
186.70328088708828
 40
0.3036581503378378
  0
CIRCLE
  8
_1-3_
  6
CONTINUOUS
 62
    7
 10
179.44901337494721
 20
187.46243863492398
 40
0.3036581503378378
  0
CIRCLE
  8
_1-3_
  6
CONTINUOUS
 62
    7
 10
178.23435602961362
 20
187.00693903742612
 40
0.3036581503378378
  0
CIRCLE
  8
_1-3_
  6
CONTINUOUS
 62
    7
 10
175.80506608292865
 20
186.70328088708828
 40
0.3036581503378378
  0
CIRCLE
  8
_1-3_
  6
CONTINUOUS
 62
    7
 10
176.56421145877323
 20
178.50438710805534
 40
0.3036581503378378
  0
CIRCLE
  8
_1-3_
  6
CONTINUOUS
 62
    7
 10
178.08252695444469
 20
177.44157120988177
 40
0.3036581503378378
  0
CIRCLE
  8
_1-3_
  6
CONTINUOUS
 62
    7
 10
178.68985562711148
 20
178.50438710805534
 40
0.3036581503378378
  0
CIRCLE
  8
_1-3_
  6
CONTINUOUS
 62
    7
 10
174.59040873759503
 20
178.50438710805534
 40
0.3036581503378378
  0
CIRCLE
  8
_1-3_
  6
CONTINUOUS
 62
    7
 10
173.98309243691935
 20
178.95988670555323
 40
0.3036581503378378
  0
CIRCLE
  8
_1-3_
  6
CONTINUOUS
 62
    7
 10
166.54334403373102
 20
176.53057201488599
 40
0.3036581503378378
  0
CIRCLE
  8
_1-3_
  6
CONTINUOUS
 62
    7
 10
166.39151495856208
 20
175.01226889120568
 40
0.3036581503378378
  0
CIRCLE
  8
_1-3_
  6
CONTINUOUS
 62
    7
 10
168.06165952940245
 20
175.31592704154352
 40
0.3036581503378378
  0
CIRCLE
  8
_1-3_
  6
CONTINUOUS
 62
    7
 10
169.12448779956716
 20
174.70859836887669
 40
0.3036581503378378
  0
CIRCLE
  8
_1-3_
  6
CONTINUOUS
 62
    7
 10
166.69517310889992
 20
172.73479564769849
 40
0.3036581503378378
  0
CIRCLE
  8
_1-3_
  6
CONTINUOUS
 62
    7
 10
166.84701455605997
 20
172.2792960502006
 40
0.3036581503378378
  0
CIRCLE
  8
_1-3_
  6
CONTINUOUS
 62
    7
 10
166.39151495856208
 20
171.52013830236487
 40
0.3036581503378378
  0
CIRCLE
  8
_1-3_
  6
CONTINUOUS
 62
    7
 10
167.90983045423354
 20
171.82380882469386
 40
0.3036581503378378
  0
CIRCLE
  8
_1-3_
  6
CONTINUOUS
 62
    7
 10
169.73180410024284
 20
172.73479564769849
 40
0.3036581503378378
  0
CIRCLE
  8
_1-3_
  6
CONTINUOUS
 62
    7
 10
174.43857966242612
 20
177.59340028505068
 40
0.3036581503378378
  0
CIRCLE
  8
_1-3_
  6
CONTINUOUS
 62
    7
 10
180.36000019795188
 20
172.2792960502006
 40
0.3036581503378378
  0
CIRCLE
  8
_1-3_
  6
CONTINUOUS
 62
    7
 10
183.24480211412586
 20
173.19028287320523
 40
0.3036581503378378
  0
CIRCLE
  8
_1-3_
  6
CONTINUOUS
 62
    7
 10
187.64790715398016
 20
170.00182280669341
 40
0.3036581503378378
  0
CIRCLE
  8
_1-3_
  6
CONTINUOUS
 62
    7
 10
188.10340675147805
 20
171.36830922719597
 40
0.3036581503378378
  0
CIRCLE
  8
_1-3_
  6
CONTINUOUS
 62
    7
 10
184.45944708746833
 20
177.74522936021961
 40
0.3036581503378378
  0
CIRCLE
  8
_1-3_
  6
CONTINUOUS
 62
    7
 10
183.85213078679266
 20
178.35255803288641
 40
0.3036581503378378
  0
CIRCLE
  8
_1-3_
  6
CONTINUOUS
 62
    7
 10
184.1557889371305
 20
180.1745316788957
 40
0.3036581503378378
  0
CIRCLE
  8
_1-3_
  6
CONTINUOUS
 62
    7
 10
186.58509125580659
 20
179.26354485589107
 40
0.3036581503378378
  0
CIRCLE
  8
_1-3_
  6
CONTINUOUS
 62
    7
 10
188.25523582664698
 20
178.95988670555323
 40
0.3036581503378378
  0
CIRCLE
  8
_1-3_
  6
CONTINUOUS
 62
    7
 10
190.38087999498524
 20
180.02270260372677
 40
0.3036581503378378
  0
CIRCLE
  8
_1-3_
  6
CONTINUOUS
 62
    7
 10
191.59552496832771
 20
180.1745316788957
 40
0.3036581503378378
  0
CIRCLE
  8
_1-3_
  6
CONTINUOUS
 62
    7
 10
192.20285364099453
 20
180.1745316788957
 40
0.3036581503378378
  0
CIRCLE
  8
_1-3_
  6
CONTINUOUS
 62
    7
 10
195.99863000818203
 20
177.13790068755279
 40
0.3036581503378378
  0
CIRCLE
  8
_1-3_
  6
CONTINUOUS
 62
    7
 10
195.08764318517737
 20
175.77142663904141
 40
0.3036581503378378
  0
CIRCLE
  8
_1-3_
  6
CONTINUOUS
 62
    7
 10
197.51694550385346
 20
174.55676929370779
 40
0.3036581503378378
  0
CIRCLE
  8
_1-3_
  6
CONTINUOUS
 62
    7
 10
196.90962920317779
 20
176.22691386454815
 40
0.3036581503378378
  0
CIRCLE
  8
_1-3_
  6
CONTINUOUS
 62
    7
 10
199.79441874736065
 20
176.83424253721495
 40
0.3036581503378378
  0
CIRCLE
  8
_1-3_
  6
CONTINUOUS
 62
    7
 10
198.12427417652029
 20
173.03845379803633
 40
0.3036581503378378
  0
CIRCLE
  8
_1-3_
  6
CONTINUOUS
 62
    7
 10
194.32848543734164
 20
174.10128206820102
 40
0.3036581503378378
  0
CIRCLE
  8
_1-3_
  6
CONTINUOUS
 62
    7
 10
194.48031451251057
 20
173.19028287320523
 40
0.3036581503378378
  0
CIRCLE
  8
_1-3_
  6
CONTINUOUS
 62
    7
 10
195.2394722603463
 20
172.8866247228674
 40
0.3036581503378378
  0
CIRCLE
  8
_1-3_
  6
CONTINUOUS
 62
    7
 10
197.6687745790224
 20
171.6719673775338
 40
0.3036581503378378
  0
CIRCLE
  8
_1-3_
  6
CONTINUOUS
 62
    7
 10
198.12427417652029
 20
171.6719673775338
 40
0.3036581503378378
  0
CIRCLE
  8
_1-3_
  6
CONTINUOUS
 62
    7
 10
198.88343192435602
 20
170.91282200168919
 40
0.3036581503378378
  0
CIRCLE
  8
_1-3_
  6
CONTINUOUS
 62
    7
 10
195.2394722603463
 20
172.43113749736065
 40
0.3036581503378378
  0
CIRCLE
  8
_1-3_
  6
CONTINUOUS
 62
    7
 10
190.53270907015414
 20
176.37874293971706
 40
0.3036581503378378
  0
CIRCLE
  8
_1-3_
  6
CONTINUOUS
 62
    7
 10
185.82593350797086
 20
172.43113749736065
 40
0.3036581503378378
  0
CIRCLE
  8
_1-3_
  6
CONTINUOUS
 62
    7
 10
184.76310523780617
 20
171.52013830236487
 40
0.3036581503378378
  0
CIRCLE
  8
_1-3_
  6
CONTINUOUS
 62
    7
 10
183.24480211412586
 20
171.06465107685813
 40
0.3036581503378378
  0
CIRCLE
  8
_1-3_
  6
CONTINUOUS
 62
    7
 10
178.38619747677365
 20
171.52013830236487
 40
0.3036581503378378
  0
CIRCLE
  8
_1-3_
  6
CONTINUOUS
 62
    7
 10
176.26055330843539
 20
170.00182280669341
 40
0.3036581503378378
  0
CIRCLE
  8
_1-3_
  6
CONTINUOUS
 62
    7
 10
175.95689515809755
 20
173.79761154587206
 40
0.3036581503378378
  0
CIRCLE
  8
_1-3_
  6
CONTINUOUS
 62
    7
 10
164.56954131255279
 20
176.37874293971706
 40
0.3036581503378378
  0
CIRCLE
  8
_1-3_
  6
CONTINUOUS
 62
    7
 10
164.72137038772172
 20
174.25311114336995
 40
0.3036581503378378
  0
CIRCLE
  8
_1-3_
  6
CONTINUOUS
 62
    7
 10
164.72137038772172
 20
172.58296657252956
 40
0.3036581503378378
  0
CIRCLE
  8
_1-3_
  6
CONTINUOUS
 62
    7
 10
164.1140417150549
 20
171.21648015202703
 40
0.3036581503378378
  0
CIRCLE
  8
_1-3_
  6
CONTINUOUS
 62
    7
 10
164.56954131255279
 20
171.21648015202703
 40
0.3036581503378378
  0
CIRCLE
  8
_1-3_
  6
CONTINUOUS
 62
    7
 10
167.15067270639781
 20
171.36830922719597
 40
0.3036581503378378
  0
CIRCLE
  8
_1-3_
  6
CONTINUOUS
 62
    7
 10
168.66898820206927
 20
175.16409796637458
 40
0.3036581503378378
  0
CIRCLE
  8
_1-3_
  6
CONTINUOUS
 62
    7
 10
168.36531767974029
 20
178.04888751055745
 40
0.3036581503378378
  0
CIRCLE
  8
_1-3_
  6
CONTINUOUS
 62
    7
 10
170.33913277290964
 20
179.26354485589107
 40
0.3036581503378378
  0
CIRCLE
  8
_1-3_
  6
CONTINUOUS
 62
    7
 10
177.77886880410685
 20
180.32636075406461
 40
0.3036581503378378
  0
CIRCLE
  8
_1-3_
  6
CONTINUOUS
 62
    7
 10
180.66367072028083
 20
181.08551850190034
 40
0.3036581503378378
  0
CIRCLE
  8
_1-3_
  6
CONTINUOUS
 62
    7
 10
183.39663118929477
 20
183.21116267023862
 40
0.3036581503378378
  0
CIRCLE
  8
_1-3_
  6
CONTINUOUS
 62
    7
 10
183.5484602644637
 20
185.33679446658573
 40
0.3036581503378378
  0
CIRCLE
  8
_1-3_
  6
CONTINUOUS
 62
    7
 10
180.66367072028083
 20
184.42580764358109
 40
0.3036581503378378
  0
CIRCLE
  8
_1-3_
  6
CONTINUOUS
 62
    7
 10
184.45944708746833
 20
180.63003127639359
 40
0.3036581503378378
  0
CIRCLE
  8
_1-3_
  6
CONTINUOUS
 62
    7
 10
184.00395986196159
 20
177.13790068755279
 40
0.3036581503378378
  0
CIRCLE
  8
_1-3_
  6
CONTINUOUS
 62
    7
 10
187.49607807881125
 20
178.04888751055745
 40
0.3036581503378378
  0
CIRCLE
  8
_1-3_
  6
CONTINUOUS
 62
    7
 10
187.79973622914909
 20
177.13790068755279
 40
0.3036581503378378
  0
CIRCLE
  8
_1-3_
  6
CONTINUOUS
 62
    7
 10
187.79973622914909
 20
177.13790068755279
 40
0.3036581503378378
  0
CIRCLE
  8
_1-3_
  6
CONTINUOUS
 62
    7
 10
188.10340675147805
 20
174.55676929370779
 40
0.3036581503378378
  0
CIRCLE
  8
_1-3_
  6
CONTINUOUS
 62
    7
 10
178.99352614944047
 20
175.16409796637458
 40
0.3036581503378378
  0
CIRCLE
  8
_1-3_
  6
CONTINUOUS
 62
    7
 10
185.06677576013516
 20
170.91282200168919
 40
0.3036581503378378
  0
CIRCLE
  8
_1-3_
  6
CONTINUOUS
 62
    7
 10
184.00395986196159
 20
175.92325571421031
 40
0.3036581503378378
  0
CIRCLE
  8
_1-3_
  6
CONTINUOUS
 62
    7
 10
178.84168470228042
 20
173.79761154587206
 40
0.3036581503378378
  0
CIRCLE
  8
_1-3_
  6
CONTINUOUS
 62
    7
 10
174.59040873759503
 20
175.61959756387247
 40
0.3036581503378378
  0
CIRCLE
  8
_1-3_
  6
CONTINUOUS
 62
    7
 10
177.77886880410685
 20
177.28974213471284
 40
0.3036581503378378
  0
CIRCLE
  8
_1-3_
  6
CONTINUOUS
 62
    7
 10
174.13492151208828
 20
180.47818982923354
 40
0.3036581503378378
  0
CIRCLE
  8
_1-3_
  6
CONTINUOUS
 62
    7
 10
187.49607807881125
 20
173.64578247070312
 40
0.3036581503378378
  0
CIRCLE
  8
_1-3_
  6
CONTINUOUS
 62
    7
 10
188.86256449931378
 20
174.10128206820102
 40
0.3036581503378378
  0
CIRCLE
  8
_1-3_
  6
CONTINUOUS
 62
    7
 10
189.46988079998945
 20
178.35255803288641
 40
0.3036581503378378
  0
CIRCLE
  8
_1-3_
  6
CONTINUOUS
 62
    7
 10
178.84168470228042
 20
179.41537393105997
 40
0.3036581503378378
  0
CIRCLE
  8
_1-3_
  6
CONTINUOUS
 62
    7
 10
176.56421145877323
 20
179.41537393105997
 40
0.3036581503378378
  0
CIRCLE
  8
_1-3_
  6
CONTINUOUS
 62
    7
 10
178.53802655194258
 20
173.19028287320523
 40
0.3036581503378378
  0
CIRCLE
  8
_1-3_
  6
CONTINUOUS
 62
    7
 10
178.38619747677365
 20
170.60915147936024
 40
0.3036581503378378
  0
CIRCLE
  8
_1-3_
  6
CONTINUOUS
 62
    7
 10
177.93069787927578
 20
169.54633558118667
 40
0.3036581503378378
  0
CIRCLE
  8
_1-3_
  6
CONTINUOUS
 62
    7
 10
172.00927734375
 20
176.22691386454815
 40
0.3036581503378378
  0
CIRCLE
  8
_1-3_
  6
CONTINUOUS
 62
    7
 10
172.31294786607899
 20
177.28974213471284
 40
0.3036581503378378
  0
CIRCLE
  8
_1-3_
  6
CONTINUOUS
 62
    7
 10
186.43324980864654
 20
177.59340028505068
 40
0.3036581503378378
  0
CIRCLE
  8
_1-3_
  6
CONTINUOUS
 62
    7
 10
186.73692033097552
 20
180.63003127639359
 40
0.3036581503378378
  0
CIRCLE
  8
_1-3_
  6
CONTINUOUS
 62
    7
 10
175.65323700775971
 20
192.92835957295188
 40
0.3036581503378378
  0
ARC
  8
_1-2_
  6
CONTINUOUS
 62
    3
 10
184.07071912610854
 20
164.51670053842906
 40
41.612016832506335
 50
95
 51
124.5146484375
  0
ARC
  8
_1-2_
  6
CONTINUOUS
 62
    3
 10
185.3742197397593
 20
149.61760649809966
 40
60.168024011560391
 50
95
 51
114.92028808593749
  0
ARC
  8
_1-2_
  6
CONTINUOUS
 62
    3
 10
183.13811843459672
 20
158.40169545766472
 40
41.612016832506335
 50
95
 51
124.5146484375
  0
ARC
  8
_1-2_
  6
CONTINUOUS
 62
    3
 10
184.44161904824747
 20
143.50260141733531
 40
60.168024011560391
 50
95
 51
114.92028808593749
  0
ARC
  8
_1-2_
  6
CONTINUOUS
 62
    3
 10
181.99290507548565
 20
204.70591364680112
 40
15.228569443161424
 50
9.939453125
 51
170.06054687499997
  0
ARC
  8
_1-2_
  6
CONTINUOUS
 62
    3
 10
181.99290507548565
 20
204.63447777000636
 40
12.300003928107184
 50
15.562728881835937
 51
164.43727111816406
  0
ARC
  8
_1-2_
  6
CONTINUOUS
 62
    3
 10
182.13409423828125
 20
152.26810764622044
 40
41.612016832506335
 50
95
 51
124.5146484375
  0
ARC
  8
_1-2_
  6
CONTINUOUS
 62
    3
 10
183.43759485193203
 20
137.36901360589104
 40
60.168024011560391
 50
95
 51
114.92028808593749
  0
ARC
  8
_1-2_
  6
CONTINUOUS
 62
    3
 10
178.00792384792018
 20
144.76453214078336
 40
41.612016832506335
 50
95
 51
124.5146484375
  0
ARC
  8
_1-2_
  6
CONTINUOUS
 62
    3
 10
179.31142446157097
 20
129.86543810045399
 40
60.168024011560391
 50
95
 51
114.92028808593749
  0
ARC
  8
_1-2_
  6
CONTINUOUS
 62
    3
 10
173.42518986882391
 20
137.17437744140625
 40
41.612016832506335
 50
95
 51
124.5146484375
  0
ARC
  8
_1-2_
  6
CONTINUOUS
 62
    3
 10
174.72869048247466
 20
122.27528340107686
 40
60.168024011560391
 50
95
 51
114.92028808593749
  0
ARC
  8
_1-2_
  6
CONTINUOUS
 62
    3
 10
179.91509102486276
 20
164.51670053842906
 40
41.612016832506335
 50
55.485351562500036
 51
85.000000000000028
  0
ARC
  8
_1-2_
  6
CONTINUOUS
 62
    3
 10
178.61159041121201
 20
149.61760649809966
 40
60.168024011560391
 50
65.079711914062472
 51
84.999999999999972
  0
ARC
  8
_1-2_
  6
CONTINUOUS
 62
    3
 10
180.84769171637458
 20
158.40169545766472
 40
41.612016832506335
 50
55.485351562500036
 51
85.000000000000028
  0
ARC
  8
_1-2_
  6
CONTINUOUS
 62
    3
 10
179.54419110272383
 20
143.50260141733531
 40
60.168024011560391
 50
65.079711914062472
 51
84.999999999999972
  0
ARC
  8
_1-2_
  6
CONTINUOUS
 62
    3
 10
181.85171591269005
 20
152.26810764622044
 40
41.612016832506335
 50
55.485351562500036
 51
85.000000000000028
  0
ARC
  8
_1-2_
  6
CONTINUOUS
 62
    3
 10
180.54821529903927
 20
137.36901360589104
 40
60.168024011560391
 50
65.079711914062472
 51
84.999999999999972
  0
ARC
  8
_1-2_
  6
CONTINUOUS
 62
    3
 10
185.97788630305112
 20
144.76453214078336
 40
41.612016832506335
 50
55.485351562500036
 51
85.000000000000028
  0
ARC
  8
_1-2_
  6
CONTINUOUS
 62
    3
 10
184.67438568940034
 20
129.86543810045399
 40
60.168024011560391
 50
65.079711914062472
 51
84.999999999999972
  0
ARC
  8
_1-2_
  6
CONTINUOUS
 62
    3
 10
190.5606202821474
 20
137.17437744140625
 40
41.612016832506335
 50
55.485351562500036
 51
85.000000000000028
  0
ARC
  8
_1-2_
  6
CONTINUOUS
 62
    3
 10
189.25711966849664
 20
122.27528340107686
 40
60.168024011560391
 50
65.079711914062472
 51
84.999999999999972
  0
CIRCLE
  8
_1-3_
  6
CONTINUOUS
 62
    7
 10
187.92202098949537
 20
181.74258257891682
 40
0.3036581503378378
  0
CIRCLE
  8
_1-3_
  6
CONTINUOUS
 62
    7
 10
187.31470468881969
 20
182.34991125158362
 40
0.3036581503378378
  0
CIRCLE
  8
_1-3_
  6
CONTINUOUS
 62
    7
 10
187.61836283915753
 20
184.17188489759292
 40
0.3036581503378378
  0
CIRCLE
  8
_1-3_
  6
CONTINUOUS
 62
    7
 10
190.04766515783362
 20
183.26089807458828
 40
0.3036581503378378
  0
CIRCLE
  8
_1-3_
  6
CONTINUOUS
 62
    7
 10
191.71780972867398
 20
182.95723992425044
 40
0.3036581503378378
  0
CIRCLE
  8
_1-3_
  6
CONTINUOUS
 62
    7
 10
187.92202098949537
 20
184.62738449509081
 40
0.3036581503378378
  0
CIRCLE
  8
_1-3_
  6
CONTINUOUS
 62
    7
 10
187.46653376398862
 20
181.13525390625
 40
0.3036581503378378
  0
CIRCLE
  8
_1-3_
  6
CONTINUOUS
 62
    7
 10
190.95865198083828
 20
182.04624072925466
 40
0.3036581503378378
  0
CIRCLE
  8
_1-3_
  6
CONTINUOUS
 62
    7
 10
191.26231013117612
 20
181.13525390625
 40
0.3036581503378378
  0
CIRCLE
  8
_1-3_
  6
CONTINUOUS
 62
    7
 10
191.26231013117612
 20
181.13525390625
 40
0.3036581503378378
  0
CIRCLE
  8
_1-3_
  6
CONTINUOUS
 62
    7
 10
192.93245470201649
 20
182.34991125158362
 40
0.3036581503378378
  0
CIRCLE
  8
_1-3_
  6
CONTINUOUS
 62
    7
 10
189.89582371067357
 20
181.59075350374789
 40
0.3036581503378378
  0
CIRCLE
  8
_1-3_
  6
CONTINUOUS
 62
    7
 10
190.19949423300255
 20
184.62738449509081
 40
0.3036581503378378
  0
CIRCLE
  8
_1-3_
  6
CONTINUOUS
 62
    7
 10
173.14183415593328
 20
181.74258257891682
 40
0.3036581503378378
  0
CIRCLE
  8
_1-3_
  6
CONTINUOUS
 62
    7
 10
172.5345178552576
 20
182.34991125158362
 40
0.3036581503378378
  0
CIRCLE
  8
_1-3_
  6
CONTINUOUS
 62
    7
 10
172.83817600559544
 20
184.17188489759292
 40
0.3036581503378378
  0
CIRCLE
  8
_1-3_
  6
CONTINUOUS
 62
    7
 10
175.26747832427154
 20
183.26089807458828
 40
0.3036581503378378
  0
CIRCLE
  8
_1-3_
  6
CONTINUOUS
 62
    7
 10
176.93762289511193
 20
182.95723992425044
 40
0.3036581503378378
  0
CIRCLE
  8
_1-3_
  6
CONTINUOUS
 62
    7
 10
173.14183415593328
 20
184.62738449509081
 40
0.3036581503378378
  0
CIRCLE
  8
_1-3_
  6
CONTINUOUS
 62
    7
 10
172.68634693042654
 20
181.13525390625
 40
0.3036581503378378
  0
CIRCLE
  8
_1-3_
  6
CONTINUOUS
 62
    7
 10
176.1784651472762
 20
182.04624072925466
 40
0.3036581503378378
  0
CIRCLE
  8
_1-3_
  6
CONTINUOUS
 62
    7
 10
176.48212329761404
 20
181.13525390625
 40
0.3036581503378378
  0
CIRCLE
  8
_1-3_
  6
CONTINUOUS
 62
    7
 10
176.48212329761404
 20
181.13525390625
 40
0.3036581503378378
  0
CIRCLE
  8
_1-3_
  6
CONTINUOUS
 62
    7
 10
178.1522678684544
 20
182.34991125158362
 40
0.3036581503378378
  0
CIRCLE
  8
_1-3_
  6
CONTINUOUS
 62
    7
 10
175.11563687711148
 20
181.59075350374789
 40
0.3036581503378378
  0
CIRCLE
  8
_1-3_
  6
CONTINUOUS
 62
    7
 10
175.41930739944047
 20
184.62738449509081
 40
0.3036581503378378
  0
CIRCLE
  8
_1-3_
  6
CONTINUOUS
 62
    7
 10
177.2258284285262
 20
188.93819448110222
 40
0.3036581503378378
  0
CIRCLE
  8
_1-3_
  6
CONTINUOUS
 62
    7
 10
176.61851212785052
 20
189.54552315376901
 40
0.3036581503378378
  0
CIRCLE
  8
_1-3_
  6
CONTINUOUS
 62
    7
 10
176.92217027818836
 20
191.36749679977831
 40
0.3036581503378378
  0
CIRCLE
  8
_1-3_
  6
CONTINUOUS
 62
    7
 10
179.35147259686445
 20
190.45650997677365
 40
0.3036581503378378
  0
CIRCLE
  8
_1-3_
  6
CONTINUOUS
 62
    7
 10
181.02161716770482
 20
190.15285182643584
 40
0.3036581503378378
  0
CIRCLE
  8
_1-3_
  6
CONTINUOUS
 62
    7
 10
177.2258284285262
 20
191.8229963972762
 40
0.3036581503378378
  0
CIRCLE
  8
_1-3_
  6
CONTINUOUS
 62
    7
 10
176.77034120301943
 20
188.33086580843539
 40
0.3036581503378378
  0
CIRCLE
  8
_1-3_
  6
CONTINUOUS
 62
    7
 10
180.26245941986909
 20
189.24185263144005
 40
0.3036581503378378
  0
CIRCLE
  8
_1-3_
  6
CONTINUOUS
 62
    7
 10
180.56611757020693
 20
188.33086580843539
 40
0.3036581503378378
  0
CIRCLE
  8
_1-3_
  6
CONTINUOUS
 62
    7
 10
180.56611757020693
 20
188.33086580843539
 40
0.3036581503378378
  0
CIRCLE
  8
_1-3_
  6
CONTINUOUS
 62
    7
 10
179.1996311497044
 20
188.78636540593328
 40
0.3036581503378378
  0
CIRCLE
  8
_1-3_
  6
CONTINUOUS
 62
    7
 10
179.50330167203336
 20
191.8229963972762
 40
0.3036581503378378
  0
CIRCLE
  8
_1-3_
  6
CONTINUOUS
 62
    7
 10
186.17174303209461
 20
188.93819448110222
 40
0.3036581503378378
  0
CIRCLE
  8
_1-3_
  6
CONTINUOUS
 62
    7
 10
185.56442673141893
 20
189.54552315376901
 40
0.3036581503378378
  0
CIRCLE
  8
_1-3_
  6
CONTINUOUS
 62
    7
 10
185.86808488175677
 20
191.36749679977831
 40
0.3036581503378378
  0
CIRCLE
  8
_1-3_
  6
CONTINUOUS
 62
    7
 10
188.29738720043287
 20
190.45650997677365
 40
0.3036581503378378
  0
CIRCLE
  8
_1-3_
  6
CONTINUOUS
 62
    7
 10
189.96753177127323
 20
190.15285182643584
 40
0.3036581503378378
  0
CIRCLE
  8
_1-3_
  6
CONTINUOUS
 62
    7
 10
186.17174303209461
 20
191.8229963972762
 40
0.3036581503378378
  0
CIRCLE
  8
_1-3_
  6
CONTINUOUS
 62
    7
 10
185.71625580658784
 20
188.33086580843539
 40
0.3036581503378378
  0
CIRCLE
  8
_1-3_
  6
CONTINUOUS
 62
    7
 10
189.2083740234375
 20
189.24185263144005
 40
0.3036581503378378
  0
CIRCLE
  8
_1-3_
  6
CONTINUOUS
 62
    7
 10
189.51203217377534
 20
188.33086580843539
 40
0.3036581503378378
  0
CIRCLE
  8
_1-3_
  6
CONTINUOUS
 62
    7
 10
189.51203217377534
 20
188.33086580843539
 40
0.3036581503378378
  0
CIRCLE
  8
_1-3_
  6
CONTINUOUS
 62
    7
 10
188.14554575327281
 20
188.78636540593328
 40
0.3036581503378378
  0
CIRCLE
  8
_1-3_
  6
CONTINUOUS
 62
    7
 10
188.44921627560177
 20
191.8229963972762
 40
0.3036581503378378
  0
CIRCLE
  8
_1-3_
  6
CONTINUOUS
 62
    7
 10
180.83216486750425
 20
174.37638566300677
 40
0.3036581503378378
  0
CIRCLE
  8
_1-3_
  6
CONTINUOUS
 62
    7
 10
183.56512533651818
 20
175.28737248601141
 40
0.3036581503378378
  0
CIRCLE
  8
_1-3_
  6
CONTINUOUS
 62
    7
 10
185.23526990735854
 20
174.98371433567357
 40
0.3036581503378378
  0
CIRCLE
  8
_1-3_
  6
CONTINUOUS
 62
    7
 10
180.98399394267315
 20
173.16172831767315
 40
0.3036581503378378
  0
CIRCLE
  8
_1-3_
  6
CONTINUOUS
 62
    7
 10
184.47611215952281
 20
174.07271514067779
 40
0.3036581503378378
  0
CIRCLE
  8
_1-3_
  6
CONTINUOUS
 62
    7
 10
184.77977030986065
 20
173.16172831767315
 40
0.3036581503378378
  0
CIRCLE
  8
_1-3_
  6
CONTINUOUS
 62
    7
 10
184.77977030986065
 20
173.16172831767315
 40
0.3036581503378378
  0
CIRCLE
  8
_1-3_
  6
CONTINUOUS
 62
    7
 10
183.41328388935813
 20
173.61722791517104
 40
0.3036581503378378
  0
ARC
  8
_1-3_
  6
CONTINUOUS
 62
    7
 10
181.99289270349453
 20
219.73217938397383
 40
1.1944762113932017
 50
33.155624389648445
 51
146.84437561035156
  0
ARC
  8
_1-3_
  6
CONTINUOUS
 62
    3
 10
181.56080091321792
 20
239.69913791965794
 40
54.594448192699538
 50
259.900390625
 51
280.5740966796875
  0
ARC
  8
_1-3_
  6
CONTINUOUS
 62
    3
 10
184.90658321896115
 20
763.04680901604729
 40
557.40293760557438
 50
269.30574035644531
 51
270.06462097167969
  0
ARC
  8
_1-3_
  6
CONTINUOUS
 62
    3
 10
181.87855076145482
 20
179.85363934491133
 40
29.748740325102936
 50
80.729217529296875
 51
98.772552490234375
  0
ARC
  8
_1-3_
  6
CONTINUOUS
 62
    3
 10
181.94569355732688
 20
246.91408724398227
 40
47.549657048405834
 50
264.34178161621094
 51
275.72544860839844
  0
ARC
  8
_1-3_
  6
CONTINUOUS
 62
    3
 10
181.93394016575169
 20
181.09400568781675
 40
22.672388231432116
 50
77.4361572265625
 51
102.939697265625
  0
ARC
  8
_1-3_
  6
CONTINUOUS
 62
    3
 10
181.82375521273227
 20
173.72840262748102
 40
24.041865580790752
 50
77.219482421875
 51
103.59156799316406
  0
ARC
  8
_1-3_
  6
CONTINUOUS
 62
    3
 10
182.43270461623734
 20
240.10971481735643
 40
46.936074334221921
 50
262.99052429199219
 51
276.42889404296875
  0
ARC
  8
_1-3_
  6
CONTINUOUS
 62
    3
 10
181.75770115207982
 20
144.52921686945734
 40
46.111979097933386
 50
78.367889404296875
 51
102.34315490722656
  0
ARC
  8
_1-3_
  6
CONTINUOUS
 62
    3
 10
181.60066346864443
 20
89.977563394082566
 40
93.135161528716225
 50
82.031021118164063
 51
99.388885498046875
  0
ARC
  8
_1-3_
  6
CONTINUOUS
 62
    3
 10
182.02656926335516
 20
1616.7652686866554
 40
1438.4317264041385
 50
269.43318176269537
 51
270.56430053710943
  0
ARC
  8
_1-3_
  6
CONTINUOUS
 62
    3
 10
139.85480643607477
 20
169.50078190983953
 40
13.54425894247519
 50
338.24945068359375
 51
16.466873168945323
  0
ARC
  8
_1-3_
  6
CONTINUOUS
 62
    3
 10
224.78287155563768
 20
169.65629783836573
 40
14.219211372169289
 50
164.79380798339844
 51
201.3177185058594
  0
CIRCLE
  8
_1-3_
  6
CONTINUOUS
 62
    7
 10
155.11168608794341
 20
173.24841885953336
 40
0.3036581503378378
  0
CIRCLE
  8
_1-3_
  6
CONTINUOUS
 62
    7
 10
154.50435741527662
 20
171.88193243903083
 40
0.3036581503378378
  0
CIRCLE
  8
_1-3_
  6
CONTINUOUS
 62
    7
 10
154.95985701277451
 20
171.88193243903083
 40
0.3036581503378378
  0
CIRCLE
  8
_1-3_
  6
CONTINUOUS
 62
    7
 10
155.95681680215372
 20
170.49494562922297
 40
0.3036581503378378
  0
CIRCLE
  8
_1-3_
  6
CONTINUOUS
 62
    7
 10
155.34948812948693
 20
169.12845920872044
 40
0.3036581503378378
  0
CIRCLE
  8
_1-3_
  6
CONTINUOUS
 62
    7
 10
155.80498772698482
 20
169.12845920872044
 40
0.3036581503378378
  0
CIRCLE
  8
_1-3_
  6
CONTINUOUS
 62
    7
 10
155.08443059148016
 20
168.06861258841852
 40
0.3036581503378378
  0
CIRCLE
  8
_1-3_
  6
CONTINUOUS
 62
    7
 10
154.47710191881336
 20
166.70212616791596
 40
0.3036581503378378
  0
CIRCLE
  8
_1-3_
  6
CONTINUOUS
 62
    7
 10
154.93260151631125
 20
166.70212616791596
 40
0.3036581503378378
  0
CIRCLE
  8
_1-3_
  6
CONTINUOUS
 62
    7
 10
158.02874178499789
 20
168.77742870433912
 40
0.3036581503378378
  0
CIRCLE
  8
_1-3_
  6
CONTINUOUS
 62
    7
 10
157.42141311233109
 20
167.41094228383659
 40
0.3036581503378378
  0
CIRCLE
  8
_1-3_
  6
CONTINUOUS
 62
    7
 10
157.87691270982899
 20
167.41094228383659
 40
0.3036581503378378
  0
CIRCLE
  8
_1-3_
  6
CONTINUOUS
 62
    7
 10
160.42780695734797
 20
170.00422297297297
 40
0.3036581503378378
  0
CIRCLE
  8
_1-3_
  6
CONTINUOUS
 62
    7
 10
159.82047828468117
 20
168.63773655247044
 40
0.3036581503378378
  0
CIRCLE
  8
_1-3_
  6
CONTINUOUS
 62
    7
 10
160.27597788217906
 20
168.63773655247044
 40
0.3036581503378378
  0
CIRCLE
  8
_1-3_
  6
CONTINUOUS
 62
    7
 10
162.47246407173776
 20
170.38589889938768
 40
0.3036581503378378
  0
CIRCLE
  8
_1-3_
  6
CONTINUOUS
 62
    7
 10
161.86513539907097
 20
169.01941247888516
 40
0.3036581503378378
  0
CIRCLE
  8
_1-3_
  6
CONTINUOUS
 62
    7
 10
162.32063499656886
 20
169.01941247888516
 40
0.3036581503378378
  0
CIRCLE
  8
_1-3_
  6
CONTINUOUS
 62
    7
 10
159.11922145534206
 20
173.27567435599664
 40
0.3036581503378378
  0
CIRCLE
  8
_1-3_
  6
CONTINUOUS
 62
    7
 10
158.51189278267526
 20
171.90918793549409
 40
0.3036581503378378
  0
CIRCLE
  8
_1-3_
  6
CONTINUOUS
 62
    7
 10
158.96739238017315
 20
171.90918793549409
 40
0.3036581503378378
  0
CIRCLE
  8
_1-3_
  6
CONTINUOUS
 62
    7
 10
160.12792226430534
 20
175.51116943359375
 40
0.3036581503378378
  0
CIRCLE
  8
_1-3_
  6
CONTINUOUS
 62
    7
 10
159.52059359163852
 20
174.14468301309122
 40
0.3036581503378378
  0
CIRCLE
  8
_1-3_
  6
CONTINUOUS
 62
    7
 10
159.97609318913641
 20
174.14468301309122
 40
0.3036581503378378
  0
CIRCLE
  8
_1-3_
  6
CONTINUOUS
 62
    7
 10
162.63604653848185
 20
174.2843751649599
 40
0.3036581503378378
  0
CIRCLE
  8
_1-3_
  6
CONTINUOUS
 62
    7
 10
162.02871786581505
 20
172.91788874445734
 40
0.3036581503378378
  0
CIRCLE
  8
_1-3_
  6
CONTINUOUS
 62
    7
 10
162.48421746331294
 20
172.91788874445734
 40
0.3036581503378378
  0
CIRCLE
  8
_1-3_
  6
CONTINUOUS
 62
    7
 10
157.26540230415964
 20
173.95723497545399
 40
0.3036581503378378
  0
CIRCLE
  8
_1-3_
  6
CONTINUOUS
 62
    7
 10
156.65807363149284
 20
172.59074855495143
 40
0.3036581503378378
  0
CIRCLE
  8
_1-3_
  6
CONTINUOUS
 62
    7
 10
157.11357322899073
 20
172.59074855495143
 40
0.3036581503378378
  0
CIRCLE
  8
_1-3_
  6
CONTINUOUS
 62
    7
 10
154.70275466506547
 20
170.08601420634503
 40
0.3036581503378378
  0
CIRCLE
  8
_1-3_
  6
CONTINUOUS
 62
    7
 10
154.09542599239865
 20
168.7195277858425
 40
0.3036581503378378
  0
CIRCLE
  8
_1-3_
  6
CONTINUOUS
 62
    7
 10
154.55092558989654
 20
168.7195277858425
 40
0.3036581503378378
  0
CIRCLE
  8
_1-3_
  6
CONTINUOUS
 62
    7
 10
154.0484619140625
 20
167.2234818742082
 40
0.3036581503378378
  0
CIRCLE
  8
_1-3_
  6
CONTINUOUS
 62
    7
 10
153.4411332413957
 20
165.85699545370568
 40
0.3036581503378378
  0
CIRCLE
  8
_1-3_
  6
CONTINUOUS
 62
    7
 10
153.89663283889359
 20
165.85699545370568
 40
0.3036581503378378
  0
CIRCLE
  8
_1-3_
  6
CONTINUOUS
 62
    7
 10
171.16362700591216
 20
184.64578164590372
 40
0.3036581503378378
  0
CIRCLE
  8
_1-3_
  6
CONTINUOUS
 62
    7
 10
170.55629833324537
 20
183.2792952254012
 40
0.3036581503378378
  0
CIRCLE
  8
_1-3_
  6
CONTINUOUS
 62
    7
 10
171.01179793074326
 20
183.2792952254012
 40
0.3036581503378378
  0
CIRCLE
  8
_1-3_
  6
CONTINUOUS
 62
    7
 10
167.81829009184966
 20
184.56613076699747
 40
0.3036581503378378
  0
CIRCLE
  8
_1-3_
  6
CONTINUOUS
 62
    7
 10
167.21096141918287
 20
183.19964434649495
 40
0.3036581503378378
  0
CIRCLE
  8
_1-3_
  6
CONTINUOUS
 62
    7
 10
167.66646101668076
 20
183.19964434649495
 40
0.3036581503378378
  0
CIRCLE
  8
_1-3_
  6
CONTINUOUS
 62
    7
 10
174.58861479888091
 20
192.53121865762247
 40
0.3036581503378378
  0
CIRCLE
  8
_1-3_
  6
CONTINUOUS
 62
    7
 10
173.98128612621412
 20
191.16473223711995
 40
0.3036581503378378
  0
CIRCLE
  8
_1-3_
  6
CONTINUOUS
 62
    7
 10
174.43678572371201
 20
191.16473223711995
 40
0.3036581503378378
  0
CIRCLE
  8
_1-3_
  6
CONTINUOUS
 62
    7
 10
181.04034836227831
 20
199.62015925226987
 40
0.3036581503378378
  0
CIRCLE
  8
_1-3_
  6
CONTINUOUS
 62
    7
 10
180.43301968961148
 20
198.25367283176732
 40
0.3036581503378378
  0
CIRCLE
  8
_1-3_
  6
CONTINUOUS
 62
    7
 10
180.88851928710937
 20
198.25367283176732
 40
0.3036581503378378
  0
CIRCLE
  8
_1-3_
  6
CONTINUOUS
 62
    7
 10
179.92522368559966
 20
205.43467341242612
 40
0.3036581503378378
  0
CIRCLE
  8
_1-3_
  6
CONTINUOUS
 62
    7
 10
179.31789501293287
 20
204.06818699192357
 40
0.3036581503378378
  0
CIRCLE
  8
_1-3_
  6
CONTINUOUS
 62
    7
 10
179.77339461043076
 20
204.06818699192357
 40
0.3036581503378378
  0
CIRCLE
  8
_1-3_
  6
CONTINUOUS
 62
    7
 10
185.18219406540331
 20
198.74399958430112
 40
0.3036581503378378
  0
CIRCLE
  8
_1-3_
  6
CONTINUOUS
 62
    7
 10
184.57486539273648
 20
197.37751316379857
 40
0.3036581503378378
  0
CIRCLE
  8
_1-3_
  6
CONTINUOUS
 62
    7
 10
185.03036499023437
 20
197.37751316379857
 40
0.3036581503378378
  0
CIRCLE
  8
_1-3_
  6
CONTINUOUS
 62
    7
 10
194.50134689743456
 20
184.72543252480997
 40
0.3036581503378378
  0
CIRCLE
  8
_1-3_
  6
CONTINUOUS
 62
    7
 10
193.89401822476773
 20
183.35894610430745
 40
0.3036581503378378
  0
CIRCLE
  8
_1-3_
  6
CONTINUOUS
 62
    7
 10
194.34951782226562
 20
183.35894610430745
 40
0.3036581503378378
  0
CIRCLE
  8
_1-3_
  6
CONTINUOUS
 62
    7
 10
197.52809266786318
 20
183.84927285684122
 40
0.3036581503378378
  0
CIRCLE
  8
_1-3_
  6
CONTINUOUS
 62
    7
 10
196.92076399519638
 20
182.4827864363387
 40
0.3036581503378378
  0
CIRCLE
  8
_1-3_
  6
CONTINUOUS
 62
    7
 10
197.37626359269427
 20
182.4827864363387
 40
0.3036581503378378
  0
CIRCLE
  8
_1-3_
  6
CONTINUOUS
 62
    7
 10
192.27112228805956
 20
191.73470986855997
 40
0.3036581503378378
  0
CIRCLE
  8
_1-3_
  6
CONTINUOUS
 62
    7
 10
191.66379361539273
 20
190.36822344805745
 40
0.3036581503378378
  0
CIRCLE
  8
_1-3_
  6
CONTINUOUS
 62
    7
 10
192.11929321289062
 20
190.36822344805745
 40
0.3036581503378378
  0
CIRCLE
  8
_1-3_
  6
CONTINUOUS
 62
    7
 10
202.38679628114443
 20
174.21150413719386
 40
0.3036581503378378
  0
CIRCLE
  8
_1-3_
  6
CONTINUOUS
 62
    7
 10
201.77946760847763
 20
172.8450177166913
 40
0.3036581503378378
  0
CIRCLE
  8
_1-3_
  6
CONTINUOUS
 62
    7
 10
202.23496720597552
 20
172.8450177166913
 40
0.3036581503378378
  0
CIRCLE
  8
_1-3_
  6
CONTINUOUS
 62
    7
 10
206.52864198426943
 20
173.33534446922511
 40
0.3036581503378378
  0
CIRCLE
  8
_1-3_
  6
CONTINUOUS
 62
    7
 10
205.92131331160263
 20
171.96885804872255
 40
0.3036581503378378
  0
CIRCLE
  8
_1-3_
  6
CONTINUOUS
 62
    7
 10
206.37681290910052
 20
171.96885804872255
 40
0.3036581503378378
  0
CIRCLE
  8
_1-3_
  6
CONTINUOUS
 62
    7
 10
208.51991395692568
 20
170.78651634422511
 40
0.3036581503378378
  0
CIRCLE
  8
_1-3_
  6
CONTINUOUS
 62
    7
 10
207.91259765625
 20
169.42002992372255
 40
0.3036581503378378
  0
CIRCLE
  8
_1-3_
  6
CONTINUOUS
 62
    7
 10
208.36808488175677
 20
169.42002992372255
 40
0.3036581503378378
  0
CIRCLE
  8
_1-3_
  6
CONTINUOUS
 62
    7
 10
209.15712098817568
 20
169.03419700828761
 40
0.3036581503378378
  0
CIRCLE
  8
_1-3_
  6
CONTINUOUS
 62
    7
 10
208.5498046875
 20
167.66771058778505
 40
0.3036581503378378
  0
CIRCLE
  8
_1-3_
  6
CONTINUOUS
 62
    7
 10
209.00529191300677
 20
167.66771058778505
 40
0.3036581503378378
  0
CIRCLE
  8
_1-3_
  6
CONTINUOUS
 62
    7
 10
204.93562440614443
 20
169.91035667625636
 40
0.3036581503378378
  0
CIRCLE
  8
_1-3_
  6
CONTINUOUS
 62
    7
 10
204.32829573347763
 20
168.5438702557538
 40
0.3036581503378378
  0
CIRCLE
  8
_1-3_
  6
CONTINUOUS
 62
    7
 10
204.78379533097552
 20
168.5438702557538
 40
0.3036581503378378
  0
CIRCLE
  8
_1-3_
  6
CONTINUOUS
 62
    7
 10
203.26295594911318
 20
170.46791282860011
 40
0.3036581503378378
  0
CIRCLE
  8
_1-3_
  6
CONTINUOUS
 62
    7
 10
202.65562727644638
 20
169.10142640809755
 40
0.3036581503378378
  0
CIRCLE
  8
_1-3_
  6
CONTINUOUS
 62
    7
 10
203.11112687394427
 20
169.10142640809755
 40
0.3036581503378378
  0
CIRCLE
  8
_1-3_
  6
CONTINUOUS
 62
    7
 10
201.35133485536318
 20
171.34407249656886
 40
0.3036581503378378
  0
CIRCLE
  8
_1-3_
  6
CONTINUOUS
 62
    7
 10
200.74400618269638
 20
169.9775860760663
 40
0.3036581503378378
  0
CIRCLE
  8
_1-3_
  6
CONTINUOUS
 62
    7
 10
201.19950578019427
 20
169.9775860760663
 40
0.3036581503378378
  0
CIRCLE
  8
_1-3_
  6
CONTINUOUS
 62
    7
 10
200.63447694520693
 20
175.64521995750636
 40
0.3036581503378378
  0
CIRCLE
  8
_1-3_
  6
CONTINUOUS
 62
    7
 10
200.02714827254013
 20
174.2787335370038
 40
0.3036581503378378
  0
CIRCLE
  8
_1-3_
  6
CONTINUOUS
 62
    7
 10
200.48264787003802
 20
174.2787335370038
 40
0.3036581503378378
  0
CIRCLE
  8
_1-3_
  6
CONTINUOUS
 62
    7
 10
209.47572450380068
 20
167.83943382469386
 40
0.3036581503378378
  0
CIRCLE
  8
_1-3_
  6
CONTINUOUS
 62
    7
 10
208.868408203125
 20
166.4729474041913
 40
0.3036581503378378
  0
CIRCLE
  8
_1-3_
  6
CONTINUOUS
 62
    7
 10
209.32389542863177
 20
166.4729474041913
 40
0.3036581503378378
  0
CIRCLE
  8
_1-3_
  6
CONTINUOUS
 62
    7
 10
209.55537538270693
 20
172.53883568016261
 40
0.3036581503378378
  0
CIRCLE
  8
_1-3_
  6
CONTINUOUS
 62
    7
 10
208.94805908203125
 20
171.17234925966005
 40
0.3036581503378378
  0
CIRCLE
  8
_1-3_
  6
CONTINUOUS
 62
    7
 10
209.40354630753802
 20
171.17234925966005
 40
0.3036581503378378
  0
CIRCLE
  8
_1-3_
  6
CONTINUOUS
 62
    7
 10
193.46588547165331
 20
177.15858665672511
 40
0.3036581503378378
  0
CIRCLE
  8
_1-3_
  6
CONTINUOUS
 62
    7
 10
192.85855679898648
 20
175.79210023622255
 40
0.3036581503378378
  0
CIRCLE
  8
_1-3_
  6
CONTINUOUS
 62
    7
 10
193.31405639648437
 20
175.79210023622255
 40
0.3036581503378378
  0
CIRCLE
  8
_1-3_
  6
CONTINUOUS
 62
    7
 10
190.91705734665331
 20
178.51265159813136
 40
0.3036581503378378
  0
CIRCLE
  8
_1-3_
  6
CONTINUOUS
 62
    7
 10
190.30972867398648
 20
177.1461651776288
 40
0.3036581503378378
  0
CIRCLE
  8
_1-3_
  6
CONTINUOUS
 62
    7
 10
190.76522827148437
 20
177.1461651776288
 40
0.3036581503378378
  0
TEXT
  8
_0-0_
 62
    7
 10
141.89189395389042
 20
14.594594594594582
 40
2.5
 41
1
 50
0
  1
縮尺
  0
TEXT
  8
_0-0_
 62
    7
 10
377.10214563318203
 20
22.865493362014362
 40
2.5
 41
1
 50
0
  1
ＮＯ
  0
TEXT
  8
_0-0_
 62
    7
 10
14.594594336844779
 20
24.324324324324323
 40
2.5
 41
1
 50
0
  1
和形
  0
TEXT
  8
_0-0_
 62
    7
 10
25.556194717819636
 20
20.211577544341225
 40
2.5
 41
1
 50
0
  1
木造
  0
TEXT
  8
_0-0_
 62
    7
 10
383.23801896378802
 20
18.523427086907475
 40
3
 41
1
 50
0
  1
Ｊ
  0
TEXT
  8
_1-0_
 62
    7
 10
169.90681828679266
 20
13.3181144095756
 40
2.5
 41
1
 50
0
  1
1/5
  0
TEXT
  8
_1-5_
 62
    7
 10
77.173497999036641
 20
174.37339164115289
 40
2.5
 41
1
 50
0
  1
桟瓦
  0
TEXT
  8
_1-5_
 62
    7
 10
269.76520435230151
 20
182.18276565139359
 40
2.5
 41
1
 50
0
  1
瓦桟　
  0
TEXT
  8
_1-5_
 62
    7
 10
269.76676322318411
 20
175.1827673009924
 40
2.5
 41
1
 50
0
  1
流し桟
  0
TEXT
  8
_1-5_
 62
    7
 10
269.76676734718114
 20
168.18276895059122
 40
2.5
 41
1
 50
0
  1
下葺き材
  0
TEXT
  8
_1-5_
 62
    7
 10
269.76676322318411
 20
161.18277060019005
 40
2.5
 41
1
 50
0
  1
野地板
  0
TEXT
  8
_1-5_
 62
    7
 10
283.77126332875844
 20
161.18277060019005
 40
2.5
 41
1
 50
0
  1
ｔ＝12
  0
TEXT
  8
_1-5_
 62
    7
 10
39.721903414339636
 20
15.395235628695104
 40
2.5
 41
1
 50
0
  1
棟　　1
  0
TEXT
  8
_1-5_
 62
    7
 10
269.09446510108739
 20
188.60953253668708
 40
2.5
 41
1
 50
0
  1
桟瓦
  0
TEXT
  8
_1-3_
 62
    7
 10
269.76675909918708
 20
155.51012606234164
 40
2.5
 41
1
 50
0
  1
垂木
  0
TEXT
  8
_1-3_
 62
    7
 10
283.77126332875844
 20
155.51012606234164
 40
2.5
 41
1
 50
0
  1
60ｘ60
  0
TEXT
  8
_1-4_
 62
    7
 10
150.95793646735115
 20
226.83137635926943
 40
2.5
 41
1
 50
0
  1
銅線緊結
  0
TEXT
  8
_1-4_
 62
    7
 10
103.88395979597763
 20
209.58519188133448
 40
2.5
 41
1
 50
0
  1
面戸漆喰及び葺き土
  0
TEXT
  8
_1-a_
 62
    7
 10
173.99385537613961
 20
120.94994591119996
 40
2.5
 41
1
 50
24.227719460851677
  1
250
  0
TEXT
  8
_1-a_
 62
    7
 10
192.63088672511552
 20
124.53113071596432
 40
2.5
 41
1
 50
-24.227719460851667
  1
250
  0
TEXT
  8
_1-5_
 62
    7
 10
394.2951140532623
 20
14.611811766753334
 40
2.5
 41
1
 50
0
  1
14
  0
TEXT
  8
_1-3_
 62
    7
 10
212.79027577993031
 20
249.78043014938768
 40
2.5
 41
1
 50
0
  1
冠瓦
  0
TEXT
  8
_1-3_
 62
    7
 10
218.77015809755068
 20
220.60819058804901
 40
2.5
 41
1
 50
0
  1
のし瓦
  0
TEXT
  8
_1-3_
 62
    7
 10
214.54269821579393
 20
237.76079332506336
 40
2.5
 41
1
 50
0
  1
棟金具
  0
TEXT
  8
_1-3_
 62
    7
 10
121.0025993553368
 20
242.34412115973396
 40
2.5
 41
1
 50
0
  1
パッキン付き改良ステンレススクリュウ釘
  0
TEXT
  8
_1-3_
 62
    7
 10
151.10085770890521
 20
234.30292077966641
 40
2.5
 41
1
 50
0
  1
棟桟木　43ｘ43
  0
TEXT
  8
_1-3_
 62
    7
 10
283.77126332875844
 20
182.04032691749367
 40
2.5
 41
1
 50
0
  1
15×21以上　（防腐処理）
  0
TEXT
  8
_1-3_
 62
    7
 10
283.77126332875844
 20
168.06558145059122
 40
2.5
 41
1
 50
0
  1
アスファルトルーフィング940
  0
TEXT
  8
_1-3_
 62
    7
 10
283.77250052787161
 20
179.09028749208193
 40
2.5
 41
1
 50
0
  1
※　地域により瓦桟木の大きさは、異なります
  0
POINT
  8
_1-a_
 62
    7
 10
153.19365630278716
 20
111.04156494140625
  0
POINT
  8
_1-a_
 62
    7
 10
198.62412736222552
 20
131.48527815535263
  0
POINT
  8
_1-a_
 62
    7
 10
167.16520979597763
 20
135.49311045053844
  0
POINT
  8
_1-a_
 62
    7
 10
212.59712837837839
 20
115.04875389305322
  0
TEXT
  8
_1-3_
 62
    7
 10
133.12811361776818
 20
83.158901317699545
 40
2.5
 41
1
 50
0
  1
棟部分の下葺き材（アスファルトルーフィング）は、両方向へそれぞれ250ｍｍ以上重ね合わせること。
  0
TEXT
  8
_1-3_
 62
    7
 10
133.21590526683912
 20
79.047577316696589
 40
2.5
 41
1
 50
0
  1
隅棟部分の下葺き材（アスファルトルーフィング）は、重ね貼りの上に両方向へそれぞれ250ｍｍ以上増し貼りをすること。
  0
ENDSEC
  0
EOF
