  0
SECTION
  2
HEADER
  9
$ACADVER
  1
AC1009
  9
$INSBASE
 10
0
 20
0
 30
0
  9
$EXTMIN
 10
0
 20
0
  9
$EXTMAX
 10
420
 20
297
  9
$LIMMIN
 10
0
 20
0
  9
$LIMMAX
 10
420
 20
297
  9
$LTSCALE
 40
1
  0
ENDSEC
  0
SECTION
  2
TABLES
  0
TABLE
  2
LTYPE
 70
     9
  0
LTYPE
  2
CONTINUOUS
 70
    64
  3
実線
 72
    65
 73
     0
 40
0.0
  0
LTYPE
  2
DASHED1
 70
    64
  3
--  --  --  --  --  --  --  --  
 72
    65
 73
     2
 40
2.5
 49
1.25
 49
-1.25
  0
LTYPE
  2
DASHED2
 70
    64
  3
----    ----    ----    ----    
 72
    65
 73
     2
 40
5.0
 49
2.5
 49
-2.5
  0
LTYPE
  2
DASHED3
 70
    64
  3
------  ------  ------  ------  
 72
    65
 73
     2
 40
5.0
 49
3.75
 49
-1.25
  0
LTYPE
  2
CENTER1
 70
    64
  3
----- - ----- - ----- - ----- - 
 72
    65
 73
     4
 40
10.0
 49
6.25
 49
-1.25
 49
1.25
 49
-1.25
  0
LTYPE
  2
CENTER2
 70
    64
  3
----------  --  ----------  --  
 72
    65
 73
     4
 40
20.0
 49
12.5
 49
-2.5
 49
2.5
 49
-2.5
  0
LTYPE
  2
PHANTOM1
 70
    64
  3
--- - - --- - - --- - - --- - - 
 72
    65
 73
     6
 40
10.0
 49
3.25
 49
-1.25
 49
1.25
 49
-1.25
 49
1.25
 49
-1.25
  0
LTYPE
  2
PHANTOM2
 70
    64
  3
--------  -  -  --------  -  -  
 72
    65
 73
     6
 40
20.0
 49
10.0
 49
-2.5
 49
1.25
 49
-2.5
 49
1.25
 49
-2.5
  0
LTYPE
  2
DOT
 70
    64
  3
-   -   -   -   -   -   -   -   
 72
    65
 73
     2
 40
2.5
 49
0.625
 49
-1.875
  0
LTYPE
  2
DUMMY
 70
    64
  3
ダミー
 72
    65
 73
     0
 40
0.0
  0
LTYPE
  2
RAND1
 70
    64
  3
ランダム線1
 72
    65
 73
     4
 40
10.0
 49
1.0
 49
-2.0
 49
3.0
 49
-4.0
  0
LTYPE
  2
RAND2
 70
    64
  3
ランダム線2
 72
    65
 73
     4
 40
14.0
 49
2.0
 49
-3.0
 49
4.0
 49
-5.0
  0
LTYPE
  2
RAND3
 70
    64
  3
ランダム線3
 72
    65
 73
     4
 40
18.0
 49
3.0
 49
-4.0
 49
5.0
 49
-6.0
  0
LTYPE
  2
RAND4
 70
    64
  3
ランダム線4
 72
    65
 73
     4
 40
22.0
 49
4.0
 49
-5.0
 49
6.0
 49
-7.0
  0
LTYPE
  2
RAND5
 70
    64
  3
ランダム線5
 72
    65
 73
     4
 40
26.0
 49
5.0
 49
-6.0
 49
7.0
 49
-8.0
  0
LTYPE
  2
LONG1
 70
    64
  3
----------  --  ----------  --  
 72
    65
 73
     4
 40
40.0
 49
32.5
 49
-2.5
 49
2.5
 49
-2.5
  0
LTYPE
  2
LONG2
 70
    64
  3
--------  -  -  --------  -  -  
 72
    65
 73
     6
 40
40.0
 49
30.0
 49
-2.5
 49
1.25
 49
-2.5
 49
1.25
 49
-2.5
  0
LTYPE
  2
LONG3
 70
    64
  3
+++++++++++++++..+++++++++++++++
 72
    65
 73
     2
 40
40.0
 49
37.5
 49
-2.5
  0
LTYPE
  2
LONG4
 70
    64
  3
+++++++++++++++..+++++++++++++++
 72
    65
 73
     2
 40
80.0
 49
75.0
 49
-5.0
  0
LTYPE
  2
LONG5
 70
    64
  3
----------  --  ----------  --  
 72
    65
 73
     4
 40
60.0
 49
37.5
 49
-7.5
 49
7.5
 49
-7.5
  0
LTYPE
  2
dashed
 70
   64
  3
-------   -------------   ------
 72
   65
 73
    2
 40
7.5
 49
6
 49
-1.5
  0
LTYPE
  2
dashed_spaced
 70
   64
  3
----        --------        ----
 72
   65
 73
    2
 40
12
 49
6
 49
-6
  0
LTYPE
  2
long_dashed_dotted
 70
   64
  3
------------- --- --------------
 72
   65
 73
    4
 40
15.25
 49
12
 49
-1.5
 49
0.25
 49
-1.5
  0
LTYPE
  2
long_dashed_double-dotted
 70
   64
  3
----------- --- --- ------------
 72
   65
 73
    6
 40
17
 49
12
 49
-1.5
 49
0.25
 49
-1.5
 49
0.25
 49
-1.5
  0
LTYPE
  2
long_dashed_triplicate-dotted
 70
   64
  3
--------- --- --- --- ----------
 72
   65
 73
    8
 40
18.75
 49
12
 49
-1.5
 49
0.25
 49
-1.5
 49
0.25
 49
-1.5
 49
0.25
 49
-1.5
  0
LTYPE
  2
dotted
 70
   64
  3
   -       -       -       -    
 72
   65
 73
    2
 40
1.75
 49
0.25
 49
-1.5
  0
LTYPE
  2
chain
 70
   64
  3
-------------- -- --------------
 72
   65
 73
    4
 40
18.5
 49
12
 49
-1.5
 49
3.5
 49
-1.5
  0
LTYPE
  2
chain_double_dash
 70
   64
  3
------------ -- -- -------------
 72
   65
 73
    6
 40
23.5
 49
12
 49
-1.5
 49
3.5
 49
-1.5
 49
3.5
 49
-1.5
  0
LTYPE
  2
dashed_dotted
 70
   64
  3
-----------     -     ----------
 72
   65
 73
    4
 40
9.25
 49
6
 49
-1.5
 49
0.25
 49
-1.5
  0
LTYPE
  2
double-dashed_dotted
 70
   64
  3
------   -----------   -   -----
 72
   65
 73
    6
 40
16.75
 49
6
 49
-1.5
 49
6
 49
-1.5
 49
0.25
 49
-1.5
  0
LTYPE
  2
dashed_double-dotted
 70
   64
  3
---------    -    -    ---------
 72
   65
 73
    6
 40
11
 49
6
 49
-1.5
 49
0.25
 49
-1.5
 49
0.25
 49
-1.5
  0
LTYPE
  2
double-dashed_double-dotted
 70
   64
  3
-----   ---------   -   -   ----
 72
   65
 73
    8
 40
18.5
 49
6
 49
-1.5
 49
6
 49
-1.5
 49
0.25
 49
-1.5
 49
0.25
 49
-1.5
  0
LTYPE
  2
dashed_triplicate-dotted
 70
   64
  3
-------    -    -    -    ------
 72
   65
 73
    8
 40
12.75
 49
6
 49
-1.5
 49
0.25
 49
-1.5
 49
0.25
 49
-1.5
 49
0.25
 49
-1.5
  0
LTYPE
  2
double-dashed_triplicate-dotted
 70
   64
  3
-----  ---------  -  -  -  -----
 72
   65
 73
   10
 40
20.25
 49
6
 49
-1.5
 49
6
 49
-1.5
 49
0.25
 49
-1.5
 49
0.25
 49
-1.5
 49
0.25
 49
-1.5
  0
LTYPE
  2
undefined
 70
   64
  3
--------------------------------
 72
   65
 73
    0
 40
0
  0
ENDTAB
  0
TABLE
  2
STYLE
  5
3
100
AcDbSymbolTable
 70
     1
  0
STYLE
  5
10
100
AcDbSymbolTableRecord
100
AcDbTextStyleTableRecord
  2
STANDARD
 70
     0
 40
0.0
 41
1.0
 50
0.0
 71
     0
 42
0.2
  3
txt
  4
bigfont.shx
  0
STYLE
  5
26
100
AcDbSymbolTableRecord
100
AcDbTextStyleTableRecord
  2
TATEGAKI
 70
    68
 40
0.0
 41
1.0
 50
0.0
 71
     0
 42
1.0
  3
txt
  4
bigfont.shx
  0
ENDTAB
  0
TABLE
  2
LAYER
 70
    5
  0
LAYER
  2
_0-0_
 70
   64
 62
    7
  6
CONTINUOUS
  0
LAYER
  2
_1-0_
 70
   64
 62
    7
  6
CONTINUOUS
  0
LAYER
  2
_1-1_
 70
   64
 62
    7
  6
CONTINUOUS
  0
LAYER
  2
_1-2_
 70
   64
 62
    7
  6
CONTINUOUS
  0
LAYER
  2
ADD_LINE
 70
   64
 62
    7
  6
CONTINUOUS
  0
ENDTAB
  0
ENDSEC
  0
SECTION
  2
BLOCKS
  0
ENDSEC
  0
SECTION
  2
ENTITIES
  0
LINE
  8
_0-0_
  6
CONTINUOUS
 62
    5
 10
6.7567526327597136
 20
280.13513513513516
 11
406.75677325274495
 21
280.13513513513516
  0
LINE
  8
_0-0_
  6
CONTINUOUS
 62
    5
 10
406.75677325274495
 20
10.13513513513513
 11
6.7567526327597136
 21
10.13513513513513
  0
LINE
  8
_0-0_
  6
CONTINUOUS
 62
    5
 10
406.75677325274495
 20
30.135133073136615
 11
6.7567402607685949
 21
30.135133073136615
  0
LINE
  8
_0-0_
  6
CONTINUOUS
 62
    5
 10
371.75678150073907
 20
10.13513513513513
 11
371.75678150073907
 21
30.135133073136615
  0
LINE
  8
_0-0_
  6
CONTINUOUS
 62
    5
 10
137.02703939901818
 20
30.135133073136615
 11
137.02703939901818
 21
10.13513513513513
  0
LINE
  8
_0-0_
  6
CONTINUOUS
 62
    5
 10
214.86486486486487
 20
30.135133073136615
 11
214.86486486486487
 21
10.13513513513513
  0
LINE
  8
_0-0_
  6
CONTINUOUS
 62
    5
 10
137.02703939901818
 20
20.135134104135886
 11
214.86486486486487
 21
20.135134104135886
  0
LINE
  8
_0-0_
  6
CONTINUOUS
 62
    5
 10
396.48648648648651
 20
25.945945945945951
 11
383.91891891891896
 21
13.378379924877265
  0
LINE
  8
_1-1_
  6
CONTINUOUS
 62
    7
 10
272.71342509501693
 20
120.40300523912585
 11
272.71342509501693
 21
132.40300771352409
  0
LINE
  8
_1-1_
  6
CONTINUOUS
 62
    7
 10
272.71342509501693
 20
132.40300771352409
 11
260.71341024862755
 21
132.40300771352409
  0
LINE
  8
_1-1_
  6
CONTINUOUS
 62
    7
 10
128.71344489020271
 20
132.40300771352409
 11
116.71340529983108
 21
132.40300771352409
  0
LINE
  8
_1-1_
  6
CONTINUOUS
 62
    7
 10
258.4735107421875
 20
138.81523750923776
 11
258.4735107421875
 21
139.41522959116344
  0
LINE
  8
_1-1_
  6
CONTINUOUS
 62
    7
 10
258.4735107421875
 20
139.41522959116344
 11
253.67352459881758
 21
139.41522959116344
  0
LINE
  8
_1-1_
  6
CONTINUOUS
 62
    7
 10
253.67352459881758
 20
139.41522959116344
 11
253.67352459881758
 21
138.81523750923776
  0
LINE
  8
_1-1_
  6
CONTINUOUS
 62
    7
 10
253.67352459881758
 20
138.81523750923776
 11
258.4735107421875
 21
138.81523750923776
  0
LINE
  8
_1-1_
  6
CONTINUOUS
 62
    7
 10
258.4735107421875
 20
139.41522959116344
 11
253.67352459881758
 21
138.81523750923776
  0
LINE
  8
_1-2_
  6
CONTINUOUS
 62
    7
 10
265.22995407516896
 20
91.721067686338685
 11
258.77024057749156
 21
91.721067686338685
  0
LINE
  8
_1-2_
  6
CONTINUOUS
 62
    7
 10
161.93709089949326
 20
68.649692019900769
 11
173.19327689505914
 21
68.649692019900769
  0
LINE
  8
_1-2_
  6
CONTINUOUS
 62
    7
 10
161.93709089949326
 20
77.102162129170196
 11
176.26969620988177
 21
77.102162129170196
  0
LINE
  8
_1-2_
  6
CONTINUOUS
 62
    7
 10
161.93709089949326
 20
84.803293588999153
 11
179.07269452069258
 21
84.803293588999153
  0
LINE
  8
_1-2_
  6
CONTINUOUS
 62
    7
 10
161.93709089949326
 20
92.880100559543919
 11
182.01242807749156
 21
92.880100559543919
  0
LINE
  8
_1-2_
  6
CONTINUOUS
 62
    7
 10
274.08958641258448
 20
116.06265093829181
 11
265.22995407516896
 21
91.721067686338685
  0
LINE
  8
_1-1_
  6
CONTINUOUS
 62
    7
 10
284.71341519742401
 20
132.40300771352409
 11
263.71339540223818
 21
132.40300771352409
  0
LINE
  8
_1-1_
  6
CONTINUOUS
 62
    7
 10
284.71341519742401
 20
138.40300276472763
 11
284.71341519742401
 21
132.40300771352409
  0
LINE
  8
_1-1_
  6
CONTINUOUS
 62
    7
 10
270.31340727934969
 20
138.40300276472763
 11
269.73019161739865
 21
138.40300276472763
  0
LINE
  8
ADD_LINE
  6
DOT
 62
    7
 10
200.71338550464529
 20
132.40300771352409
 11
200.71338550464529
 21
139.54084241712417
  0
LINE
  8
ADD_LINE
  6
DOT
 62
    7
 10
128.71344489020271
 20
132.40300771352409
 11
128.71344489020271
 21
137.4809553816512
  0
LINE
  8
_1-1_
  6
CONTINUOUS
 62
    7
 10
272.71342509501693
 20
132.40300771352409
 11
272.71342509501693
 21
108.40300276472763
  0
LINE
  8
_1-1_
  6
CONTINUOUS
 62
    7
 10
278.71339540223818
 20
108.40300276472763
 11
272.71342509501693
 21
108.40300276472763
  0
LINE
  8
_1-1_
  6
CONTINUOUS
 62
    7
 10
278.71339540223818
 20
132.40300771352409
 11
278.71339540223818
 21
108.40300276472763
  0
LINE
  8
_1-1_
  6
CONTINUOUS
 62
    7
 10
200.71338550464529
 20
132.40300771352409
 11
188.71344489020271
 21
132.40300771352409
  0
LINE
  8
_1-1_
  6
CONTINUOUS
 62
    7
 10
188.71344489020271
 20
122.1000588906778
 11
188.71344489020271
 21
132.40300771352409
  0
LINE
  8
_1-1_
  6
CONTINUOUS
 62
    7
 10
190.41048616976352
 20
120.40300523912585
 11
188.71344489020271
 21
122.1000588906778
  0
LINE
  8
_1-1_
  6
CONTINUOUS
 62
    7
 10
199.01634422508448
 20
120.40300523912585
 11
190.41048616976352
 21
120.40300523912585
  0
LINE
  8
_1-1_
  6
CONTINUOUS
 62
    7
 10
200.71338550464529
 20
122.1000588906778
 11
200.71338550464529
 21
132.40300771352409
  0
LINE
  8
_1-1_
  6
CONTINUOUS
 62
    7
 10
199.01634422508448
 20
120.40300523912585
 11
200.71338550464529
 21
122.1000588906778
  0
LINE
  8
_1-1_
  6
CONTINUOUS
 62
    7
 10
262.41047627217063
 20
120.40300523912585
 11
272.71342509501693
 21
120.40300523912585
  0
LINE
  8
_1-1_
  6
CONTINUOUS
 62
    7
 10
260.71341024862755
 20
122.1000588906778
 11
260.71341024862755
 21
132.40300771352409
  0
LINE
  8
_1-1_
  6
CONTINUOUS
 62
    7
 10
262.41047627217063
 20
120.40300523912585
 11
260.71341024862755
 21
122.1000588906778
  0
LINE
  8
_1-1_
  6
CONTINUOUS
 62
    7
 10
116.71340529983108
 20
122.1000588906778
 11
116.71340529983108
 21
132.40300771352409
  0
LINE
  8
_1-1_
  6
CONTINUOUS
 62
    7
 10
118.41049606735642
 20
120.40300523912585
 11
116.71340529983108
 21
122.1000588906778
  0
LINE
  8
_1-1_
  6
CONTINUOUS
 62
    7
 10
128.71344489020271
 20
122.1000588906778
 11
128.71344489020271
 21
132.40300771352409
  0
LINE
  8
_1-1_
  6
CONTINUOUS
 62
    7
 10
127.01635412267737
 20
120.40300523912585
 11
128.71344489020271
 21
122.1000588906778
  0
LINE
  8
_1-1_
  6
CONTINUOUS
 62
    7
 10
127.01635412267737
 20
120.40300523912585
 11
118.41049606735642
 21
120.40300523912585
  0
LINE
  8
_1-1_
  6
CONTINUOUS
 62
    7
 10
118.41049606735642
 20
120.40300523912585
 11
127.01635412267737
 21
120.40300523912585
  0
LINE
  8
_1-1_
  6
CONTINUOUS
 62
    7
 10
281.72963735219594
 20
134.59459459459461
 11
288.38809451541385
 21
116.30066330368454
  0
LINE
  8
_1-1_
  6
CONTINUOUS
 62
    7
 10
284.71341519742401
 20
110.51680693755279
 11
284.71341519742401
 21
93.456907530088685
  0
LINE
  8
_1-1_
  6
CONTINUOUS
 62
    7
 10
284.71341519742401
 20
93.456907530088685
 11
278.71339540223818
 21
93.456907530088685
  0
LINE
  8
_1-1_
  6
CONTINUOUS
 62
    7
 10
278.71339540223818
 20
110.51680693755279
 11
278.71339540223818
 21
93.456907530088685
  0
LINE
  8
_1-1_
  6
CONTINUOUS
 62
    7
 10
288.38809451541385
 20
116.30066330368454
 11
296.65293100717906
 21
116.30066330368454
  0
LINE
  8
_1-1_
  6
CONTINUOUS
 62
    7
 10
284.71341519742401
 20
133.7144016575169
 11
283.40200888144005
 21
132.40300771352409
  0
LINE
  8
_1-1_
  6
CONTINUOUS
 62
    7
 10
284.71341519742401
 20
135.41144293707771
 11
281.70496760187922
 21
132.40300771352409
  0
LINE
  8
_1-1_
  6
CONTINUOUS
 62
    7
 10
284.71341519742401
 20
137.10850896062078
 11
280.00790157833615
 21
132.40300771352409
  0
LINE
  8
_1-1_
  6
CONTINUOUS
 62
    7
 10
284.31085534997891
 20
138.40300276472763
 11
278.31086029877537
 21
132.40300771352409
  0
LINE
  8
_1-1_
  6
CONTINUOUS
 62
    7
 10
282.61378932643584
 20
138.40300276472763
 11
276.61379427523229
 21
132.40300771352409
  0
LINE
  8
_1-1_
  6
CONTINUOUS
 62
    7
 10
280.916748046875
 20
138.40300276472763
 11
274.91675299567146
 21
132.40300771352409
  0
LINE
  8
_1-1_
  6
CONTINUOUS
 62
    7
 10
279.21970676731422
 20
138.40300276472763
 11
273.21971171611068
 21
132.40300771352409
  0
LINE
  8
_1-1_
  6
CONTINUOUS
 62
    7
 10
277.52264074377115
 20
138.40300276472763
 11
271.52264569256761
 21
132.40300771352409
  0
LINE
  8
_1-1_
  6
CONTINUOUS
 62
    7
 10
275.82559946421031
 20
138.40300276472763
 11
269.82560441300677
 21
132.40300771352409
  0
LINE
  8
_1-1_
  6
CONTINUOUS
 62
    7
 10
274.12853344066724
 20
138.40300276472763
 11
268.1285383894637
 21
132.40300771352409
  0
LINE
  8
_1-1_
  6
CONTINUOUS
 62
    7
 10
272.43149216110646
 20
138.40300276472763
 11
266.43149710990286
 21
132.40300771352409
  0
LINE
  8
_1-1_
  6
CONTINUOUS
 62
    7
 10
270.73445088154563
 20
138.40300276472763
 11
264.73443108635979
 21
132.40300771352409
  0
LINE
  8
_1-1_
  6
CONTINUOUS
 62
    7
 10
272.7921109586149
 20
108.40300276472763
 11
272.71342509501693
 21
108.48170100031673
  0
LINE
  8
_1-1_
  6
CONTINUOUS
 62
    7
 10
274.48917698215797
 20
108.40300276472763
 11
272.71342509501693
 21
110.17876702385981
  0
LINE
  8
_1-1_
  6
CONTINUOUS
 62
    7
 10
276.18624300570104
 20
108.40300276472763
 11
272.71342509501693
 21
111.87582067541175
  0
LINE
  8
_1-1_
  6
CONTINUOUS
 62
    7
 10
277.88328428526182
 20
108.40300276472763
 11
272.71342509501693
 21
113.57287432696369
  0
LINE
  8
_1-1_
  6
CONTINUOUS
 62
    7
 10
278.71339540223818
 20
109.26994529930322
 11
272.71342509501693
 21
115.26994035050676
  0
LINE
  8
_1-1_
  6
CONTINUOUS
 62
    7
 10
278.71339540223818
 20
110.96698657886402
 11
272.71342509501693
 21
116.96698163006758
  0
LINE
  8
_1-1_
  6
CONTINUOUS
 62
    7
 10
278.71339540223818
 20
112.6640526024071
 11
272.71342509501693
 21
118.66404765361065
  0
LINE
  8
_1-1_
  6
CONTINUOUS
 62
    7
 10
278.71339540223818
 20
114.36110625395905
 11
272.71342509501693
 21
120.36110130516259
  0
LINE
  8
_1-1_
  6
CONTINUOUS
 62
    7
 10
278.71339540223818
 20
116.05815990551099
 11
272.71342509501693
 21
122.05815495671453
  0
LINE
  8
_1-1_
  6
CONTINUOUS
 62
    7
 10
278.71339540223818
 20
117.75521355706293
 11
272.71342509501693
 21
123.75520860826647
  0
LINE
  8
_1-1_
  6
CONTINUOUS
 62
    7
 10
278.71339540223818
 20
119.45226720861487
 11
272.71342509501693
 21
125.45226225981843
  0
LINE
  8
_1-1_
  6
CONTINUOUS
 62
    7
 10
278.71339540223818
 20
121.14933323215794
 11
272.71342509501693
 21
127.1493282833615
  0
LINE
  8
_1-1_
  6
CONTINUOUS
 62
    7
 10
278.71339540223818
 20
122.84638688370988
 11
272.71342509501693
 21
128.84638193491344
  0
LINE
  8
_1-1_
  6
CONTINUOUS
 62
    7
 10
278.71339540223818
 20
124.54344053526184
 11
272.71342509501693
 21
130.54343558646539
  0
LINE
  8
_1-1_
  6
CONTINUOUS
 62
    7
 10
278.71339540223818
 20
126.24050655880491
 11
272.71342509501693
 21
132.24048923801732
  0
LINE
  8
_1-1_
  6
CONTINUOUS
 62
    7
 10
278.71339540223818
 20
127.93754783836572
 11
274.24794789907094
 21
132.40300771352409
  0
LINE
  8
_1-1_
  6
CONTINUOUS
 62
    7
 10
278.71339540223818
 20
129.6346138619088
 11
275.94501392261401
 21
132.40300771352409
  0
LINE
  8
_1-1_
  6
CONTINUOUS
 62
    7
 10
278.71339540223818
 20
131.33165514146961
 11
277.64205520217484
 21
132.40300771352409
  0
LINE
  8
_1-1_
  6
CONTINUOUS
 62
    7
 10
272.71342509501693
 20
132.24048923801732
 11
261.41131426836995
 21
121.40214249894426
  0
LINE
  8
_1-1_
  6
CONTINUOUS
 62
    7
 10
128.71344489020271
 20
132.40300771352409
 11
117.5619259396115
 21
121.25153825089738
  0
LINE
  8
_1-1_
  6
CONTINUOUS
 62
    7
 10
200.71338550464529
 20
132.40300771352409
 11
189.56196552998313
 21
121.25153825089738
  0
LINE
  8
_1-1_
  6
CONTINUOUS
 62
    7
 10
263.71339540223818
 20
136.00299732105154
 11
267.57142762880068
 21
136.00299732105154
  0
LINE
  8
_1-1_
  6
CONTINUOUS
 62
    7
 10
267.57142762880068
 20
136.00299732105154
 11
267.57142762880068
 21
138.40300276472763
  0
LINE
  8
_1-1_
  6
CONTINUOUS
 62
    7
 10
269.03738485800255
 20
138.40300276472763
 11
267.57142762880068
 21
136.93703316353464
  0
LINE
  8
_1-1_
  6
CONTINUOUS
 62
    7
 10
266.63739178631761
 20
136.00299732105154
 11
263.71339540223818
 21
133.0790256809544
  0
LINE
  8
_1-1_
  6
CONTINUOUS
 62
    7
 10
264.94032576277453
 20
136.00299732105154
 11
263.71339540223818
 21
134.77606696051521
  0
LINE
  8
_1-1_
  6
CONTINUOUS
 62
    7
 10
263.71339540223818
 20
136.00299732105154
 11
263.71339540223818
 21
132.40300771352409
  0
LINE
  8
_1-1_
  6
CONTINUOUS
 62
    7
 10
263.05280530774917
 20
143.015231570682
 11
268.61168938714104
 21
143.015231570682
  0
LINE
  8
_1-1_
  6
CONTINUOUS
 62
    7
 10
263.05280530774917
 20
139.41522959116344
 11
268.61168938714104
 21
139.41522959116344
  0
LINE
  8
_1-1_
  6
CONTINUOUS
 62
    7
 10
268.61168938714104
 20
143.015231570682
 11
268.61168938714104
 21
139.41522959116344
  0
LINE
  8
_1-1_
  6
CONTINUOUS
 62
    7
 10
200.71338550464529
 20
138.81523750923776
 11
200.71338550464529
 21
139.41522959116344
  0
LINE
  8
_1-1_
  6
CONTINUOUS
 62
    7
 10
200.71338550464529
 20
139.41522959116344
 11
195.91339936127534
 21
139.41522959116344
  0
LINE
  8
_1-1_
  6
CONTINUOUS
 62
    7
 10
195.91339936127534
 20
139.41522959116344
 11
195.91339936127534
 21
138.81523750923776
  0
LINE
  8
_1-1_
  6
CONTINUOUS
 62
    7
 10
195.91339936127534
 20
138.81523750923776
 11
200.71338550464529
 21
138.81523750923776
  0
LINE
  8
_1-1_
  6
CONTINUOUS
 62
    7
 10
200.71338550464529
 20
139.41522959116344
 11
195.91339936127534
 21
138.81523750923776
  0
LINE
  8
_1-1_
  6
CONTINUOUS
 62
    7
 10
128.67227090371622
 20
138.81523750923776
 11
128.67227090371622
 21
139.41522959116344
  0
LINE
  8
_1-1_
  6
CONTINUOUS
 62
    7
 10
128.67227090371622
 20
139.41522959116344
 11
123.87223527238176
 21
139.41522959116344
  0
LINE
  8
_1-1_
  6
CONTINUOUS
 62
    7
 10
123.87223527238176
 20
139.41522959116344
 11
123.87223527238176
 21
138.81523750923776
  0
LINE
  8
_1-1_
  6
CONTINUOUS
 62
    7
 10
123.87223527238176
 20
138.81523750923776
 11
128.67227090371622
 21
138.81523750923776
  0
LINE
  8
_1-1_
  6
CONTINUOUS
 62
    7
 10
128.67227090371622
 20
139.41522959116344
 11
123.87223527238176
 21
138.81523750923776
  0
LINE
  8
_1-1_
  6
CONTINUOUS
 62
    7
 10
198.31678235853042
 20
138.40300276472763
 11
199.334056957348
 21
141.1979963972762
  0
LINE
  8
_0-0_
  6
CONTINUOUS
 62
    5
 10
6.7567526327597136
 20
280.13513513513516
 11
406.75677325274495
 21
280.13513513513516
  0
LINE
  8
_0-0_
  6
CONTINUOUS
 62
    5
 10
406.75677325274495
 20
10.13513513513513
 11
6.7567526327597136
 21
10.13513513513513
  0
LINE
  8
_0-0_
  6
CONTINUOUS
 62
    5
 10
406.75677325274495
 20
30.135133073136615
 11
6.7567402607685949
 21
30.135133073136615
  0
LINE
  8
_0-0_
  6
CONTINUOUS
 62
    5
 10
371.75678150073907
 20
10.13513513513513
 11
371.75678150073907
 21
30.135133073136615
  0
LINE
  8
_0-0_
  6
CONTINUOUS
 62
    5
 10
137.02703939901818
 20
30.135133073136615
 11
137.02703939901818
 21
10.13513513513513
  0
LINE
  8
_0-0_
  6
CONTINUOUS
 62
    5
 10
214.86486486486487
 20
30.135133073136615
 11
214.86486486486487
 21
10.13513513513513
  0
LINE
  8
_0-0_
  6
CONTINUOUS
 62
    5
 10
137.02703939901818
 20
20.135134104135886
 11
214.86486486486487
 21
20.135134104135886
  0
LINE
  8
_0-0_
  6
CONTINUOUS
 62
    5
 10
396.48648648648651
 20
25.945945945945951
 11
383.91891891891896
 21
13.378379924877265
  0
LINE
  8
_1-1_
  6
DASHED1
 62
    3
 10
269.50487291490708
 20
142.37165296399917
 11
269.50487291490708
 21
142.50894494958825
  0
LINE
  8
_1-1_
  6
CONTINUOUS
 62
    7
 10
263.71339540223818
 20
132.40300771352409
 11
96.486486486486498
 21
132.40300771352409
  0
LINE
  8
_1-1_
  6
CONTINUOUS
 62
    7
 10
263.71339540223818
 20
136.00299732105154
 11
96.486486486486498
 21
136.00299732105154
  0
LINE
  8
_1-1_
  6
CONTINUOUS
 62
    7
 10
263.05280530774917
 20
139.41522959116344
 11
96.486486486486498
 21
139.41522959116344
  0
LINE
  8
_1-1_
  6
DASHED1
 62
    3
 10
269.50487291490708
 20
138.68475011877112
 11
96.486486486486498
 21
138.68475011877112
  0
LINE
  8
_1-1_
  6
CONTINUOUS
 62
    7
 10
263.05280530774917
 20
143.015231570682
 11
96.486486486486498
 21
143.015231570682
  0
LINE
  8
_1-1_
  6
CONTINUOUS
 62
    7
 10
263.71339540223818
 20
138.40300276472763
 11
96.486486486486498
 21
138.40300276472763
  0
LINE
  8
_1-2_
  6
CONTINUOUS
 62
    7
 10
161.93709089949326
 20
60.948560560071797
 11
170.12564169394005
 21
60.948560560071797
  0
LINE
  8
_1-1_
  6
CONTINUOUS
 62
    7
 10
198.46346468538852
 20
138.80597088788008
 11
170.12564169394005
 21
60.948560560071797
  0
LINE
  8
_1-1_
  6
CONTINUOUS
 62
    7
 10
270.31340727934969
 20
142.36059240392737
 11
281.11341321790542
 21
144.43022856841216
  0
LINE
  8
_1-1_
  6
CONTINUOUS
 62
    7
 10
270.31340727934969
 20
142.36059240392737
 11
270.31340727934969
 21
138.40300276472763
  0
LINE
  8
_1-1_
  6
CONTINUOUS
 62
    7
 10
284.71341519742401
 20
138.40300276472763
 11
263.71339540223818
 21
138.40300276472763
  0
LINE
  8
_1-1_
  6
CONTINUOUS
 62
    7
 10
281.11341321790542
 20
144.43022856841216
 11
281.11341321790542
 21
138.40300276472763
  0
LINE
  8
_1-1_
  6
DASHED1
 62
    3
 10
269.50487291490708
 20
138.68475011877112
 11
269.50487291490708
 21
142.37165296399917
  0
LINE
  8
_1-1_
  6
DASHED1
 62
    3
 10
269.50487291490708
 20
142.37165296399917
 11
277.32758393158787
 21
143.85768993480787
  0
LINE
  8
_1-1_
  6
CONTINUOUS
 62
    7
 10
270.31340727934969
 20
138.40300276472763
 11
281.11341321790542
 21
144.43022856841216
  0
TEXT
  8
_0-0_
 62
    7
 10
141.89189395389042
 20
14.594594594594582
 40
2.5
 41
1
 50
0
  1
縮尺
  0
TEXT
  8
_0-0_
 62
    7
 10
377.10214563318203
 20
22.865493362014362
 40
2.5
 41
1
 50
0
  1
ＮＯ
  0
TEXT
  8
_0-0_
 62
    7
 10
14.594594336844779
 20
24.324324324324323
 40
2.5
 41
1
 50
0
  1
和形
  0
TEXT
  8
_0-0_
 62
    7
 10
25.556194717819636
 20
20.211577544341225
 40
2.5
 41
1
 50
0
  1
木造
  0
TEXT
  8
_0-0_
 62
    7
 10
383.23801896378802
 20
18.523427086907475
 40
3
 41
1
 50
0
  1
Ｊ
  0
TEXT
  8
_1-0_
 62
    7
 10
169.90681828679266
 20
13.3181144095756
 40
2.5
 41
1
 50
0
  1
1/5
  0
TEXT
  8
_1-2_
 62
    7
 10
249.83642578125
 20
90.67541173986487
 40
2.5
 41
1
 50
0
  1
破風板
  0
TEXT
  8
_1-2_
 62
    7
 10
115.29201404468435
 20
91.517536060230157
 40
2.5
 41
1
 50
0
  1
瓦桟
  0
TEXT
  8
_1-2_
 62
    7
 10
115.29201404468435
 20
83.517534410631342
 40
2.5
 41
1
 50
0
  1
流桟
  0
TEXT
  8
_1-1_
 62
    7
 10
115.41256466427365
 20
67.517531111433698
 40
2.5
 41
1
 50
0
  1
化粧野地板　ｔ＝12
  0
TEXT
  8
_1-1_
 62
    7
 10
280.46344241580448
 20
93.9569091796875
 40
2.5
 41
1
 50
0
  1
30
  0
TEXT
  8
_1-1_
 62
    7
 10
298.17111865894219
 20
115.17583898595862
 40
2.5
 41
1
 50
0
  1
30ｘ105
  0
TEXT
  8
_1-1_
 62
    7
 10
131.20143581081084
 20
75.517532761032527
 40
2.5
 41
1
 50
0
  1
ゴムアス系ルーフィング
  0
TEXT
  8
_1-1_
 62
    7
 10
115.79061765928527
 20
59.43963540566935
 40
2.5
 41
1
 50
0
  1
化粧垂木　60ｘ60
  0
TEXT
  8
_0-0_
 62
    7
 10
141.89189395389042
 20
14.594594594594582
 40
2.5
 41
1
 50
0
  1
縮尺
  0
TEXT
  8
_0-0_
 62
    7
 10
377.10214563318203
 20
22.865493362014362
 40
2.5
 41
1
 50
0
  1
ＮＯ
  0
TEXT
  8
_0-0_
 62
    7
 10
14.594594336844779
 20
24.324324324324323
 40
2.5
 41
1
 50
0
  1
和形
  0
TEXT
  8
_0-0_
 62
    7
 10
25.556194717819636
 20
20.211577544341225
 40
2.5
 41
1
 50
0
  1
木造
  0
TEXT
  8
_0-0_
 62
    7
 10
383.23801896378802
 20
18.523427086907475
 40
3
 41
1
 50
0
  1
Ｊ
  0
TEXT
  8
_1-0_
 62
    7
 10
169.90681828679266
 20
13.3181144095756
 40
2.5
 41
1
 50
0
  1
1/5
  0
TEXT
  8
_1-0_
 62
    7
 10
115.29948260333089
 20
75.454707790065456
 40
2.5
 41
1
 50
0
  1
下葺き材
  0
TEXT
  8
_1-0_
 62
    7
 10
42.994886346765469
 20
15.266879313700912
 40
2.5
 41
1
 50
0
  1
袖ー2
  0
POINT
  8
_1-1_
 62
    7
 10
284.71341519742401
 20
93.456907530088685
  0
POINT
  8
_1-1_
 62
    7
 10
278.71339540223818
 20
93.456907530088685
  0
LINE
  8
_1-2_
  6
CONTINUOUS
 62
    7
 10
301.44290715985392
 20
163.7837837837838
 11
309.75386643455835
 21
163.7837837837838
  0
LINE
  8
_1-2_
  6
CONTINUOUS
 62
    7
 10
292.28449123660647
 20
138.62125706028294
 11
301.44290715985392
 21
163.7837837837838
  0
LINE
  8
_1-0_
  6
CONTINUOUS
 62
    3
 10
132.34307673861241
 20
152.84291035420188
 11
133.73255031863772
 21
152.84291035420188
  0
LINE
  8
_1-0_
  6
CONTINUOUS
 62
    3
 10
133.73255031863772
 20
152.84291035420188
 11
133.73255031863772
 21
149.66167553051099
  0
LINE
  8
_1-0_
  6
CONTINUOUS
 62
    3
 10
133.73255031863772
 20
152.84291035420188
 11
133.73255031863772
 21
149.66167553051099
  0
LINE
  8
_1-0_
  6
CONTINUOUS
 62
    3
 10
131.40414158764111
 20
155.72508940825591
 11
125.73247443709211
 21
152.50010722392315
  0
LINE
  8
_1-0_
  6
CONTINUOUS
 62
    3
 10
185.34305364422892
 20
152.84291035420188
 11
186.73252722425428
 21
152.84291035420188
  0
LINE
  8
_1-0_
  6
CONTINUOUS
 62
    3
 10
125.73247443709211
 20
152.50010722392315
 11
125.73247443709211
 21
149.70017716691302
  0
LINE
  8
_1-0_
  6
CONTINUOUS
 62
    3
 10
130.30493966354902
 20
152.0688196130701
 11
125.73247443709211
 21
149.70017716691302
  0
LINE
  8
_1-0_
  6
CONTINUOUS
 62
    3
 10
186.73252722425428
 20
152.84291035420188
 11
186.73252722425428
 21
149.66167553051099
  0
LINE
  8
_1-0_
  6
CONTINUOUS
 62
    3
 10
184.40411849325767
 20
155.72508940825591
 11
178.73247608669095
 21
152.50010722392315
  0
LINE
  8
_1-0_
  6
CONTINUOUS
 62
    3
 10
238.34305529382777
 20
152.84288561021961
 11
239.73255361783538
 21
152.84288561021961
  0
LINE
  8
_1-0_
  6
CONTINUOUS
 62
    3
 10
178.73247608669095
 20
152.50010722392315
 11
178.73247608669095
 21
149.70017716691302
  0
LINE
  8
_1-0_
  6
CONTINUOUS
 62
    3
 10
183.30494131314788
 20
152.06879486908784
 11
178.73247608669095
 21
149.70017716691302
  0
LINE
  8
_1-0_
  6
CONTINUOUS
 62
    3
 10
239.73255361783538
 20
152.84288561021961
 11
239.73255361783538
 21
149.66167553051099
  0
LINE
  8
_1-0_
  6
CONTINUOUS
 62
    3
 10
239.73255361783538
 20
152.84288561021961
 11
239.73255361783538
 21
149.66167553051099
  0
LINE
  8
_1-0_
  6
CONTINUOUS
 62
    3
 10
237.40409539887423
 20
155.72508940825591
 11
231.73245299230751
 21
152.50010722392315
  0
LINE
  8
_1-0_
  6
CONTINUOUS
 62
    3
 10
231.73245299230751
 20
152.50010722392315
 11
231.73245299230751
 21
149.70017716691302
  0
LINE
  8
_1-0_
  6
CONTINUOUS
 62
    3
 10
236.30491821876444
 20
152.06879486908784
 11
231.73245299230751
 21
149.70017716691302
  0
LINE
  8
_1-0_
  6
CONTINUOUS
 62
    3
 10
292.73253052345189
 20
152.84288561021961
 11
292.73253052345189
 21
149.66167553051099
  0
LINE
  8
_1-0_
  6
CONTINUOUS
 62
    3
 10
292.73253052345189
 20
152.84288561021961
 11
292.73253052345189
 21
149.66167553051099
  0
LINE
  8
_1-0_
  6
CONTINUOUS
 62
    3
 10
292.73253052345189
 20
149.66167553051099
 11
292.73253052345189
 21
136.2428902290963
  0
LINE
  8
_1-0_
  6
CONTINUOUS
 62
    3
 10
289.53253976120527
 20
136.2428902290963
 11
292.73253052345189
 21
136.2428902290963
  0
LINE
  8
_1-0_
  6
CONTINUOUS
 62
    3
 10
289.53253976120527
 20
148.03708463101773
 11
289.53253976120527
 21
136.2428902290963
  0
LINE
  8
_1-2_
  6
CONTINUOUS
 62
    7
 10
141.1216972780972
 20
150.99735569309544
 11
151.26265962105538
 21
178.85940139358109
  0
LINE
  8
_1-2_
  6
CONTINUOUS
 62
    7
 10
151.26265962105538
 20
178.85940139358109
 11
157.3379134943134
 21
178.85940139358109
  0
LINE
  8
_1-0_
  6
CONTINUOUS
 62
    7
 10
292.73253052345189
 20
196.21621621621622
 11
231.73252722425428
 21
196.21621621621622
  0
LINE
  8
_1-0_
  6
CONTINUOUS
 62
    7
 10
292.73253052345189
 20
161.35135135135135
 11
292.73253052345189
 21
196.21621621621622
  0
LINE
  8
_1-0_
  6
CONTINUOUS
 62
    7
 10
231.73252722425428
 20
161.35135135135135
 11
231.73252722425428
 21
196.21621621621622
  0
LINE
  8
_1-0_
  6
CONTINUOUS
 62
    7
 10
231.73252722425428
 20
196.21621621621622
 11
178.73252557465548
 21
196.21621621621622
  0
LINE
  8
_1-0_
  6
CONTINUOUS
 62
    7
 10
178.73252557465548
 20
161.35135135135135
 11
178.73252557465548
 21
196.21621621621622
  0
LINE
  8
_1-0_
  6
CONTINUOUS
 62
    7
 10
178.73252557465548
 20
196.21621621621622
 11
125.73247443709211
 21
196.21621621621622
  0
LINE
  8
_1-0_
  6
CONTINUOUS
 62
    7
 10
125.73247443709211
 20
161.35135135135135
 11
125.73247443709211
 21
196.21621621621622
  0
LINE
  8
_1-0_
  6
CONTINUOUS
 62
    7
 10
125.73247443709211
 20
196.21621621621622
 11
92.069523766695156
 21
196.21621621621622
  0
LINE
  8
_1-0_
  6
CONTINUOUS
 62
    3
 10
186.73252722425428
 20
152.84291035420188
 11
186.73252722425428
 21
149.66167553051099
  0
ARC
  8
_1-0_
  6
CONTINUOUS
 62
    3
 10
131.30318614000595
 20
152.81351450327281
 40
1.0402513194728542
 50
309.08184814453125
 51
1.6144714355468908
  0
ARC
  8
_1-0_
  6
CONTINUOUS
 62
    3
 10
133.24400513282694
 20
153.27667236328125
 40
3.0627306731971538
 50
42.6905517578125
 51
126.92074584960937
  0
ARC
  8
_1-0_
  6
CONTINUOUS
 62
    3
 10
184.30318778960481
 20
152.81351450327281
 40
1.0402513194728542
 50
309.08184814453125
 51
1.6144714355468908
  0
ARC
  8
_1-0_
  6
CONTINUOUS
 62
    3
 10
162.86522425233704
 20
192.66498462573904
 40
46.274049088761615
 50
233.73811340332031
 51
298.51937866210937
  0
ARC
  8
_1-0_
  6
CONTINUOUS
 62
    3
 10
133.05728704266642
 20
148.35024447054477
 40
4.6263270764737516
 50
47.123046875000007
 51
126.50717163085939
  0
ARC
  8
_1-0_
  6
CONTINUOUS
 62
    3
 10
163.17212386435142
 20
192.10438496357688
 40
48.543530025997683
 50
236.25315856933597
 51
299.03501892089844
  0
ARC
  8
_1-0_
  6
CONTINUOUS
 62
    3
 10
186.24400678242574
 20
153.27667236328125
 40
3.0627306731971538
 50
42.6905517578125
 51
126.92074584960937
  0
ARC
  8
_1-0_
  6
CONTINUOUS
 62
    3
 10
237.30318943920361
 20
152.81348975929055
 40
1.0402513194728542
 50
309.08184814453125
 51
1.6144714355468908
  0
ARC
  8
_1-0_
  6
CONTINUOUS
 62
    3
 10
215.86520115795361
 20
192.66498462573904
 40
46.274049088761615
 50
233.73811340332031
 51
298.51937866210937
  0
ARC
  8
_1-0_
  6
CONTINUOUS
 62
    3
 10
186.05728869226527
 20
148.3502197265625
 40
4.6263270764737516
 50
47.123046875000007
 51
126.50717163085939
  0
ARC
  8
_1-0_
  6
CONTINUOUS
 62
    3
 10
216.17212551395022
 20
192.10438496357688
 40
48.543530025997683
 50
236.25315856933597
 51
299.03501892089844
  0
ARC
  8
_1-0_
  6
CONTINUOUS
 62
    3
 10
239.24398368804231
 20
153.27667236328125
 40
3.0627306731971538
 50
42.6905517578125
 51
126.92074584960937
  0
ARC
  8
_1-0_
  6
CONTINUOUS
 62
    3
 10
239.05726559788184
 20
148.3502197265625
 40
4.6263270764737516
 50
47.123046875000007
 51
126.50717163085939
  0
ARC
  8
_1-0_
  6
CONTINUOUS
 62
    3
 10
269.0248014931521
 20
193.10055294552365
 40
46.719762441274284
 50
233.89616394042969
 51
300.49382019042969
  0
ARC
  8
_1-0_
  6
CONTINUOUS
 62
    3
 10
269.17210241956678
 20
192.10438496357688
 40
48.543530025997683
 50
236.25315856933597
 51
294.79837036132812
  0
ARC
  8
_1-0_
  6
CONTINUOUS
 62
    3
 10
109.86519785875596
 20
192.66498462573904
 40
46.274049088761615
 50
245.24868774414062
 51
298.51937866210937
  0
ARC
  8
_1-0_
  6
CONTINUOUS
 62
    3
 10
110.17212221475259
 20
192.10438496357688
 40
48.543530025997683
 50
246.08197021484381
 51
299.03501892089849
  0
TEXT
  8
_1-2_
 62
    7
 10
310.86286697562673
 20
162.64617919921875
 40
2.5
 41
1
 50
0
  1
左袖瓦
  0
TEXT
  8
_1-2_
 62
    7
 10
158.5682234704272
 20
178.13997010926943
 40
2.5
 41
1
 50
0
  1
桟瓦
  0
TEXT
  8
_1-0_
 62
    7
 10
260.35752887385308
 20
196.71621786581505
 40
2.5
 41
1
 50
0
  1
305
  0
TEXT
  8
_1-0_
 62
    7
 10
203.35751402746376
 20
196.71621786581505
 40
2.5
 41
1
 50
0
  1
265
  0
TEXT
  8
_1-0_
 62
    7
 10
150.35750000587382
 20
196.71621786581505
 40
2.5
 41
1
 50
0
  1
265
  0
POINT
  8
_1-0_
 62
    7
 10
292.73253052345189
 20
196.21621621621622
  0
POINT
  8
_1-0_
 62
    7
 10
231.73252722425428
 20
196.21621621621622
  0
POINT
  8
_1-0_
 62
    7
 10
178.73252557465548
 20
196.21621621621622
  0
POINT
  8
_1-0_
 62
    7
 10
125.73247443709211
 20
196.21621621621622
  0
LINE
  8
_1-2_
  6
CONTINUOUS
 62
    7
 10
278.19669718069736
 20
140.48334988531619
 11
295.26782801443142
 21
187.3858698608509
  0
LINE
  8
_1-2_
  6
CONTINUOUS
 62
    7
 10
295.26782801443142
 20
187.3858698608509
 11
300.63846556597537
 21
187.3858698608509
  0
TEXT
  8
_1-2_
 62
    7
 10
301.09335245472744
 20
186.20280259467719
 40
2.5
 41
1
 50
0
  1
登り瓦座
  0
TEXT
  8
_1-0_
 62
    7
 10
125.97506548907307
 20
91.517536060230157
 40
2.5
 41
1
 50
0
  1
15×21　以上　（防腐処理）
  0
TEXT
  8
_1-2_
 62
    7
 10
126.03504350763149
 20
87.928074673104447
 40
2.5
 41
1
 50
0
  1
※　地域により瓦桟木の大きさは、異なります
  0
TEXT
  8
_1-0_
 62
    7
 10
396.54908463761615
 20
14.179798847920182
 40
2.5
 41
1
 50
0
  1
6
  0
ENDSEC
  0
EOF
