  0
SECTION
  2
HEADER
  9
$ACADVER
  1
AC1009
  9
$INSBASE
 10
0
 20
0
 30
0
  9
$EXTMIN
 10
0
 20
0
  9
$EXTMAX
 10
420
 20
297
  9
$LIMMIN
 10
0
 20
0
  9
$LIMMAX
 10
420
 20
297
  9
$LTSCALE
 40
1
  0
ENDSEC
  0
SECTION
  2
TABLES
  0
TABLE
  2
LTYPE
 70
     9
  0
LTYPE
  2
CONTINUOUS
 70
    64
  3
実線
 72
    65
 73
     0
 40
0.0
  0
LTYPE
  2
DASHED1
 70
    64
  3
--  --  --  --  --  --  --  --  
 72
    65
 73
     2
 40
2.5
 49
1.25
 49
-1.25
  0
LTYPE
  2
DASHED2
 70
    64
  3
----    ----    ----    ----    
 72
    65
 73
     2
 40
5.0
 49
2.5
 49
-2.5
  0
LTYPE
  2
DASHED3
 70
    64
  3
------  ------  ------  ------  
 72
    65
 73
     2
 40
5.0
 49
3.75
 49
-1.25
  0
LTYPE
  2
CENTER1
 70
    64
  3
----- - ----- - ----- - ----- - 
 72
    65
 73
     4
 40
10.0
 49
6.25
 49
-1.25
 49
1.25
 49
-1.25
  0
LTYPE
  2
CENTER2
 70
    64
  3
----------  --  ----------  --  
 72
    65
 73
     4
 40
20.0
 49
12.5
 49
-2.5
 49
2.5
 49
-2.5
  0
LTYPE
  2
PHANTOM1
 70
    64
  3
--- - - --- - - --- - - --- - - 
 72
    65
 73
     6
 40
10.0
 49
3.25
 49
-1.25
 49
1.25
 49
-1.25
 49
1.25
 49
-1.25
  0
LTYPE
  2
PHANTOM2
 70
    64
  3
--------  -  -  --------  -  -  
 72
    65
 73
     6
 40
20.0
 49
10.0
 49
-2.5
 49
1.25
 49
-2.5
 49
1.25
 49
-2.5
  0
LTYPE
  2
DOT
 70
    64
  3
-   -   -   -   -   -   -   -   
 72
    65
 73
     2
 40
2.5
 49
0.625
 49
-1.875
  0
LTYPE
  2
DUMMY
 70
    64
  3
ダミー
 72
    65
 73
     0
 40
0.0
  0
LTYPE
  2
RAND1
 70
    64
  3
ランダム線1
 72
    65
 73
     4
 40
10.0
 49
1.0
 49
-2.0
 49
3.0
 49
-4.0
  0
LTYPE
  2
RAND2
 70
    64
  3
ランダム線2
 72
    65
 73
     4
 40
14.0
 49
2.0
 49
-3.0
 49
4.0
 49
-5.0
  0
LTYPE
  2
RAND3
 70
    64
  3
ランダム線3
 72
    65
 73
     4
 40
18.0
 49
3.0
 49
-4.0
 49
5.0
 49
-6.0
  0
LTYPE
  2
RAND4
 70
    64
  3
ランダム線4
 72
    65
 73
     4
 40
22.0
 49
4.0
 49
-5.0
 49
6.0
 49
-7.0
  0
LTYPE
  2
RAND5
 70
    64
  3
ランダム線5
 72
    65
 73
     4
 40
26.0
 49
5.0
 49
-6.0
 49
7.0
 49
-8.0
  0
LTYPE
  2
LONG1
 70
    64
  3
----------  --  ----------  --  
 72
    65
 73
     4
 40
40.0
 49
32.5
 49
-2.5
 49
2.5
 49
-2.5
  0
LTYPE
  2
LONG2
 70
    64
  3
--------  -  -  --------  -  -  
 72
    65
 73
     6
 40
40.0
 49
30.0
 49
-2.5
 49
1.25
 49
-2.5
 49
1.25
 49
-2.5
  0
LTYPE
  2
LONG3
 70
    64
  3
+++++++++++++++..+++++++++++++++
 72
    65
 73
     2
 40
40.0
 49
37.5
 49
-2.5
  0
LTYPE
  2
LONG4
 70
    64
  3
+++++++++++++++..+++++++++++++++
 72
    65
 73
     2
 40
80.0
 49
75.0
 49
-5.0
  0
LTYPE
  2
LONG5
 70
    64
  3
----------  --  ----------  --  
 72
    65
 73
     4
 40
60.0
 49
37.5
 49
-7.5
 49
7.5
 49
-7.5
  0
LTYPE
  2
dashed
 70
   64
  3
-------   -------------   ------
 72
   65
 73
    2
 40
7.5
 49
6
 49
-1.5
  0
LTYPE
  2
dashed_spaced
 70
   64
  3
----        --------        ----
 72
   65
 73
    2
 40
12
 49
6
 49
-6
  0
LTYPE
  2
long_dashed_dotted
 70
   64
  3
------------- --- --------------
 72
   65
 73
    4
 40
15.25
 49
12
 49
-1.5
 49
0.25
 49
-1.5
  0
LTYPE
  2
long_dashed_double-dotted
 70
   64
  3
----------- --- --- ------------
 72
   65
 73
    6
 40
17
 49
12
 49
-1.5
 49
0.25
 49
-1.5
 49
0.25
 49
-1.5
  0
LTYPE
  2
long_dashed_triplicate-dotted
 70
   64
  3
--------- --- --- --- ----------
 72
   65
 73
    8
 40
18.75
 49
12
 49
-1.5
 49
0.25
 49
-1.5
 49
0.25
 49
-1.5
 49
0.25
 49
-1.5
  0
LTYPE
  2
dotted
 70
   64
  3
   -       -       -       -    
 72
   65
 73
    2
 40
1.75
 49
0.25
 49
-1.5
  0
LTYPE
  2
chain
 70
   64
  3
-------------- -- --------------
 72
   65
 73
    4
 40
18.5
 49
12
 49
-1.5
 49
3.5
 49
-1.5
  0
LTYPE
  2
chain_double_dash
 70
   64
  3
------------ -- -- -------------
 72
   65
 73
    6
 40
23.5
 49
12
 49
-1.5
 49
3.5
 49
-1.5
 49
3.5
 49
-1.5
  0
LTYPE
  2
dashed_dotted
 70
   64
  3
-----------     -     ----------
 72
   65
 73
    4
 40
9.25
 49
6
 49
-1.5
 49
0.25
 49
-1.5
  0
LTYPE
  2
double-dashed_dotted
 70
   64
  3
------   -----------   -   -----
 72
   65
 73
    6
 40
16.75
 49
6
 49
-1.5
 49
6
 49
-1.5
 49
0.25
 49
-1.5
  0
LTYPE
  2
dashed_double-dotted
 70
   64
  3
---------    -    -    ---------
 72
   65
 73
    6
 40
11
 49
6
 49
-1.5
 49
0.25
 49
-1.5
 49
0.25
 49
-1.5
  0
LTYPE
  2
double-dashed_double-dotted
 70
   64
  3
-----   ---------   -   -   ----
 72
   65
 73
    8
 40
18.5
 49
6
 49
-1.5
 49
6
 49
-1.5
 49
0.25
 49
-1.5
 49
0.25
 49
-1.5
  0
LTYPE
  2
dashed_triplicate-dotted
 70
   64
  3
-------    -    -    -    ------
 72
   65
 73
    8
 40
12.75
 49
6
 49
-1.5
 49
0.25
 49
-1.5
 49
0.25
 49
-1.5
 49
0.25
 49
-1.5
  0
LTYPE
  2
double-dashed_triplicate-dotted
 70
   64
  3
-----  ---------  -  -  -  -----
 72
   65
 73
   10
 40
20.25
 49
6
 49
-1.5
 49
6
 49
-1.5
 49
0.25
 49
-1.5
 49
0.25
 49
-1.5
 49
0.25
 49
-1.5
  0
LTYPE
  2
undefined
 70
   64
  3
--------------------------------
 72
   65
 73
    0
 40
0
  0
ENDTAB
  0
TABLE
  2
STYLE
  5
3
100
AcDbSymbolTable
 70
     1
  0
STYLE
  5
10
100
AcDbSymbolTableRecord
100
AcDbTextStyleTableRecord
  2
STANDARD
 70
     0
 40
0.0
 41
1.0
 50
0.0
 71
     0
 42
0.2
  3
txt
  4
bigfont.shx
  0
STYLE
  5
26
100
AcDbSymbolTableRecord
100
AcDbTextStyleTableRecord
  2
TATEGAKI
 70
    68
 40
0.0
 41
1.0
 50
0.0
 71
     0
 42
1.0
  3
txt
  4
bigfont.shx
  0
ENDTAB
  0
TABLE
  2
LAYER
 70
    6
  0
LAYER
  2
_0-0_
 70
   64
 62
    7
  6
CONTINUOUS
  0
LAYER
  2
_1-0_
 70
   64
 62
    7
  6
CONTINUOUS
  0
LAYER
  2
_1-1_
 70
   64
 62
    7
  6
CONTINUOUS
  0
LAYER
  2
_1-2_
 70
   64
 62
    7
  6
CONTINUOUS
  0
LAYER
  2
_1-3_
 70
   64
 62
    7
  6
CONTINUOUS
  0
LAYER
  2
ADD_LINE
 70
   64
 62
    7
  6
CONTINUOUS
  0
ENDTAB
  0
ENDSEC
  0
SECTION
  2
BLOCKS
  0
ENDSEC
  0
SECTION
  2
ENTITIES
  0
LINE
  8
_0-0_
  6
CONTINUOUS
 62
    5
 10
6.7567526327597136
 20
280.13513513513516
 11
406.75677325274495
 21
280.13513513513516
  0
LINE
  8
_0-0_
  6
CONTINUOUS
 62
    5
 10
406.75677325274495
 20
10.13513513513513
 11
6.7567526327597136
 21
10.13513513513513
  0
LINE
  8
_0-0_
  6
CONTINUOUS
 62
    5
 10
406.75677325274495
 20
30.135133073136615
 11
6.7567402607685949
 21
30.135133073136615
  0
LINE
  8
_0-0_
  6
CONTINUOUS
 62
    5
 10
371.75678150073907
 20
10.13513513513513
 11
371.75678150073907
 21
30.135133073136615
  0
LINE
  8
_0-0_
  6
CONTINUOUS
 62
    5
 10
137.02703939901818
 20
30.135133073136615
 11
137.02703939901818
 21
10.13513513513513
  0
LINE
  8
_0-0_
  6
CONTINUOUS
 62
    5
 10
214.86486486486487
 20
30.135133073136615
 11
214.86486486486487
 21
10.13513513513513
  0
LINE
  8
_0-0_
  6
CONTINUOUS
 62
    5
 10
137.02703939901818
 20
20.135134104135886
 11
214.86486486486487
 21
20.135134104135886
  0
LINE
  8
_0-0_
  6
CONTINUOUS
 62
    5
 10
396.48648648648651
 20
25.945945945945951
 11
383.91891891891896
 21
13.378379924877265
  0
LINE
  8
_1-1_
  6
CONTINUOUS
 62
    7
 10
272.27033460462417
 20
199.29039620064401
 11
272.27033460462417
 21
115.94594594594595
  0
LINE
  8
_1-1_
  6
CONTINUOUS
 62
    7
 10
126.31341470254435
 20
136.32645065720018
 11
66.486474114495365
 21
136.32645065720018
  0
LINE
  8
_1-1_
  6
CONTINUOUS
 62
    7
 10
268.30924369193411
 20
132.3484348606419
 11
268.30924369193411
 21
162.3484348606419
  0
LINE
  8
_1-1_
  6
CONTINUOUS
 62
    7
 10
268.30924369193411
 20
162.3484348606419
 11
271.30925358952703
 21
162.3484348606419
  0
LINE
  8
_1-1_
  6
CONTINUOUS
 62
    7
 10
271.30925358952703
 20
162.3484348606419
 11
271.30925358952703
 21
132.3484348606419
  0
LINE
  8
_1-1_
  6
CONTINUOUS
 62
    7
 10
268.30924369193411
 20
162.3484348606419
 11
271.30925358952703
 21
132.3484348606419
  0
LINE
  8
_1-1_
  6
CONTINUOUS
 62
    7
 10
126.31341470254435
 20
136.32645065720018
 11
242.83313648120779
 21
136.32645065720018
  0
LINE
  8
_1-1_
  6
CONTINUOUS
 62
    7
 10
66.486474114495365
 20
133.32645313159841
 11
242.83313648120779
 21
133.32645313159841
  0
LINE
  8
_1-1_
  6
CONTINUOUS
 62
    7
 10
242.83313648120779
 20
136.32645065720018
 11
242.83313648120779
 21
133.32645313159841
  0
LINE
  8
_1-1_
  6
CONTINUOUS
 62
    7
 10
235.47618144267315
 20
132.72644867768159
 11
235.47618144267315
 21
133.32644075960727
  0
LINE
  8
_1-1_
  6
CONTINUOUS
 62
    7
 10
235.47618144267315
 20
133.32644075960727
 11
240.2761675860431
 21
133.32644075960727
  0
LINE
  8
_1-1_
  6
CONTINUOUS
 62
    7
 10
240.2761675860431
 20
133.32644075960727
 11
240.2761675860431
 21
132.72644867768159
  0
LINE
  8
_1-1_
  6
CONTINUOUS
 62
    7
 10
240.2761675860431
 20
132.72644867768159
 11
235.47618144267315
 21
132.72644867768159
  0
LINE
  8
_1-1_
  6
CONTINUOUS
 62
    7
 10
235.47618144267315
 20
132.72644867768159
 11
240.2761675860431
 21
133.32644075960727
  0
LINE
  8
_1-1_
  6
CONTINUOUS
 62
    7
 10
66.486474114495365
 20
132.72644867768159
 11
240.2761675860431
 21
132.72644867768159
  0
LINE
  8
_1-1_
  6
CONTINUOUS
 62
    3
 10
243.88814565297722
 20
132.47366415487755
 11
243.88814565297722
 21
136.32645065720018
  0
LINE
  8
_1-1_
  6
CONTINUOUS
 62
    3
 10
243.88814565297722
 20
136.32645065720018
 11
247.99698288376268
 21
136.32645065720018
  0
LINE
  8
_1-1_
  6
CONTINUOUS
 62
    3
 10
265.36748112858953
 20
162.47366415487755
 11
265.36748112858953
 21
158.96979254645271
  0
LINE
  8
_1-1_
  6
CONTINUOUS
 62
    3
 10
265.36748112858953
 20
162.47366415487755
 11
267.80305604676943
 21
162.47366415487755
  0
LINE
  8
_1-1_
  6
CONTINUOUS
 62
    3
 10
267.80305604676943
 20
132.47366415487755
 11
267.80305604676943
 21
162.47366415487755
  0
LINE
  8
_1-0_
  6
CONTINUOUS
 62
    3
 10
242.81123805690459
 20
156.28124752560177
 11
242.81123805690459
 21
150.88124455632391
  0
LINE
  8
_1-2_
  6
CONTINUOUS
 62
    3
 10
263.31123145850933
 20
159.88124950512037
 11
263.31123145850933
 21
156.28124752560177
  0
LINE
  8
_1-0_
  6
CONTINUOUS
 62
    3
 10
245.0314660974451
 20
163.21938592034419
 11
245.0314660974451
 21
157.8193829510663
  0
LINE
  8
_1-2_
  6
CONTINUOUS
 62
    3
 10
265.53145949904984
 20
166.81938789986276
 11
265.53145949904984
 21
163.21938592034419
  0
LINE
  8
_1-1_
  6
CONTINUOUS
 62
    7
 10
272.27033460462417
 20
129.09926543364654
 11
66.486474114495365
 21
129.09926543364654
  0
LINE
  8
_1-1_
  6
CONTINUOUS
 62
    7
 10
272.27033460462417
 20
131.49927087732263
 11
66.486474114495365
 21
131.49927087732263
  0
LINE
  8
_1-1_
  6
CONTINUOUS
 62
    3
 10
243.88814565297722
 20
132.47366415487755
 11
267.80305604676943
 21
132.47366415487755
  0
LINE
  8
_1-1_
  6
DASHED1
 62
    3
 10
271.80579108160896
 20
131.99859206740922
 11
66.486474114495365
 21
131.99859206740922
  0
LINE
  8
_1-1_
  6
CONTINUOUS
 62
    7
 10
271.30925358952703
 20
132.3484348606419
 11
268.30924369193411
 21
132.3484348606419
  0
LINE
  8
_1-1_
  6
CONTINUOUS
 62
    7
 10
272.27033460462417
 20
115.94594594594595
 11
272.27033460462417
 21
85.128089286185599
  0
LINE
  8
_1-1_
  6
CONTINUOUS
 62
    7
 10
260.27034450221709
 20
117.09926295924832
 11
260.27034450221709
 21
129.09926543364654
  0
LINE
  8
_1-1_
  6
CONTINUOUS
 62
    7
 10
260.27034450221709
 20
129.09926543364654
 11
272.27033460462417
 21
129.09926543364654
  0
LINE
  8
_1-1_
  6
CONTINUOUS
 62
    7
 10
272.27033460462417
 20
129.09926543364654
 11
272.27033460462417
 21
117.09926295924832
  0
LINE
  8
_1-1_
  6
CONTINUOUS
 62
    7
 10
272.27033460462417
 20
117.09926295924832
 11
260.27034450221709
 21
117.09926295924832
  0
LINE
  8
_1-1_
  6
CONTINUOUS
 62
    7
 10
272.27033460462417
 20
129.09926543364654
 11
260.27034450221709
 21
117.09926295924832
  0
LINE
  8
_1-1_
  6
CONTINUOUS
 62
    7
 10
252.66617233688768
 20
165.98612192514781
 11
252.12566478832349
 21
168.93702738993878
  0
LINE
  8
_1-1_
  6
CONTINUOUS
 62
    7
 10
252.12566478832349
 20
168.93702738993878
 11
269.83109757706927
 21
172.18009742530617
  0
LINE
  8
_1-1_
  6
CONTINUOUS
 62
    7
 10
269.83109757706927
 20
172.18009742530617
 11
270.37160512563344
 21
169.22919196051521
  0
LINE
  8
_1-1_
  6
CONTINUOUS
 62
    7
 10
270.37160512563344
 20
169.22919196051521
 11
252.66617233688768
 21
165.98612192514781
  0
LINE
  8
_1-1_
  6
CONTINUOUS
 62
    7
 10
252.12566478832349
 20
168.93702738993878
 11
270.37160512563344
 21
169.22919196051521
  0
LINE
  8
_1-1_
  6
CONTINUOUS
 62
    3
 10
251.24178499788852
 20
169.1636204075169
 11
251.13221864442568
 21
165.54784413930534
  0
LINE
  8
_1-1_
  6
CONTINUOUS
 62
    7
 10
265.27033625422297
 20
172.77940904771961
 11
267.67032932590797
 21
172.77940904771961
  0
LINE
  8
_1-1_
  6
CONTINUOUS
 62
    7
 10
267.67032932590797
 20
174.34112548828125
 11
267.67032932590797
 21
182.34112713788008
  0
LINE
  8
_1-1_
  6
CONTINUOUS
 62
    7
 10
267.67032932590797
 20
182.34112713788008
 11
271.27033130542651
 21
182.34112713788008
  0
LINE
  8
_1-1_
  6
CONTINUOUS
 62
    7
 10
271.27033130542651
 20
182.34112713788008
 11
271.27033130542651
 21
174.34112548828125
  0
LINE
  8
_1-1_
  6
CONTINUOUS
 62
    7
 10
271.27033130542651
 20
174.34112548828125
 11
267.67032932590797
 21
174.34112548828125
  0
LINE
  8
_1-1_
  6
CONTINUOUS
 62
    7
 10
271.27033130542651
 20
182.34112713788008
 11
267.67032932590797
 21
174.34112548828125
  0
LINE
  8
_1-1_
  6
CONTINUOUS
 62
    3
 10
251.24178499788852
 20
169.1636204075169
 11
271.55330348659209
 21
172.88403897672086
  0
LINE
  8
_1-1_
  6
CONTINUOUS
 62
    3
 10
271.55330348659209
 20
172.88403897672086
 11
271.55330348659209
 21
184.88897787558068
  0
LINE
  8
ADD_LINE
  6
DOT
 62
    4
 10
272.27033460462417
 20
214.86486486486487
 11
272.27033460462417
 21
112.59930997281462
  0
LINE
  8
_1-1_
  6
CONTINUOUS
 62
    7
 10
272.27033460462417
 20
199.29039620064401
 11
272.27033460462417
 21
214.86486486486487
  0
LINE
  8
_1-1_
  6
CONTINUOUS
 62
    7
 10
267.67032932590797
 20
172.77940904771961
 11
267.67032932590797
 21
214.86486486486487
  0
LINE
  8
_1-1_
  6
CONTINUOUS
 62
    7
 10
265.27033625422297
 20
172.77940904771961
 11
265.27033625422297
 21
214.86486486486487
  0
LINE
  8
_1-1_
  6
CONTINUOUS
 62
    7
 10
199.67035242029141
 20
117.09926295924832
 11
199.67035242029141
 21
129.09926543364654
  0
LINE
  8
_1-1_
  6
CONTINUOUS
 62
    7
 10
199.67035242029141
 20
129.09926543364654
 11
211.67034252269849
 21
129.09926543364654
  0
LINE
  8
_1-1_
  6
CONTINUOUS
 62
    7
 10
211.67034252269849
 20
129.09926543364654
 11
211.67034252269849
 21
117.09926295924832
  0
LINE
  8
_1-1_
  6
CONTINUOUS
 62
    7
 10
211.67034252269849
 20
117.09926295924832
 11
199.67035242029141
 21
117.09926295924832
  0
LINE
  8
_1-1_
  6
CONTINUOUS
 62
    7
 10
211.67034252269849
 20
129.09926543364654
 11
199.67035242029141
 21
117.09926295924832
  0
LINE
  8
_1-1_
  6
CONTINUOUS
 62
    7
 10
139.07036033836573
 20
117.09926295924832
 11
139.07036033836573
 21
129.09926543364654
  0
LINE
  8
_1-1_
  6
CONTINUOUS
 62
    7
 10
139.07036033836573
 20
129.09926543364654
 11
151.07035044077281
 21
129.09926543364654
  0
LINE
  8
_1-1_
  6
CONTINUOUS
 62
    7
 10
151.07035044077281
 20
129.09926543364654
 11
151.07035044077281
 21
117.09926295924832
  0
LINE
  8
_1-1_
  6
CONTINUOUS
 62
    7
 10
151.07035044077281
 20
117.09926295924832
 11
139.07036033836573
 21
117.09926295924832
  0
LINE
  8
_1-1_
  6
CONTINUOUS
 62
    7
 10
151.07035044077281
 20
129.09926543364654
 11
139.07036033836573
 21
117.09926295924832
  0
LINE
  8
_1-1_
  6
CONTINUOUS
 62
    7
 10
78.470368256440054
 20
117.09926295924832
 11
78.470368256440054
 21
129.09926543364654
  0
LINE
  8
_1-1_
  6
CONTINUOUS
 62
    7
 10
78.470368256440054
 20
129.09926543364654
 11
90.470358358847136
 21
129.09926543364654
  0
LINE
  8
_1-1_
  6
CONTINUOUS
 62
    7
 10
90.470358358847136
 20
129.09926543364654
 11
90.470358358847136
 21
117.09926295924832
  0
LINE
  8
_1-1_
  6
CONTINUOUS
 62
    7
 10
90.470358358847136
 20
117.09926295924832
 11
78.470368256440054
 21
117.09926295924832
  0
LINE
  8
_1-1_
  6
CONTINUOUS
 62
    7
 10
90.470358358847136
 20
129.09926543364654
 11
78.470368256440054
 21
117.09926295924832
  0
LINE
  8
_1-1_
  6
CONTINUOUS
 62
    7
 10
203.09510514542865
 20
132.72644867768159
 11
203.09510514542865
 21
133.32644075960727
  0
LINE
  8
_1-1_
  6
CONTINUOUS
 62
    7
 10
203.09510514542865
 20
133.32644075960727
 11
207.89507891680745
 21
133.32644075960727
  0
LINE
  8
_1-1_
  6
CONTINUOUS
 62
    7
 10
207.89507891680745
 20
133.32644075960727
 11
207.89507891680745
 21
132.72644867768159
  0
LINE
  8
_1-1_
  6
CONTINUOUS
 62
    7
 10
207.89507891680745
 20
132.72644867768159
 11
203.09510514542865
 21
132.72644867768159
  0
LINE
  8
_1-1_
  6
CONTINUOUS
 62
    7
 10
203.09510514542865
 20
132.72644867768159
 11
207.89507891680745
 21
133.32644075960727
  0
LINE
  8
_1-1_
  6
CONTINUOUS
 62
    7
 10
141.45506162901182
 20
132.72644867768159
 11
141.45506162901182
 21
133.32644075960727
  0
LINE
  8
_1-1_
  6
CONTINUOUS
 62
    7
 10
141.45506162901182
 20
133.32644075960727
 11
146.25504777238177
 21
133.32644075960727
  0
LINE
  8
_1-1_
  6
CONTINUOUS
 62
    7
 10
146.25504777238177
 20
133.32644075960727
 11
146.25504777238177
 21
132.72644867768159
  0
LINE
  8
_1-1_
  6
CONTINUOUS
 62
    7
 10
146.25504777238177
 20
132.72644867768159
 11
141.45506162901182
 21
132.72644867768159
  0
LINE
  8
_1-1_
  6
CONTINUOUS
 62
    7
 10
141.45506162901182
 20
132.72644867768159
 11
146.25504777238177
 21
133.32644075960727
  0
LINE
  8
_1-1_
  6
CONTINUOUS
 62
    7
 10
80.341879354940886
 20
132.72644867768159
 11
80.341879354940886
 21
133.32644075960727
  0
LINE
  8
_1-1_
  6
CONTINUOUS
 62
    7
 10
80.341879354940886
 20
133.32644075960727
 11
85.141865498310821
 21
133.32644075960727
  0
LINE
  8
_1-1_
  6
CONTINUOUS
 62
    7
 10
85.141865498310821
 20
133.32644075960727
 11
85.141865498310821
 21
132.72644867768159
  0
LINE
  8
_1-1_
  6
CONTINUOUS
 62
    7
 10
85.141865498310821
 20
132.72644867768159
 11
80.341879354940886
 21
132.72644867768159
  0
LINE
  8
_1-1_
  6
CONTINUOUS
 62
    7
 10
80.341879354940886
 20
132.72644867768159
 11
85.141865498310821
 21
133.32644075960727
  0
LINE
  8
_1-3_
  6
CONTINUOUS
 62
    7
 10
145.06313014674831
 20
125.82907599371833
 11
117.64015403953759
 21
201.17309157912797
  0
LINE
  8
_1-3_
  6
CONTINUOUS
 62
    7
 10
265.93233675570104
 20
200.51151172534841
 11
256.27097464896536
 21
227.0558785103463
  0
LINE
  8
_1-3_
  6
CONTINUOUS
 62
    7
 10
261.91455737964526
 20
169.64991389094172
 11
249.71980739284209
 21
203.15468865471919
  0
LINE
  8
_1-3_
  6
CONTINUOUS
 62
    7
 10
251.16003088048987
 20
167.13458911792654
 11
242.86255707611909
 21
189.93169011296453
  0
LINE
  8
_1-3_
  6
CONTINUOUS
 62
    7
 10
247.58531725084461
 20
161.62059062236065
 11
241.25847893792232
 21
179.00342374234586
  0
LINE
  8
_1-3_
  6
CONTINUOUS
 62
    7
 10
233.6168196394637
 20
165.87186658704604
 11
240.99065007390203
 21
145.61244655299831
  0
LINE
  8
_1-3_
  6
CONTINUOUS
 62
    7
 10
245.76331886085305
 20
154.33268366633234
 11
241.25847893792232
 21
179.00342374234586
  0
LINE
  8
_1-3_
  6
CONTINUOUS
 62
    7
 10
240.91253332189612
 20
145.82708822714318
 11
251.83658084353885
 21
147.65210538297086
  0
LINE
  8
_1-3_
  6
CONTINUOUS
 62
    7
 10
255.03286000844597
 20
133.70864868164062
 11
232.83733471019849
 21
72.726918813344597
  0
LINE
  8
_1-3_
  6
CONTINUOUS
 62
    7
 10
255.03286000844597
 20
133.70864868164062
 11
255.9741953256968
 21
132.41811391469597
  0
LINE
  8
_1-3_
  6
CONTINUOUS
 62
    7
 10
256.27097464896536
 20
227.0558785103463
 11
252.75077201224664
 21
227.0558785103463
  0
LINE
  8
_1-3_
  6
CONTINUOUS
 62
    7
 10
249.71980739284209
 20
203.15468865471919
 11
246.92272289379224
 21
203.15468865471919
  0
LINE
  8
_1-3_
  6
CONTINUOUS
 62
    7
 10
242.86255707611909
 20
189.93169011296453
 11
240.87883201805323
 21
189.93169011296453
  0
LINE
  8
_1-3_
  6
CONTINUOUS
 62
    7
 10
241.25847893792232
 20
179.00342374234586
 11
238.9361572265625
 21
179.00342374234586
  0
LINE
  8
_1-3_
  6
CONTINUOUS
 62
    7
 10
233.6168196394637
 20
165.87186658704604
 11
230.08617504222974
 21
165.87186658704604
  0
LINE
  8
_1-3_
  6
CONTINUOUS
 62
    7
 10
232.83733471019849
 20
72.726918813344597
 11
223.7837837837838
 21
72.726918813344597
  0
LINE
  8
_1-3_
  6
CONTINUOUS
 62
    7
 10
113.60742929819469
 20
176.82719050226987
 11
126.5013328758446
 21
176.82719050226987
  0
LINE
  8
_1-3_
  6
CONTINUOUS
 62
    7
 10
113.60742929819469
 20
182.51539900496201
 11
124.43100387985642
 21
182.51539900496201
  0
LINE
  8
_1-3_
  6
CONTINUOUS
 62
    7
 10
113.60742929819469
 20
187.95627903293919
 11
122.45068111935178
 21
187.95627903293919
  0
LINE
  8
_1-3_
  6
CONTINUOUS
 62
    7
 10
113.60742929819469
 20
193.89179126636404
 11
120.29033351588895
 21
193.89179126636404
  0
LINE
  8
_1-3_
  6
CONTINUOUS
 62
    7
 10
117.64015403953759
 20
201.17309157912797
 11
113.60742929819469
 21
201.17309157912797
  0
LINE
  8
_1-3_
  6
CONTINUOUS
 62
    3
 10
271.55330348659209
 20
184.88897787558068
 11
271.55330348659209
 21
202.88897540118245
  0
LINE
  8
_1-3_
  6
CONTINUOUS
 62
    7
 10
305.17141806112755
 20
172.88897540118245
 11
305.17141806112755
 21
202.88897540118245
  0
LINE
  8
_1-3_
  6
CONTINUOUS
 62
    7
 10
277.73625554265203
 20
172.88897540118245
 11
305.17141806112755
 21
172.88897540118245
  0
LINE
  8
_1-3_
  6
CONTINUOUS
 62
    7
 10
277.73625554265203
 20
202.88897540118245
 11
305.17141806112755
 21
202.88897540118245
  0
LINE
  8
_1-3_
  6
CONTINUOUS
 62
    7
 10
113.60742929819469
 20
170.13331232844172
 11
128.93771197344807
 21
170.13331232844172
  0
LINE
  8
_1-1_
  6
DASHED1
 62
    3
 10
271.80579108160896
 20
131.99859206740922
 11
271.80579108160896
 21
212.88898364917654
  0
LINE
  8
_1-3_
  6
CONTINUOUS
 62
    7
 10
305.17141806112755
 20
202.88897540118245
 11
277.73625554265203
 21
202.88897540118245
  0
LINE
  8
_1-3_
  6
CONTINUOUS
 62
    7
 10
305.17141806112755
 20
212.88898364917654
 11
277.73625554265203
 21
212.88898364917654
  0
LINE
  8
_1-3_
  6
CONTINUOUS
 62
    7
 10
305.17141806112755
 20
202.88897540118245
 11
305.17141806112755
 21
212.88898364917654
  0
LINE
  8
_1-3_
  6
CONTINUOUS
 62
    7
 10
294.90848025760135
 20
212.88898364917654
 11
277.73625554265203
 21
212.88898364917654
  0
LINE
  8
_1-3_
  6
CONTINUOUS
 62
    7
 10
294.90848025760135
 20
131.99859206740922
 11
277.73625554265203
 21
131.99859206740922
  0
LINE
  8
_1-3_
  6
CONTINUOUS
 62
    7
 10
294.90848025760135
 20
212.88898364917654
 11
294.90848025760135
 21
131.99859206740922
  0
LINE
  8
_1-0_
  6
CONTINUOUS
 62
    3
 10
107.05454233530406
 20
146.16986661343961
 11
108.4440159153294
 21
146.16986661343961
  0
LINE
  8
_1-0_
  6
CONTINUOUS
 62
    3
 10
108.4440159153294
 20
146.16986661343961
 11
108.4440159153294
 21
142.98863178974875
  0
LINE
  8
_1-0_
  6
CONTINUOUS
 62
    3
 10
108.4440159153294
 20
146.16986661343961
 11
108.4440159153294
 21
142.98863178974875
  0
LINE
  8
_1-0_
  6
CONTINUOUS
 62
    3
 10
106.11560718433277
 20
149.05204566749367
 11
100.44394003378379
 21
145.82708822714318
  0
LINE
  8
_1-0_
  6
CONTINUOUS
 62
    3
 10
160.05451924092063
 20
146.16986661343961
 11
161.44399282094597
 21
146.16986661343961
  0
LINE
  8
_1-0_
  6
CONTINUOUS
 62
    3
 10
100.44394003378379
 20
145.82708822714318
 11
100.44394003378379
 21
143.02713342615075
  0
LINE
  8
_1-0_
  6
CONTINUOUS
 62
    3
 10
105.01640526024072
 20
145.39577587230787
 11
100.44394003378379
 21
143.02713342615075
  0
LINE
  8
_1-0_
  6
CONTINUOUS
 62
    3
 10
161.44399282094597
 20
146.16986661343961
 11
161.44399282094597
 21
142.98863178974875
  0
LINE
  8
_1-0_
  6
CONTINUOUS
 62
    3
 10
161.44399282094597
 20
146.16986661343961
 11
161.44399282094597
 21
142.98863178974875
  0
LINE
  8
_1-0_
  6
CONTINUOUS
 62
    3
 10
159.11558408994932
 20
149.05205803948482
 11
153.4439416833826
 21
145.82708822714318
  0
LINE
  8
_1-0_
  6
CONTINUOUS
 62
    3
 10
213.05452089051943
 20
146.16985424144849
 11
214.44401921452703
 21
146.16985424144849
  0
LINE
  8
_1-0_
  6
CONTINUOUS
 62
    3
 10
153.4439416833826
 20
145.82708822714318
 11
153.4439416833826
 21
143.02713342615075
  0
LINE
  8
_1-0_
  6
CONTINUOUS
 62
    3
 10
158.01640690983953
 20
145.39576350031672
 11
153.4439416833826
 21
143.02713342615075
  0
LINE
  8
_1-0_
  6
CONTINUOUS
 62
    3
 10
214.44401921452703
 20
146.16985424144849
 11
214.44401921452703
 21
142.98863178974875
  0
LINE
  8
_1-0_
  6
CONTINUOUS
 62
    3
 10
214.44401921452703
 20
146.16985424144849
 11
214.44401921452703
 21
142.98863178974875
  0
LINE
  8
_1-0_
  6
CONTINUOUS
 62
    3
 10
213.05459512246622
 20
146.16986661343961
 11
214.44406870249156
 21
146.16986661343961
  0
LINE
  8
_1-0_
  6
CONTINUOUS
 62
    3
 10
214.44406870249156
 20
146.16986661343961
 11
214.44406870249156
 21
142.98863178974875
  0
LINE
  8
_1-0_
  6
CONTINUOUS
 62
    3
 10
214.44406870249156
 20
146.16986661343961
 11
214.44406870249156
 21
142.98863178974875
  0
LINE
  8
_1-0_
  6
CONTINUOUS
 62
    3
 10
214.44406870249156
 20
142.38532401419977
 11
214.44406870249156
 21
142.34664916992187
  0
LINE
  8
_1-0_
  6
CONTINUOUS
 62
    3
 10
212.11565997149495
 20
149.05204566749367
 11
206.44399282094597
 21
145.82708822714318
  0
LINE
  8
_1-0_
  6
CONTINUOUS
 62
    3
 10
266.05457202808276
 20
146.16986661343961
 11
267.44404560810813
 21
146.16986661343961
  0
LINE
  8
_1-0_
  6
CONTINUOUS
 62
    3
 10
206.44399282094597
 20
145.82708822714318
 11
206.44399282094597
 21
143.02713342615075
  0
LINE
  8
_1-0_
  6
CONTINUOUS
 62
    3
 10
211.01645804740289
 20
145.39577587230787
 11
206.44399282094597
 21
143.02713342615075
  0
LINE
  8
ADD_LINE
  6
DOT
 62
    4
 10
235.75848553631758
 20
139.82699420001057
 11
245.94169822899073
 21
139.82699420001057
  0
LINE
  8
_1-0_
  6
CONTINUOUS
 62
    3
 10
267.44404560810813
 20
146.16986661343961
 11
267.44404560810813
 21
142.98863178974875
  0
LINE
  8
_1-0_
  6
CONTINUOUS
 62
    3
 10
267.44404560810813
 20
146.16986661343961
 11
267.44404560810813
 21
142.98863178974875
  0
ARC
  8
_1-0_
  6
CONTINUOUS
 62
    3
 10
263.31123145850933
 20
114.66923069309544
 40
41.612016832506335
 50
90
 51
119.5146484375
  0
ARC
  8
_1-0_
  6
CONTINUOUS
 62
    3
 10
263.31123145850933
 20
99.713225493559975
 40
60.168024011560391
 50
90
 51
109.9202880859375
  0
ARC
  8
_1-0_
  6
CONTINUOUS
 62
    3
 10
265.53145949904984
 20
121.60736908783784
 40
41.612016832506335
 50
90
 51
119.5146484375
  0
ARC
  8
_1-0_
  6
CONTINUOUS
 62
    3
 10
265.53145949904984
 20
106.65136388830237
 40
60.168024011560391
 50
90
 51
109.9202880859375
  0
ARC
  8
_1-2_
  6
CONTINUOUS
 62
    7
 10
244.47524612014359
 20
158.13208502692146
 40
2.2994091704085067
 50
345.13334655761719
 51
14.667602539062505
  0
ARC
  8
_1-3_
  6
CONTINUOUS
 62
    6
 10
229.4545601509713
 20
149.89409575591216
 40
19.372094644082559
 50
329.55064392089844
 51
10.8722381591797
  0
CIRCLE
  8
_1-2_
  6
CONTINUOUS
 62
    7
 10
252.49086122255068
 20
151.13404145111909
 40
0.2324253240147152
  0
CIRCLE
  8
_1-2_
  6
CONTINUOUS
 62
    7
 10
256.92839751372469
 20
151.79145194388727
 40
0.2324253240147152
  0
CIRCLE
  8
_1-2_
  6
CONTINUOUS
 62
    7
 10
258.57194230363177
 20
151.79145194388727
 40
0.2324253240147152
  0
CIRCLE
  8
_1-2_
  6
CONTINUOUS
 62
    7
 10
254.95617840741133
 20
148.83309854043497
 40
0.2324253240147152
  0
CIRCLE
  8
_1-2_
  6
CONTINUOUS
 62
    7
 10
255.94230033255914
 20
147.35390328072214
 40
0.2324253240147152
  0
CIRCLE
  8
_1-2_
  6
CONTINUOUS
 62
    7
 10
257.91454418285474
 20
148.17567567567568
 40
0.2324253240147152
  0
CIRCLE
  8
_1-2_
  6
CONTINUOUS
 62
    7
 10
253.47698314769849
 20
146.69649278795399
 40
0.2324253240147152
  0
CIRCLE
  8
_1-2_
  6
CONTINUOUS
 62
    7
 10
251.34038976720862
 20
143.5737774823163
 40
0.2324253240147152
  0
CIRCLE
  8
_1-2_
  6
CONTINUOUS
 62
    7
 10
249.53249544710727
 20
142.75201745935388
 40
0.2324253240147152
  0
CIRCLE
  8
_1-2_
  6
CONTINUOUS
 62
    7
 10
248.54637352195948
 20
142.91636698954815
 40
0.2324253240147152
  0
CIRCLE
  8
_1-2_
  6
CONTINUOUS
 62
    7
 10
249.53249544710727
 20
144.88861083984375
 40
0.2324253240147152
  0
CIRCLE
  8
_1-2_
  6
CONTINUOUS
 62
    7
 10
250.68296690244935
 20
146.53214325775971
 40
0.2324253240147152
  0
CIRCLE
  8
_1-2_
  6
CONTINUOUS
 62
    7
 10
251.83346310177367
 20
148.01132614548143
 40
0.2324253240147152
  0
CIRCLE
  8
_1-2_
  6
CONTINUOUS
 62
    7
 10
251.0116907068201
 20
148.99744807062922
 40
0.2324253240147152
  0
CIRCLE
  8
_1-2_
  6
CONTINUOUS
 62
    7
 10
250.51861737225508
 20
150.96969192092484
 40
0.2324253240147152
  0
CIRCLE
  8
_1-2_
  6
CONTINUOUS
 62
    7
 10
250.02556878167232
 20
152.1201633762669
 40
0.2324253240147152
  0
CIRCLE
  8
_1-2_
  6
CONTINUOUS
 62
    7
 10
255.94230033255914
 20
153.92805769636826
 40
0.2324253240147152
  0
CIRCLE
  8
_1-2_
  6
CONTINUOUS
 62
    7
 10
259.72241375897386
 20
154.74981771933068
 40
0.2324253240147152
  0
CIRCLE
  8
_1-2_
  6
CONTINUOUS
 62
    7
 10
254.4631050728463
 20
153.76369579418287
 40
0.2324253240147152
  0
CIRCLE
  8
_1-2_
  6
CONTINUOUS
 62
    7
 10
254.79180413323482
 20
148.66873663824958
 40
0.2324253240147152
  0
CIRCLE
  8
_1-2_
  6
CONTINUOUS
 62
    7
 10
253.31263361750425
 20
145.05296037003802
 40
0.2324253240147152
  0
CIRCLE
  8
_1-2_
  6
CONTINUOUS
 62
    7
 10
254.4631050728463
 20
144.23118797508448
 40
0.2324253240147152
  0
CIRCLE
  8
_1-2_
  6
CONTINUOUS
 62
    7
 10
256.27099939294766
 20
144.72424893765836
 40
0.2324253240147152
  0
CIRCLE
  8
_1-2_
  6
CONTINUOUS
 62
    7
 10
260.70853568412161
 20
146.03908229518581
 40
0.2324253240147152
  0
CIRCLE
  8
_1-2_
  6
CONTINUOUS
 62
    7
 10
261.36595854888094
 20
147.51826518290753
 40
0.2324253240147152
  0
CIRCLE
  8
_1-2_
  6
CONTINUOUS
 62
    7
 10
263.17385286898229
 20
148.50438710805534
 40
0.2324253240147152
  0
CIRCLE
  8
_1-2_
  6
CONTINUOUS
 62
    7
 10
260.87288521431589
 20
149.98356999577703
 40
0.2324253240147152
  0
CIRCLE
  8
_1-2_
  6
CONTINUOUS
 62
    7
 10
261.53030807907516
 20
151.627102413693
 40
0.2324253240147152
  0
CIRCLE
  8
_1-2_
  6
CONTINUOUS
 62
    7
 10
263.83125098975933
 20
153.27063483160896
 40
0.2324253240147152
  0
CIRCLE
  8
_1-2_
  6
CONTINUOUS
 62
    7
 10
263.50255192937078
 20
153.76369579418287
 40
0.2324253240147152
  0
CIRCLE
  8
_1-2_
  6
CONTINUOUS
 62
    7
 10
264.98172244510135
 20
154.58546818913641
 40
0.2324253240147152
  0
CIRCLE
  8
_1-2_
  6
CONTINUOUS
 62
    7
 10
265.47479577966641
 20
156.22900060705237
 40
0.2324253240147152
  0
CIRCLE
  8
_1-2_
  6
CONTINUOUS
 62
    7
 10
251.99781263196792
 20
160.33783783783784
 40
0.2324253240147152
  0
CIRCLE
  8
_1-2_
  6
CONTINUOUS
 62
    7
 10
250.02556878167232
 20
159.68042734506969
 40
0.2324253240147152
  0
CIRCLE
  8
_1-2_
  6
CONTINUOUS
 62
    7
 10
248.38202399176521
 20
159.02301685230154
 40
0.2324253240147152
  0
CIRCLE
  8
_1-2_
  6
CONTINUOUS
 62
    7
 10
253.47698314769849
 20
159.5160654428843
 40
0.2324253240147152
  0
CIRCLE
  8
_1-2_
  6
CONTINUOUS
 62
    7
 10
256.76404798353042
 20
160.33783783783784
 40
0.2324253240147152
  0
CIRCLE
  8
_1-2_
  6
CONTINUOUS
 62
    7
 10
254.95617840741133
 20
161.32395976298565
 40
0.2324253240147152
  0
CIRCLE
  8
_1-2_
  6
CONTINUOUS
 62
    7
 10
254.4631050728463
 20
160.83089880041175
 40
0.2324253240147152
  0
CIRCLE
  8
_1-2_
  6
CONTINUOUS
 62
    7
 10
255.7779260583826
 20
160.33783783783784
 40
0.2324253240147152
  0
CIRCLE
  8
_1-2_
  6
CONTINUOUS
 62
    7
 10
258.57194230363177
 20
161.65267119536529
 40
0.2324253240147152
  0
CIRCLE
  8
_1-2_
  6
CONTINUOUS
 62
    7
 10
259.88678803315037
 20
161.4883092931799
 40
0.2324253240147152
  0
CIRCLE
  8
_1-2_
  6
CONTINUOUS
 62
    7
 10
261.20160901868667
 20
160.99526070259714
 40
0.2324253240147152
  0
CIRCLE
  8
_1-2_
  6
CONTINUOUS
 62
    7
 10
262.84512906461151
 20
161.15961023279141
 40
0.2324253240147152
  0
CIRCLE
  8
_1-2_
  6
CONTINUOUS
 62
    7
 10
263.99562526393584
 20
161.9813702557538
 40
0.2324253240147152
  0
CIRCLE
  8
_1-2_
  6
CONTINUOUS
 62
    7
 10
267.77573869035052
 20
163.78926457585516
 40
0.2324253240147152
  0
CIRCLE
  8
_1-2_
  6
CONTINUOUS
 62
    7
 10
266.62526723500844
 20
163.78926457585516
 40
0.2324253240147152
  0
CIRCLE
  8
_1-2_
  6
CONTINUOUS
 62
    7
 10
266.62526723500844
 20
163.95361410604943
 40
0.2324253240147152
  0
CIRCLE
  8
_1-2_
  6
CONTINUOUS
 62
    7
 10
266.95396629539698
 20
164.77538650100297
 40
0.2324253240147152
  0
CIRCLE
  8
_1-2_
  6
CONTINUOUS
 62
    7
 10
264.32432432432432
 20
160.83089880041175
 40
0.2324253240147152
  0
CIRCLE
  8
_1-2_
  6
CONTINUOUS
 62
    7
 10
263.99562526393584
 20
159.5160654428843
 40
0.2324253240147152
  0
CIRCLE
  8
_1-2_
  6
CONTINUOUS
 62
    7
 10
260.37983662373313
 20
153.10628530141472
 40
0.2324253240147152
  0
CIRCLE
  8
_1-2_
  6
CONTINUOUS
 62
    7
 10
257.75016990867823
 20
153.10628530141472
 40
0.2324253240147152
  0
CIRCLE
  8
_1-2_
  6
CONTINUOUS
 62
    7
 10
251.83346310177367
 20
153.92805769636826
 40
0.2324253240147152
  0
CIRCLE
  8
_1-2_
  6
CONTINUOUS
 62
    7
 10
253.97005648226352
 20
152.77757386903505
 40
0.2324253240147152
  0
CIRCLE
  8
_1-2_
  6
CONTINUOUS
 62
    7
 10
252.98393455711573
 20
152.1201633762669
 40
0.2324253240147152
  0
CIRCLE
  8
_1-2_
  6
CONTINUOUS
 62
    7
 10
256.59969845333615
 20
150.31226905616555
 40
0.2324253240147152
  0
CIRCLE
  8
_1-2_
  6
CONTINUOUS
 62
    7
 10
259.39371469858531
 20
148.66873663824958
 40
0.2324253240147152
  0
CIRCLE
  8
_1-2_
  6
CONTINUOUS
 62
    7
 10
252.65521075274495
 20
149.6548585633974
 40
0.2324253240147152
  0
CIRCLE
  8
_1-2_
  6
CONTINUOUS
 62
    7
 10
254.62745460304055
 20
150.64098048854518
 40
0.2324253240147152
  0
CIRCLE
  8
_1-2_
  6
CONTINUOUS
 62
    7
 10
258.90064136402026
 20
155.24287868190456
 40
0.2324253240147152
  0
CIRCLE
  8
_1-2_
  6
CONTINUOUS
 62
    7
 10
256.59969845333615
 20
154.42110628695102
 40
0.2324253240147152
  0
CIRCLE
  8
_1-2_
  6
CONTINUOUS
 62
    7
 10
248.71072305215372
 20
141.93024506440034
 40
0.2324253240147152
  0
CIRCLE
  8
_1-2_
  6
CONTINUOUS
 62
    7
 10
252.49086122255068
 20
142.25894412478885
 40
0.2324253240147152
  0
CIRCLE
  8
_1-2_
  6
CONTINUOUS
 62
    7
 10
253.31263361750425
 20
142.91636698954815
 40
0.2324253240147152
  0
CIRCLE
  8
_1-2_
  6
CONTINUOUS
 62
    7
 10
251.66908882759714
 20
144.39554987726984
 40
0.2324253240147152
  0
CIRCLE
  8
_1-2_
  6
CONTINUOUS
 62
    7
 10
258.4075927734375
 20
145.05296037003802
 40
0.2324253240147152
  0
CIRCLE
  8
_1-2_
  6
CONTINUOUS
 62
    7
 10
256.43534892314193
 20
144.06683844489021
 40
0.2324253240147152
  0
CIRCLE
  8
_1-2_
  6
CONTINUOUS
 62
    7
 10
257.58582037848396
 20
147.18955375052789
 40
0.2324253240147152
  0
CIRCLE
  8
_1-2_
  6
CONTINUOUS
 62
    7
 10
259.55806422877959
 20
147.51826518290753
 40
0.2324253240147152
  0
CIRCLE
  8
_1-2_
  6
CONTINUOUS
 62
    7
 10
261.20160901868667
 20
148.34002520586995
 40
0.2324253240147152
  0
CIRCLE
  8
_1-2_
  6
CONTINUOUS
 62
    7
 10
263.00947859480578
 20
149.49050903320312
 40
0.2324253240147152
  0
CIRCLE
  8
_1-2_
  6
CONTINUOUS
 62
    7
 10
263.00947859480578
 20
150.96969192092484
 40
0.2324253240147152
  0
CIRCLE
  8
_1-2_
  6
CONTINUOUS
 62
    7
 10
263.00947859480578
 20
152.1201633762669
 40
0.2324253240147152
  0
CIRCLE
  8
_1-2_
  6
CONTINUOUS
 62
    7
 10
263.00947859480578
 20
153.27063483160896
 40
0.2324253240147152
  0
CIRCLE
  8
_1-2_
  6
CONTINUOUS
 62
    7
 10
262.68077953441724
 20
154.42110628695102
 40
0.2324253240147152
  0
CIRCLE
  8
_1-2_
  6
CONTINUOUS
 62
    7
 10
262.35208047402875
 20
154.74981771933068
 40
0.2324253240147152
  0
CIRCLE
  8
_1-2_
  6
CONTINUOUS
 62
    7
 10
261.36595854888094
 20
154.74981771933068
 40
0.2324253240147152
  0
CIRCLE
  8
_1-2_
  6
CONTINUOUS
 62
    7
 10
260.05113756334458
 20
153.10628530141472
 40
0.2324253240147152
  0
CIRCLE
  8
_1-2_
  6
CONTINUOUS
 62
    7
 10
258.4075927734375
 20
153.92805769636826
 40
0.2324253240147152
  0
CIRCLE
  8
_1-2_
  6
CONTINUOUS
 62
    7
 10
257.25712131809547
 20
149.98356999577703
 40
0.2324253240147152
  0
CIRCLE
  8
_1-2_
  6
CONTINUOUS
 62
    7
 10
257.42147084828969
 20
149.49050903320312
 40
0.2324253240147152
  0
CIRCLE
  8
_1-2_
  6
CONTINUOUS
 62
    7
 10
259.55806422877959
 20
150.80533001873945
 40
0.2324253240147152
  0
CIRCLE
  8
_1-2_
  6
CONTINUOUS
 62
    7
 10
255.1205279376056
 20
150.80533001873945
 40
0.2324253240147152
  0
CIRCLE
  8
_1-2_
  6
CONTINUOUS
 62
    7
 10
249.86121925147805
 20
148.34002520586995
 40
0.2324253240147152
  0
CIRCLE
  8
_1-2_
  6
CONTINUOUS
 62
    7
 10
249.53249544710727
 20
148.34002520586995
 40
0.2324253240147152
  0
CIRCLE
  8
_1-2_
  6
CONTINUOUS
 62
    7
 10
249.36814591691302
 20
149.98356999577703
 40
0.2324253240147152
  0
CIRCLE
  8
_1-2_
  6
CONTINUOUS
 62
    7
 10
249.86121925147805
 20
151.79145194388727
 40
0.2324253240147152
  0
CIRCLE
  8
_1-2_
  6
CONTINUOUS
 62
    7
 10
249.86121925147805
 20
152.1201633762669
 40
0.2324253240147152
  0
CIRCLE
  8
_1-2_
  6
CONTINUOUS
 62
    7
 10
248.87509732633026
 20
145.71037086280617
 40
0.2324253240147152
  0
CIRCLE
  8
_1-2_
  6
CONTINUOUS
 62
    7
 10
250.84731643264359
 20
144.39554987726984
 40
0.2324253240147152
  0
CIRCLE
  8
_1-2_
  6
CONTINUOUS
 62
    7
 10
248.38202399176521
 20
144.06683844489021
 40
0.2324253240147152
  0
CIRCLE
  8
_1-2_
  6
CONTINUOUS
 62
    7
 10
247.88897540118245
 20
141.76589553420609
 40
0.2324253240147152
  0
ARC
  8
_1-0_
  6
CONTINUOUS
 62
    3
 10
106.01465173669764
 20
146.14047076251057
 40
1.0402513194728542
 50
309.08184814453125
 51
1.6144714355468908
  0
ARC
  8
_1-0_
  6
CONTINUOUS
 62
    3
 10
107.95547072951858
 20
146.60362862251901
 40
3.0627306731971538
 50
42.6905517578125
 51
126.92074584960937
  0
ARC
  8
_1-0_
  6
CONTINUOUS
 62
    3
 10
159.01465338629646
 20
146.14047076251057
 40
1.0402513194728542
 50
309.08184814453125
 51
1.6144714355468908
  0
ARC
  8
_1-0_
  6
CONTINUOUS
 62
    3
 10
137.57668984902872
 20
185.99196562895904
 40
46.274049088761615
 50
233.73811340332031
 51
298.51937866210937
  0
ARC
  8
_1-0_
  6
CONTINUOUS
 62
    3
 10
107.76875263935811
 20
141.67720072978253
 40
4.6263270764737516
 50
47.123046875000007
 51
126.50717163085939
  0
ARC
  8
_1-0_
  6
CONTINUOUS
 62
    3
 10
137.88358946104307
 20
185.43134122281461
 40
48.543530025997683
 50
236.25315856933597
 51
299.03501892089844
  0
ARC
  8
_1-0_
  6
CONTINUOUS
 62
    3
 10
160.9554723791174
 20
146.60362862251901
 40
3.0627306731971538
 50
42.6905517578125
 51
126.92074584960937
  0
ARC
  8
_1-0_
  6
CONTINUOUS
 62
    3
 10
212.01465503589529
 20
146.14045839051943
 40
1.0402513194728542
 50
309.08184814453125
 51
1.6144714355468908
  0
ARC
  8
_1-0_
  6
CONTINUOUS
 62
    3
 10
190.57666675464529
 20
185.99196562895904
 40
46.274049088761615
 50
233.73811340332031
 51
298.51937866210937
  0
ARC
  8
_1-0_
  6
CONTINUOUS
 62
    3
 10
160.76875428895693
 20
141.67718835779138
 40
4.6263270764737516
 50
47.123046875000007
 51
126.50717163085939
  0
ARC
  8
_1-0_
  6
CONTINUOUS
 62
    3
 10
190.8835911106419
 20
185.43134122281461
 40
48.543530025997683
 50
236.25315856933597
 51
299.03501892089844
  0
ARC
  8
_1-0_
  6
CONTINUOUS
 62
    3
 10
84.576663455447644
 20
185.99196562895904
 40
46.274049088761615
 50
251.19485473632813
 51
298.51937866210937
  0
ARC
  8
_1-0_
  6
CONTINUOUS
 62
    3
 10
84.883587811444258
 20
185.43134122281461
 40
48.543530025997683
 50
251.72351074218753
 51
299.03501892089844
  0
ARC
  8
_1-0_
  6
CONTINUOUS
 62
    3
 10
212.01470452385982
 20
146.14047076251057
 40
1.0402513194728542
 50
309.08184814453125
 51
1.6144714355468908
  0
ARC
  8
_1-0_
  6
CONTINUOUS
 62
    3
 10
213.95552351668076
 20
146.60362862251901
 40
3.0627306731971538
 50
42.6905517578125
 51
126.92074584960937
  0
ARC
  8
_1-0_
  6
CONTINUOUS
 62
    3
 10
265.01470617345865
 20
146.14047076251057
 40
1.0402513194728542
 50
309.08184814453125
 51
1.6144714355468908
  0
ARC
  8
_1-0_
  6
CONTINUOUS
 62
    3
 10
243.57674263619089
 20
185.99196562895904
 40
46.274049088761615
 50
233.73811340332031
 51
298.51937866210937
  0
ARC
  8
_1-0_
  6
CONTINUOUS
 62
    3
 10
213.76880542652029
 20
141.67720072978253
 40
4.6263270764737516
 50
47.123046875000007
 51
126.50717163085939
  0
ARC
  8
_1-0_
  6
CONTINUOUS
 62
    3
 10
243.88364224820526
 20
185.43134122281461
 40
48.543530025997683
 50
236.25315856933597
 51
299.03501892089844
  0
TEXT
  8
_0-0_
 62
    7
 10
141.89189395389042
 20
14.594594594594582
 40
2.5
 41
1
 50
0
  1
縮尺
  0
TEXT
  8
_0-0_
 62
    7
 10
377.10214563318203
 20
22.865493362014362
 40
2.5
 41
1
 50
0
  1
ＮＯ
  0
TEXT
  8
_0-0_
 62
    7
 10
14.594594336844779
 20
24.324324324324323
 40
2.5
 41
1
 50
0
  1
和形
  0
TEXT
  8
_0-0_
 62
    7
 10
25.556194717819636
 20
20.211577544341225
 40
2.5
 41
1
 50
0
  1
木造
  0
TEXT
  8
_0-0_
 62
    7
 10
383.23801896378802
 20
18.523427086907475
 40
3
 41
1
 50
0
  1
Ｊ
  0
TEXT
  8
_1-0_
 62
    7
 10
169.90681828679266
 20
13.3181144095756
 40
2.5
 41
1
 50
0
  1
1/5
  0
TEXT
  8
_1-3_
 62
    7
 10
39.721904445338907
 20
15.395235628695104
 40
2.5
 41
1
 50
0
  1
壁際　　1
  0
TEXT
  8
_1-3_
 62
    7
 10
242.97219353753167
 20
226.320140941723
 40
2.5
 41
1
 50
0
  1
外壁
  0
TEXT
  8
_1-3_
 62
    7
 10
226.11293895824537
 20
201.92221564215583
 40
2.5
 41
1
 50
0
  1
雨押え板
  0
TEXT
  8
_1-3_
 62
    7
 10
238.58605462151607
 20
201.64808943464951
 40
2.5
 41
1
 50
0
  1
15ｘ90
  0
TEXT
  8
_1-3_
 62
    7
 10
226.85171178869302
 20
189.01361413904141
 40
2.5
 41
1
 50
0
  1
水切り鉄板
  0
TEXT
  8
_1-3_
 62
    7
 10
227.45747334248313
 20
178.51377744932432
 40
2.5
 41
1
 50
0
  1
割のし
  0
TEXT
  8
_1-3_
 62
    7
 10
219.1787596006651
 20
164.58128233213682
 40
2.5
 41
1
 50
0
  1
面土漆喰
  0
TEXT
  8
_1-3_
 62
    7
 10
211.75310701937292
 20
71.844412313925261
 40
2.5
 41
1
 50
0
  1
捨谷
  0
TEXT
  8
_1-3_
 62
    7
 10
304.67141641152875
 20
186.01397540118245
 40
2.5
 41
1
 50
90
  1
150
  0
TEXT
  8
_1-3_
 62
    7
 10
221.4718751649599
 20
161.11577626821159
 40
2.5
 41
1
 50
0
  1
及び葺き土
  0
TEXT
  8
_1-3_
 62
    7
 10
304.67141641152875
 20
206.63897952517948
 40
2.5
 41
1
 50
90
  1
50
  0
TEXT
  8
_1-3_
 62
    7
 10
294.10516687341641
 20
157.52667401288008
 40
2.5
 41
1
 50
90
  1
300　以上
  0
TEXT
  8
_1-3_
 62
    7
 10
307.83693963128167
 20
208.59983701963682
 40
3
 41
1
 50
0
  1
下葺き材立上げ長さは、300ｍｍ以上かつ
  0
TEXT
  8
_1-3_
 62
    7
 10
308.22356270455032
 20
202.95275301546664
 40
3
 41
1
 50
0
  1
雨押え板上端より50mm以上とする
  0
TEXT
  8
_1-3_
 62
    7
 10
394.36085056614235
 20
15.635499696473829
 40
2.5
 41
1
 50
0
  1
7
  0
TEXT
  8
_1-3_
 62
    7
 10
61.32400306495461
 20
198.83803908889359
 40
2.5
 41
1
 50
0
  1
桟瓦
  0
TEXT
  8
_1-3_
 62
    7
 10
61.32400306495461
 20
192.83804403769005
 40
2.5
 41
1
 50
0
  1
瓦桟
  0
TEXT
  8
_1-3_
 62
    7
 10
61.32400306495461
 20
186.83804898648648
 40
2.5
 41
1
 50
0
  1
流桟
  0
TEXT
  8
_1-3_
 62
    7
 10
61.324002033955367
 20
174.8380588840794
 40
2.5
 41
1
 50
0
  1
野地板　ｔ＝12
  0
TEXT
  8
_1-3_
 62
    7
 10
61.480543806746198
 20
168.83806383287586
 40
2.5
 41
1
 50
0
  1
垂木　60ｘ60
  0
TEXT
  8
_1-0_
 62
    7
 10
66.676557386243672
 20
189.57023002005914
 40
2.5
 41
1
 50
0
  1
※　地域により瓦桟木の大きさは、異なります
  0
TEXT
  8
_1-3_
 62
    7
 10
71.540501568768491
 20
192.56790161132812
 40
2.5
 41
1
 50
0
  1
15×21　以上　（防腐処理）
  0
TEXT
  8
_1-3_
 62
    7
 10
61.368127771326016
 20
180.88480768976987
 40
2.5
 41
1
 50
0
  1
下葺き材　アスファルトルーフィング９４０
  0
POINT
  8
_1-3_
 62
    7
 10
305.17141806112755
 20
172.88897540118245
  0
POINT
  8
_1-3_
 62
    7
 10
305.17141806112755
 20
202.88897540118245
  0
POINT
  8
_1-3_
 62
    7
 10
305.17141806112755
 20
202.88897540118245
  0
POINT
  8
_1-3_
 62
    7
 10
305.17141806112755
 20
212.88898364917654
  0
POINT
  8
_1-3_
 62
    7
 10
294.90848025760135
 20
212.88898364917654
  0
POINT
  8
_1-3_
 62
    7
 10
294.90848025760135
 20
131.99859206740922
  0
ENDSEC
  0
EOF
