0
SECTION
2
HEADER
  9
$EXTMIN
10
0
20
0
30
0
  9
$EXTMAX
10
1322.372
20
1331.252
30
0
  9
$LTSCALE
40
5.000
  9
$DIMSCALE
40
5.000
  9
$PDMODE
70
0
  9
$PDSIZE
40
40
0
ENDSEC
0
SECTION
2
TABLES
0
TABLE
2
LTYPE
70
9
0
LTYPE
5
1f4
2
CONTINUOUS
70
0
3
実線
72
65
73
0
40
0.0
0
LTYPE
5
1f5
2
DOT
70
0
3
--  --  --  --  --  --  --  --     
72
65
73
2
40
5.000
49
1.000
49
-4.000
0
LTYPE
5
1f6
2
DASHED
70
0
3
----    ----    ----    ----    
72
65
73
2
40
5.000
49
2.000
49
-3.000
0
LTYPE
5
1f7
2
DASHED2
70
0
3
------  ------  ------  ------ 
72
65
73
2
40
10.000
49
4.000
49
-6.000
0
LTYPE
5
1f8
2
CENTER
70
0
3
----- - ----- - ----- - ----- - 
72
65
73
4
40
9.000
49
6.000
49
-1.000
49
1.000
49
-1.000
0
LTYPE
5
1f9
2
CENTER2
70
0
3
----------  --  ----------  -- 
72
65
73
4
40
18.000
49
12.000
49
-2.000
49
2.000
49
-2.000
0
LTYPE
5
1fa
2
PHANTOM
70
0
3
--- - - --- - - --- - - --- - -
72
65
73
6
40
10.000
49
5.000
49
-1.000
49
1.000
49
-1.000
49
1.000
49
-1.000
0
LTYPE
5
1fb
2
PHANTOM2
70
0
3
--------  -  -  --------  -  -
72
65
73
6
40
16.000
49
6.000
49
-2.000
49
2.000
49
-2.000
49
2.000
49
-2.000
0
LTYPE
5
1fc
2
HIDDEN
70
0
3
-   -   -   -   -   -   -   -   
72
65
73
2
40
2.500
49
0.500
49
-2.000
0
ENDTAB
0
TABLE
2
STYLE
70
1
0
STYLE
5
1fd
100
AcDbSymbolTableRecord
100
AcDbTextStyleTableRecord
2
STANDARD
70
0
40
0.0
41
1.0
50
0.0
71
0
42
0.0
3
txt.shx
4
extfont.shx
0
STYLE
5
1fe
100
AcDbSymbolTableRecord
100
AcDbTextStyleTableRecord
2
TATEGAKI
70
4
40
0.0
41
1.0
50
0.0
71
0
42
0.0
3
txt.shx
4
extfont.shx
0
STYLE
5
1ff
100
AcDbSymbolTableRecord
100
AcDbTextStyleTableRecord
2
MT
70
0
40
0.0
41
1.0
50
0.0
71
0
42
0.0
3
MS Mincho
4

0
STYLE
5
200
100
AcDbSymbolTableRecord
100
AcDbTextStyleTableRecord
2
TMT
70
4
40
0.0
41
1.0
50
0.0
71
0
42
0.0
3
@MS Mincho
4

0
ENDTAB
0
TABLE
2
LAYER
5
407c
100
AcDbSymbolTable
70
10
0
LAYER
5
407d
100
AcDbSymbolTableRecord
100
AcDbLayerTableRecord
2
0
70
64
62
  7
  6
CONTINUOUS
0
LAYER
5
407e
100
AcDbSymbolTableRecord
100
AcDbLayerTableRecord
2
0-0
70
64
62
  7
  6
CONTINUOUS
0
LAYER
5
407f
100
AcDbSymbolTableRecord
100
AcDbLayerTableRecord
2
0-1
70
64
62
  7
  6
CONTINUOUS
0
LAYER
5
4080
100
AcDbSymbolTableRecord
100
AcDbLayerTableRecord
2
0-2
70
64
62
  7
  6
CONTINUOUS
0
LAYER
5
4081
100
AcDbSymbolTableRecord
100
AcDbLayerTableRecord
2
ADD_LINE
70
64
62
  -7
  6
CONTINUOUS
0
ENDTAB
0
ENDSEC
0
SECTION
2
ENTITIES
0
LINE
5
4082
8
0-0
6
CONTINUOUS
62
  7
10
1030.135
20
1143.243
30
0.0
11
1030.135
21
793.243
31
0.0
0
LINE
5
4083
8
0-0
6
CONTINUOUS
62
  7
10
685.135
20
1143.243
30
0.0
11
1030.135
21
1143.243
31
0.0
0
LINE
5
4084
8
0-0
6
CONTINUOUS
62
  7
10
685.135
20
1143.243
30
0.0
11
685.135
21
813.243
31
0.0
0
LINE
5
4085
8
0-0
6
CONTINUOUS
62
  7
10
724.135
20
1143.243
30
0.0
11
724.135
21
793.243
31
0.0
0
LINE
5
4086
8
0-0
6
CONTINUOUS
62
  7
10
724.135
20
793.243
30
0.0
11
1030.135
21
793.243
31
0.0
0
LINE
5
4087
8
0-0
6
CONTINUOUS
62
  7
10
685.135
20
813.243
30
0.0
11
724.135
21
813.243
31
0.0
0
LINE
5
4088
8
0-0
6
CONTINUOUS
62
  7
10
692.135
20
1135.243
30
0.0
11
692.135
21
813.243
31
0.0
0
LINE
5
4089
8
0-0
6
CONTINUOUS
62
  7
10
692.135
20
1135.243
30
0.0
11
719.135
21
1135.243
31
0.0
0
LINE
5
408a
8
0-0
6
CONTINUOUS
62
  7
10
719.135
20
1135.243
30
0.0
11
719.135
21
813.243
31
0.0
0
LINE
5
408b
8
0-0
6
CONTINUOUS
62
  7
10
768.135
20
1143.243
30
0.0
11
768.135
21
1133.243
31
0.0
0
LINE
5
408c
8
0-0
6
CONTINUOUS
62
  7
10
731.135
20
1133.243
30
0.0
11
768.135
21
1133.243
31
0.0
0
LINE
5
408d
8
0-0
6
CONTINUOUS
62
  7
10
731.135
20
1143.243
30
0.0
11
731.135
21
1133.243
31
0.0
0
LINE
5
408e
8
0-0
6
CONTINUOUS
62
  7
10
731.135
20
1127.243
30
0.0
11
731.135
21
1106.243
31
0.0
0
LINE
5
408f
8
0-0
6
CONTINUOUS
62
  7
10
731.135
20
1106.243
30
0.0
11
773.334
21
1106.243
31
0.0
0
LINE
5
4090
8
0-0
6
CONTINUOUS
62
  7
10
724.135
20
1102.243
30
0.0
11
776.135
21
1102.243
31
0.0
0
LINE
5
4091
8
0-0
6
CONTINUOUS
62
  7
10
768.135
20
1127.243
30
0.0
11
731.135
21
1127.243
31
0.0
0
LINE
5
4092
8
0-0
6
CONTINUOUS
62
  7
10
773.135
20
1132.243
30
0.0
11
773.135
21
1136.243
31
0.0
0
LINE
5
4093
8
0-0
6
CONTINUOUS
62
  7
10
943.135
20
1143.243
30
0.0
11
943.135
21
1133.243
31
0.0
0
LINE
5
4094
8
0-0
6
CONTINUOUS
62
  7
10
943.135
20
1133.243
30
0.0
11
980.135
21
1133.243
31
0.0
0
LINE
5
4095
8
0-0
6
CONTINUOUS
62
  7
10
980.135
20
1143.243
30
0.0
11
980.135
21
1133.243
31
0.0
0
LINE
5
4096
8
0-0
6
CONTINUOUS
62
  7
10
943.135
20
1127.243
30
0.0
11
980.135
21
1127.243
31
0.0
0
LINE
5
4097
8
0-0
6
CONTINUOUS
62
  7
10
773.135
20
1136.243
30
0.0
11
938.135
21
1136.243
31
0.0
0
LINE
5
4098
8
0-0
6
CONTINUOUS
62
  7
10
938.135
20
1132.243
30
0.0
11
938.135
21
1136.243
31
0.0
0
LINE
5
4099
8
0-0
6
CONTINUOUS
62
  7
10
985.135
20
1132.243
30
0.0
11
985.135
21
1136.243
31
0.0
0
LINE
5
409a
8
0-0
6
CONTINUOUS
62
  7
10
985.135
20
1136.243
30
0.0
11
1023.135
21
1136.243
31
0.0
0
LINE
5
409b
8
0-0
6
CONTINUOUS
62
  7
10
978.532
20
1102.809
30
0.0
11
980.936
21
1106.243
31
0.0
0
LINE
5
409c
8
0-0
6
CONTINUOUS
62
  7
10
775.135
20
1132.243
30
0.0
11
775.135
21
1134.243
31
0.0
0
LINE
5
409d
8
0-0
6
CONTINUOUS
62
  7
10
943.135
20
1125.243
30
0.0
11
980.135
21
1125.243
31
0.0
0
LINE
5
409e
8
0-0
6
CONTINUOUS
62
  7
10
987.135
20
1132.243
30
0.0
11
987.135
21
1134.243
31
0.0
0
LINE
5
409f
8
0-0
6
CONTINUOUS
62
  7
10
987.135
20
1134.243
30
0.0
11
1021.135
21
1134.243
31
0.0
0
LINE
5
40a0
8
0-0
6
CONTINUOUS
62
  7
10
978.135
20
1102.243
30
0.0
11
982.337
21
1108.243
31
0.0
0
LINE
5
40a1
8
0-0
6
CONTINUOUS
62
  7
10
965.135
20
1102.243
30
0.0
11
969.337
21
1108.243
31
0.0
0
LINE
5
40a2
8
0-0
6
CONTINUOUS
62
  7
10
921.135
20
1102.243
30
0.0
11
916.934
21
1108.243
31
0.0
0
LINE
5
40a3
8
0-0
6
CONTINUOUS
62
  7
10
908.135
20
1102.243
30
0.0
11
903.934
21
1108.243
31
0.0
0
LINE
5
40a4
8
0-0
6
CONTINUOUS
62
  7
10
776.135
20
1102.243
30
0.0
11
771.934
21
1108.243
31
0.0
0
LINE
5
40a5
8
0-0
6
CONTINUOUS
62
  7
10
788.135
20
1102.243
30
0.0
11
783.934
21
1108.243
31
0.0
0
LINE
5
40a6
8
0-0
6
CONTINUOUS
62
  7
10
733.135
20
1108.243
30
0.0
11
771.934
21
1108.243
31
0.0
0
LINE
5
40a7
8
0-0
6
CONTINUOUS
62
  7
10
731.135
20
1106.243
30
0.0
11
773.334
21
1106.243
31
0.0
0
LINE
5
40a8
8
0-0
6
CONTINUOUS
62
  7
10
835.135
20
1102.243
30
0.0
11
839.337
21
1108.243
31
0.0
0
LINE
5
40a9
8
0-0
6
CONTINUOUS
62
  7
10
823.135
20
1102.243
30
0.0
11
827.337
21
1108.243
31
0.0
0
LINE
5
40aa
8
0-0
6
CONTINUOUS
62
  7
10
785.334
20
1106.243
30
0.0
11
825.936
21
1106.243
31
0.0
0
LINE
5
40ab
8
0-0
6
CONTINUOUS
62
  7
10
783.934
20
1108.243
30
0.0
11
827.337
21
1108.243
31
0.0
0
LINE
5
40ac
8
0-0
6
CONTINUOUS
62
  7
10
724.135
20
1102.243
30
0.0
11
776.135
21
1102.243
31
0.0
0
LINE
5
40ad
8
0-0
6
CONTINUOUS
62
  7
10
788.135
20
1102.243
30
0.0
11
823.135
21
1102.243
31
0.0
0
LINE
5
40ae
8
0-0
6
CONTINUOUS
62
  7
10
839.337
20
1108.243
30
0.0
11
903.934
21
1108.243
31
0.0
0
LINE
5
40af
8
0-0
6
CONTINUOUS
62
  7
10
837.936
20
1106.243
30
0.0
11
905.334
21
1106.243
31
0.0
0
LINE
5
40b0
8
0-0
6
CONTINUOUS
62
  7
10
835.135
20
1102.243
30
0.0
11
908.135
21
1102.243
31
0.0
0
LINE
5
40b1
8
0-0
6
CONTINUOUS
62
  7
10
916.934
20
1108.243
30
0.0
11
969.337
21
1108.243
31
0.0
0
LINE
5
40b2
8
0-0
6
CONTINUOUS
62
  7
10
918.334
20
1106.243
30
0.0
11
967.936
21
1106.243
31
0.0
0
LINE
5
40b3
8
0-0
6
CONTINUOUS
62
  7
10
921.135
20
1102.243
30
0.0
11
965.135
21
1102.243
31
0.0
0
LINE
5
40b4
8
0-0
6
CONTINUOUS
62
  7
10
978.135
20
1102.243
30
0.0
11
1030.135
21
1102.243
31
0.0
0
LINE
5
40b5
8
0-0
6
CONTINUOUS
62
  7
10
982.337
20
1108.243
30
0.0
11
1021.135
21
1108.243
31
0.0
0
LINE
5
40b6
8
0-0
6
CONTINUOUS
62
  7
10
1021.135
20
1134.243
30
0.0
11
1021.135
21
1108.243
31
0.0
0
LINE
5
40b7
8
0-0
6
CONTINUOUS
62
  7
10
1023.135
20
1136.243
30
0.0
11
1023.135
21
1106.243
31
0.0
0
LINE
5
40b8
8
0-0
6
CONTINUOUS
62
  7
10
980.936
20
1106.243
30
0.0
11
1023.135
21
1106.243
31
0.0
0
LINE
5
40b9
8
0-0
6
CONTINUOUS
62
  7
10
733.135
20
1108.243
30
0.0
11
771.934
21
1108.243
31
0.0
0
LINE
5
40ba
8
0-0
6
CONTINUOUS
62
  7
10
768.135
20
1125.243
30
0.0
11
733.135
21
1125.243
31
0.0
0
LINE
5
40bb
8
0-0
6
CONTINUOUS
62
  7
10
768.135
20
1125.243
30
0.0
11
733.135
21
1125.243
31
0.0
0
LINE
5
40bc
8
0-0
6
CONTINUOUS
62
  7
10
733.135
20
1125.243
30
0.0
11
733.135
21
1108.243
31
0.0
0
LINE
5
40bd
8
0-0
6
CONTINUOUS
62
  7
10
775.135
20
1134.243
30
0.0
11
936.135
21
1134.243
31
0.0
0
LINE
5
40be
8
0-0
6
CONTINUOUS
62
  7
10
936.135
20
1132.243
30
0.0
11
936.135
21
1134.243
31
0.0
0
LINE
5
40bf
8
0-0
6
CONTINUOUS
62
  7
10
749.635
20
1143.243
30
0.0
11
749.635
21
1133.243
31
0.0
0
LINE
5
40c0
8
0-0
6
CONTINUOUS
62
  7
10
961.635
20
1133.243
30
0.0
11
961.635
21
1143.243
31
0.0
0
LINE
5
40c1
8
0-0
6
CONTINUOUS
62
  7
10
1282.372
20
1143.243
30
0.0
11
1282.372
21
1136.243
31
0.0
0
LINE
5
40c2
8
0-0
6
CONTINUOUS
62
  7
10
1282.372
20
1136.243
30
0.0
11
1286.372
21
1134.243
31
0.0
0
LINE
5
40c3
8
0-0
6
CONTINUOUS
62
  7
10
1283.372
20
1106.243
30
0.0
11
1286.372
21
1108.243
31
0.0
0
LINE
5
40c4
8
0-0
6
CONTINUOUS
62
  7
10
1283.372
20
1106.243
30
0.0
11
1283.372
21
1102.243
31
0.0
0
LINE
5
40c5
8
0-0
6
CONTINUOUS
62
  7
10
1283.372
20
1102.243
30
0.0
11
1286.372
21
1102.243
31
0.0
0
LINE
5
40c6
8
0-0
6
CONTINUOUS
62
  7
10
1286.372
20
1134.243
30
0.0
11
1286.372
21
1108.243
31
0.0
0
LINE
5
40c7
8
0-0
6
CONTINUOUS
62
  7
10
1286.372
20
893.243
30
0.0
11
1289.372
21
795.043
31
0.0
0
LINE
5
40c8
8
0-0
6
CONTINUOUS
62
  7
10
1316.372
20
802.243
30
0.0
11
1319.372
21
795.043
31
0.0
0
LINE
5
40c9
8
0-0
6
CONTINUOUS
62
  7
10
1289.372
20
795.043
30
0.0
11
1316.372
21
793.243
31
0.0
0
LINE
5
40ca
8
0-0
6
CONTINUOUS
62
  7
10
1316.372
20
793.243
30
0.0
11
1319.372
21
795.043
31
0.0
0
LINE
5
40cb
8
0-0
6
CONTINUOUS
62
  7
10
1286.372
20
1102.243
30
0.0
11
1286.372
21
893.243
31
0.0
0
LINE
5
40cc
8
0-0
6
CONTINUOUS
62
  7
10
1301.372
20
808.886
30
0.0
11
1316.372
21
802.243
31
0.0
0
LINE
5
40cd
8
0-0
6
CONTINUOUS
62
  7
10
1301.372
20
893.243
30
0.0
11
1301.372
21
808.886
31
0.0
0
LINE
5
40ce
8
0-0
6
CONTINUOUS
62
  7
10
1301.372
20
1114.243
30
0.0
11
1301.372
21
808.886
31
0.0
0
LINE
5
40cf
8
0-0
6
CONTINUOUS
62
  7
10
1309.372
20
1122.243
30
0.0
11
1301.372
21
1114.243
31
0.0
0
LINE
5
40d0
8
0-0
6
CONTINUOUS
62
  7
10
1309.372
20
1131.243
30
0.0
11
1309.372
21
1122.243
31
0.0
0
LINE
5
40d1
8
0-0
6
CONTINUOUS
62
  7
10
1292.372
20
1143.243
30
0.0
11
1292.372
21
1137.743
31
0.0
0
LINE
5
40d2
8
0-0
6
CONTINUOUS
62
  7
10
1292.372
20
1137.743
30
0.0
11
1309.372
21
1131.243
31
0.0
0
LINE
5
40d3
8
0-0
6
CONTINUOUS
62
  7
10
1309.372
20
1131.243
30
0.0
11
1322.372
21
1133.243
31
0.0
0
LINE
5
40d4
8
0-0
6
CONTINUOUS
62
  7
10
1282.372
20
1143.243
30
0.0
11
1322.372
21
1143.243
31
0.0
0
LINE
5
40d5
8
0-0
6
CONTINUOUS
62
  7
10
1322.372
20
1143.243
30
0.0
11
1322.372
21
1133.243
31
0.0
0
LINE
5
40d6
8
0-0
6
CONTINUOUS
62
  7
10
1030.135
20
600.000
30
0.0
11
1030.135
21
585.000
31
0.0
0
LINE
5
40d7
8
0-0
6
CONTINUOUS
62
  7
10
724.135
20
600.000
30
0.0
11
1030.135
21
600.000
31
0.0
0
LINE
5
40d8
8
0-0
6
CONTINUOUS
62
  7
10
685.135
20
573.000
30
0.0
11
731.552
21
573.000
31
0.0
0
LINE
5
40d9
8
0-0
6
CONTINUOUS
62
  7
10
719.135
20
585.000
30
0.0
11
719.135
21
582.000
31
0.0
0
LINE
5
40da
8
0-0
6
CONTINUOUS
62
  7
10
692.135
20
585.000
30
0.0
11
692.135
21
582.000
31
0.0
0
LINE
5
40db
8
0-0
6
CONTINUOUS
62
  7
10
692.135
20
582.000
30
0.0
11
719.135
21
582.000
31
0.0
0
LINE
5
40dc
8
0-0
6
CONTINUOUS
62
  7
10
685.135
20
585.000
30
0.0
11
685.135
21
573.000
31
0.0
0
LINE
5
40dd
8
0-0
6
CONTINUOUS
62
  7
10
685.135
20
585.000
30
0.0
11
692.135
21
585.000
31
0.0
0
LINE
5
40de
8
0-0
6
CONTINUOUS
62
  7
10
719.135
20
585.000
30
0.0
11
724.135
21
585.000
31
0.0
0
LINE
5
40df
8
0-0
6
CONTINUOUS
62
  7
10
724.135
20
600.000
30
0.0
11
724.135
21
585.000
31
0.0
0
LINE
5
40e0
8
0-0
6
CONTINUOUS
62
  7
10
732.135
20
573.000
30
0.0
11
734.135
21
585.000
31
0.0
0
LINE
5
40e1
8
0-0
6
CONTINUOUS
62
  7
10
975.135
20
585.000
30
0.0
11
978.135
21
573.000
31
0.0
0
LINE
5
40e2
8
0-0
6
CONTINUOUS
62
  7
10
907.135
20
585.000
30
0.0
11
910.135
21
573.000
31
0.0
0
LINE
5
40e3
8
0-0
6
CONTINUOUS
62
  7
10
914.135
20
573.000
30
0.0
11
917.135
21
585.000
31
0.0
0
LINE
5
40e4
8
0-0
6
CONTINUOUS
62
  7
10
985.135
20
585.000
30
0.0
11
982.135
21
573.000
31
0.0
0
LINE
5
40e5
8
0-0
6
CONTINUOUS
62
  7
10
833.135
20
585.000
30
0.0
11
830.135
21
573.000
31
0.0
0
LINE
5
40e6
8
0-0
6
CONTINUOUS
62
  7
10
826.135
20
573.000
30
0.0
11
823.135
21
585.000
31
0.0
0
LINE
5
40e7
8
0-0
6
CONTINUOUS
62
  7
10
768.135
20
585.000
30
0.0
11
771.135
21
573.000
31
0.0
0
LINE
5
40e8
8
0-0
6
CONTINUOUS
62
  7
10
775.135
20
573.000
30
0.0
11
778.135
21
585.000
31
0.0
0
LINE
5
40e9
8
0-0
6
CONTINUOUS
62
  7
10
734.135
20
585.000
30
0.0
11
768.135
21
585.000
31
0.0
0
LINE
5
40ea
8
0-0
6
CONTINUOUS
62
  7
10
778.135
20
585.000
30
0.0
11
823.135
21
585.000
31
0.0
0
LINE
5
40eb
8
0-0
6
CONTINUOUS
62
  7
10
833.135
20
585.000
30
0.0
11
907.135
21
585.000
31
0.0
0
LINE
5
40ec
8
0-0
6
CONTINUOUS
62
  7
10
917.135
20
585.000
30
0.0
11
975.135
21
585.000
31
0.0
0
LINE
5
40ed
8
0-0
6
CONTINUOUS
62
  7
10
978.135
20
573.000
30
0.0
11
982.135
21
573.000
31
0.0
0
LINE
5
40ee
8
0-0
6
CONTINUOUS
62
  7
10
910.135
20
573.000
30
0.0
11
914.135
21
573.000
31
0.0
0
LINE
5
40ef
8
0-0
6
CONTINUOUS
62
  7
10
826.135
20
573.000
30
0.0
11
830.135
21
573.000
31
0.0
0
LINE
5
40f0
8
0-0
6
CONTINUOUS
62
  7
10
731.552
20
573.000
30
0.0
11
732.135
21
573.000
31
0.0
0
LINE
5
40f1
8
0-0
6
CONTINUOUS
62
  7
10
771.135
20
573.000
30
0.0
11
775.135
21
573.000
31
0.0
0
LINE
5
40f2
8
0-0
6
CONTINUOUS
62
  7
10
1016.135
20
585.000
30
0.0
11
1017.135
21
583.000
31
0.0
0
LINE
5
40f3
8
0-0
6
CONTINUOUS
62
  7
10
1020.135
20
583.000
30
0.0
11
1021.135
21
585.000
31
0.0
0
LINE
5
40f4
8
0-0
6
CONTINUOUS
62
  7
10
1017.135
20
583.000
30
0.0
11
1020.135
21
583.000
31
0.0
0
LINE
5
40f5
8
0-0
6
CONTINUOUS
62
  7
10
985.135
20
585.000
30
0.0
11
1016.135
21
585.000
31
0.0
0
LINE
5
40f6
8
0-0
6
CONTINUOUS
62
  7
10
1021.135
20
585.000
30
0.0
11
1030.135
21
585.000
31
0.0
0
LINE
5
40f7
8
0-0
6
CONTINUOUS
62
  7
10
1030.135
20
367.577
30
0.0
11
1030.135
21
337.577
31
0.0
0
LINE
5
40f8
8
0-0
6
CONTINUOUS
62
  7
10
724.135
20
367.577
30
0.0
11
1030.135
21
367.577
31
0.0
0
LINE
5
40f9
8
0-0
6
CONTINUOUS
62
  7
10
685.135
20
352.577
30
0.0
11
692.135
21
352.577
31
0.0
0
LINE
5
40fa
8
0-0
6
CONTINUOUS
62
  7
10
692.135
20
352.577
30
0.0
11
692.135
21
349.577
31
0.0
0
LINE
5
40fb
8
0-0
6
CONTINUOUS
62
  7
10
719.135
20
352.577
30
0.0
11
724.135
21
352.577
31
0.0
0
LINE
5
40fc
8
0-0
6
CONTINUOUS
62
  7
10
692.135
20
349.577
30
0.0
11
719.135
21
349.577
31
0.0
0
LINE
5
40fd
8
0-0
6
CONTINUOUS
62
  7
10
685.135
20
352.577
30
0.0
11
685.135
21
340.577
31
0.0
0
LINE
5
40fe
8
0-0
6
CONTINUOUS
62
  7
10
719.135
20
352.577
30
0.0
11
719.135
21
349.577
31
0.0
0
LINE
5
40ff
8
0-0
6
CONTINUOUS
62
  7
10
685.135
20
340.577
30
0.0
11
724.135
21
340.577
31
0.0
0
LINE
5
4100
8
0-0
6
CONTINUOUS
62
  7
10
724.135
20
337.577
30
0.0
11
1030.135
21
337.577
31
0.0
0
LINE
5
4101
8
0-0
6
CONTINUOUS
62
  7
10
724.135
20
367.577
30
0.0
11
724.135
21
337.577
31
0.0
0
LINE
5
4102
8
ADD_LINE
6
HIDDEN
62
  3
10
724.135
20
600.000
30
0.0
11
712.081
21
600.000
31
0.0
0
LINE
5
4103
8
ADD_LINE
6
HIDDEN
62
  3
10
724.135
20
600.000
30
0.0
11
724.135
21
609.231
31
0.0
0
LINE
5
4104
8
0-2
6
CONTINUOUS
62
  7
10
685.135
20
1328.752
30
0.0
11
1030.135
21
1328.752
31
0.0
0
LINE
5
4105
8
0-2
6
CONTINUOUS
62
  7
10
685.135
20
1178.485
30
0.0
11
685.135
21
1328.752
31
0.0
0
LINE
5
4106
8
0-2
6
CONTINUOUS
62
  7
10
1030.135
20
1178.485
30
0.0
11
1030.135
21
1328.752
31
0.0
0
LINE
5
4107
8
0-2
6
CONTINUOUS
62
  7
10
1282.372
20
1328.752
30
0.0
11
1322.372
21
1328.752
31
0.0
0
LINE
5
4108
8
0-2
6
CONTINUOUS
62
  7
10
1282.372
20
1178.485
30
0.0
11
1282.372
21
1328.752
31
0.0
0
LINE
5
4109
8
0-2
6
CONTINUOUS
62
  7
10
1322.372
20
1178.485
30
0.0
11
1322.372
21
1328.752
31
0.0
0
LINE
5
410a
8
0-2
6
CONTINUOUS
62
  7
10
685.135
20
1272.973
30
0.0
11
724.135
21
1272.973
31
0.0
0
LINE
5
410b
8
0-2
6
CONTINUOUS
62
  7
10
685.135
20
1178.485
30
0.0
11
685.135
21
1272.973
31
0.0
0
LINE
5
410c
8
0-2
6
CONTINUOUS
62
  7
10
724.135
20
1178.485
30
0.0
11
724.135
21
1272.973
31
0.0
0
LINE
5
410d
8
0-2
6
CONTINUOUS
62
  7
10
724.135
20
1272.973
30
0.0
11
1030.135
21
1272.973
31
0.0
0
LINE
5
410e
8
0-2
6
CONTINUOUS
62
  7
10
1030.135
20
1178.485
30
0.0
11
1030.135
21
1272.973
31
0.0
0
LINE
5
410f
8
0-2
6
CONTINUOUS
62
  7
10
1282.372
20
1272.973
30
0.0
11
1292.372
21
1272.973
31
0.0
0
LINE
5
4110
8
0-2
6
CONTINUOUS
62
  7
10
1282.372
20
1178.485
30
0.0
11
1282.372
21
1272.973
31
0.0
0
LINE
5
4111
8
0-2
6
CONTINUOUS
62
  7
10
1292.372
20
1178.485
30
0.0
11
1292.372
21
1272.973
31
0.0
0
LINE
5
4112
8
0-2
6
CONTINUOUS
62
  7
10
1292.372
20
1272.973
30
0.0
11
1322.372
21
1272.973
31
0.0
0
LINE
5
4113
8
0-2
6
CONTINUOUS
62
  7
10
1322.372
20
1178.485
30
0.0
11
1322.372
21
1272.973
31
0.0
0
LINE
5
4114
8
0-2
6
CONTINUOUS
62
  7
10
1289.372
20
685.135
30
0.0
11
1319.372
21
685.135
31
0.0
0
LINE
5
4115
8
0-2
6
CONTINUOUS
62
  7
10
1289.372
20
754.054
30
0.0
11
1289.372
21
685.135
31
0.0
0
LINE
5
4116
8
0-2
6
CONTINUOUS
62
  7
10
1319.372
20
754.054
30
0.0
11
1319.372
21
685.135
31
0.0
0
LINE
5
4117
8
0-2
6
CONTINUOUS
62
  7
10
685.135
20
210.811
30
0.0
11
724.135
21
210.811
31
0.0
0
LINE
5
4118
8
0-2
6
CONTINUOUS
62
  7
10
685.135
20
287.838
30
0.0
11
685.135
21
210.811
31
0.0
0
LINE
5
4119
8
0-2
6
CONTINUOUS
62
  7
10
724.135
20
287.838
30
0.0
11
724.135
21
210.811
31
0.0
0
LINE
5
411a
8
0-2
6
CONTINUOUS
62
  7
10
724.135
20
210.811
30
0.0
11
1030.135
21
210.811
31
0.0
0
LINE
5
411b
8
0-2
6
CONTINUOUS
62
  7
10
1030.135
20
287.838
30
0.0
11
1030.135
21
210.811
31
0.0
0
LINE
5
411c
8
0-2
6
CONTINUOUS
62
  7
10
413.514
20
1143.243
30
0.0
11
413.514
21
813.243
31
0.0
0
LINE
5
411d
8
0-2
6
CONTINUOUS
62
  7
10
595.946
20
1143.243
30
0.0
11
413.514
21
1143.243
31
0.0
0
LINE
5
411e
8
0-2
6
CONTINUOUS
62
  7
10
595.946
20
813.243
30
0.0
11
413.514
21
813.243
31
0.0
0
LINE
5
411f
8
0-2
6
CONTINUOUS
62
  7
10
413.514
20
813.243
30
0.0
11
413.514
21
793.243
31
0.0
0
LINE
5
4120
8
0-2
6
CONTINUOUS
62
  7
10
595.946
20
793.243
30
0.0
11
413.514
21
793.243
31
0.0
0
LINE
5
4121
8
0-2
6
CONTINUOUS
62
  7
10
413.514
20
600.000
30
0.0
11
413.514
21
573.000
31
0.0
0
LINE
5
4122
8
0-2
6
CONTINUOUS
62
  7
10
595.946
20
600.000
30
0.0
11
413.514
21
600.000
31
0.0
0
LINE
5
4123
8
0-2
6
CONTINUOUS
62
  7
10
595.946
20
573.000
30
0.0
11
413.514
21
573.000
31
0.0
0
LINE
5
4124
8
0-2
6
CONTINUOUS
62
  7
10
413.514
20
367.577
30
0.0
11
413.514
21
337.577
31
0.0
0
LINE
5
4125
8
0-2
6
CONTINUOUS
62
  7
10
595.946
20
367.577
30
0.0
11
413.514
21
367.577
31
0.0
0
LINE
5
4126
8
0-2
6
CONTINUOUS
62
  7
10
595.946
20
337.577
30
0.0
11
413.514
21
337.577
31
0.0
0
LINE
5
4127
8
0-2
6
CONTINUOUS
62
  7
10
1167.568
20
1143.243
30
0.0
11
1167.568
21
793.243
31
0.0
0
LINE
5
4128
8
0-2
6
CONTINUOUS
62
  7
10
1078.378
20
1143.243
30
0.0
11
1167.568
21
1143.243
31
0.0
0
LINE
5
4129
8
0-2
6
CONTINUOUS
62
  7
10
1078.378
20
793.243
30
0.0
11
1167.568
21
793.243
31
0.0
0
LINE
5
412a
8
0-2
6
CONTINUOUS
62
  7
10
1167.568
20
600.000
30
0.0
11
1167.568
21
585.000
31
0.0
0
LINE
5
412b
8
0-2
6
CONTINUOUS
62
  7
10
1078.378
20
600.000
30
0.0
11
1167.568
21
600.000
31
0.0
0
LINE
5
412c
8
0-2
6
CONTINUOUS
62
  7
10
1078.378
20
585.000
30
0.0
11
1167.568
21
585.000
31
0.0
0
LINE
5
412d
8
0-2
6
CONTINUOUS
62
  7
10
809.635
20
862.243
30
0.0
11
809.635
21
821.243
31
0.0
0
LINE
5
412e
8
0-2
6
CONTINUOUS
62
  7
10
809.635
20
821.243
30
0.0
11
944.635
21
821.243
31
0.0
0
LINE
5
412f
8
0-2
6
CONTINUOUS
62
  7
10
944.635
20
862.243
30
0.0
11
944.635
21
821.243
31
0.0
0
LINE
5
4130
8
0-2
6
CONTINUOUS
62
  7
10
809.635
20
862.243
30
0.0
11
944.635
21
862.243
31
0.0
0
LINE
5
4131
8
0-2
6
CONTINUOUS
62
  7
10
1244.299
20
862.243
30
0.0
11
1245.551
21
821.243
31
0.0
0
LINE
5
4132
8
0-2
6
CONTINUOUS
62
  7
10
1245.551
20
821.243
30
0.0
11
1288.571
21
821.243
31
0.0
0
LINE
5
4133
8
0-2
6
CONTINUOUS
62
  7
10
1244.299
20
862.243
30
0.0
11
1287.319
21
862.243
31
0.0
0
LINE
5
4134
8
0-2
6
CONTINUOUS
62
  7
10
807.157
20
367.577
30
0.0
11
807.392
21
367.620
31
0.0
0
LINE
5
4135
8
0-2
6
CONTINUOUS
62
  7
10
807.392
20
367.620
30
0.0
11
807.621
21
367.671
31
0.0
0
LINE
5
4136
8
0-2
6
CONTINUOUS
62
  7
10
807.621
20
367.671
30
0.0
11
807.845
21
367.733
31
0.0
0
LINE
5
4137
8
0-2
6
CONTINUOUS
62
  7
10
807.845
20
367.733
30
0.0
11
808.065
21
367.806
31
0.0
0
LINE
5
4138
8
0-2
6
CONTINUOUS
62
  7
10
808.065
20
367.806
30
0.0
11
808.281
21
367.893
31
0.0
0
LINE
5
4139
8
0-2
6
CONTINUOUS
62
  7
10
808.281
20
367.893
30
0.0
11
808.496
21
367.997
31
0.0
0
LINE
5
413a
8
0-2
6
CONTINUOUS
62
  7
10
808.496
20
367.997
30
0.0
11
808.709
21
368.119
31
0.0
0
LINE
5
413b
8
0-2
6
CONTINUOUS
62
  7
10
808.709
20
368.119
30
0.0
11
808.924
21
368.264
31
0.0
0
LINE
5
413c
8
0-2
6
CONTINUOUS
62
  7
10
808.924
20
368.264
30
0.0
11
809.141
21
368.432
31
0.0
0
LINE
5
413d
8
0-2
6
CONTINUOUS
62
  7
10
809.141
20
368.432
30
0.0
11
809.362
21
368.629
31
0.0
0
LINE
5
413e
8
0-2
6
CONTINUOUS
62
  7
10
809.362
20
368.629
30
0.0
11
809.591
21
368.855
31
0.0
0
LINE
5
413f
8
0-2
6
CONTINUOUS
62
  7
10
809.591
20
368.855
30
0.0
11
809.828
21
369.116
31
0.0
0
LINE
5
4140
8
0-2
6
CONTINUOUS
62
  7
10
809.828
20
369.116
30
0.0
11
810.078
21
369.414
31
0.0
0
LINE
5
4141
8
0-2
6
CONTINUOUS
62
  7
10
810.078
20
369.414
30
0.0
11
810.342
21
369.753
31
0.0
0
LINE
5
4142
8
0-2
6
CONTINUOUS
62
  7
10
810.342
20
369.753
30
0.0
11
810.623
21
370.137
31
0.0
0
LINE
5
4143
8
0-2
6
CONTINUOUS
62
  7
10
810.623
20
370.137
30
0.0
11
810.925
21
370.569
31
0.0
0
LINE
5
4144
8
0-2
6
CONTINUOUS
62
  7
10
810.925
20
370.569
30
0.0
11
811.251
21
371.054
31
0.0
0
LINE
5
4145
8
0-2
6
CONTINUOUS
62
  7
10
811.251
20
371.054
30
0.0
11
811.605
21
371.596
31
0.0
0
LINE
5
4146
8
0-2
6
CONTINUOUS
62
  7
10
811.605
20
371.596
30
0.0
11
811.990
21
372.199
31
0.0
0
LINE
5
4147
8
0-2
6
CONTINUOUS
62
  7
10
835.767
20
381.577
30
0.0
11
835.262
21
380.795
31
0.0
0
LINE
5
4148
8
0-2
6
CONTINUOUS
62
  7
10
835.262
20
380.795
30
0.0
11
834.823
21
380.038
31
0.0
0
LINE
5
4149
8
0-2
6
CONTINUOUS
62
  7
10
834.823
20
380.038
30
0.0
11
834.443
21
379.308
31
0.0
0
LINE
5
414a
8
0-2
6
CONTINUOUS
62
  7
10
834.443
20
379.308
30
0.0
11
834.117
21
378.606
31
0.0
0
LINE
5
414b
8
0-2
6
CONTINUOUS
62
  7
10
834.117
20
378.606
30
0.0
11
833.842
21
377.934
31
0.0
0
LINE
5
414c
8
0-2
6
CONTINUOUS
62
  7
10
833.842
20
377.934
30
0.0
11
833.614
21
377.292
31
0.0
0
LINE
5
414d
8
0-2
6
CONTINUOUS
62
  7
10
833.614
20
377.292
30
0.0
11
833.428
21
376.680
31
0.0
0
LINE
5
414e
8
0-2
6
CONTINUOUS
62
  7
10
833.428
20
376.680
30
0.0
11
833.284
21
376.096
31
0.0
0
LINE
5
414f
8
0-2
6
CONTINUOUS
62
  7
10
833.284
20
376.096
30
0.0
11
833.177
21
375.542
31
0.0
0
LINE
5
4150
8
0-2
6
CONTINUOUS
62
  7
10
833.177
20
375.542
30
0.0
11
833.107
21
375.014
31
0.0
0
LINE
5
4151
8
0-2
6
CONTINUOUS
62
  7
10
833.107
20
375.014
30
0.0
11
833.070
21
374.513
31
0.0
0
LINE
5
4152
8
0-2
6
CONTINUOUS
62
  7
10
833.070
20
374.513
30
0.0
11
833.066
21
374.037
31
0.0
0
LINE
5
4153
8
0-2
6
CONTINUOUS
62
  7
10
833.066
20
374.037
30
0.0
11
833.092
21
373.585
31
0.0
0
LINE
5
4154
8
0-2
6
CONTINUOUS
62
  7
10
833.092
20
373.585
30
0.0
11
833.146
21
373.155
31
0.0
0
LINE
5
4155
8
0-2
6
CONTINUOUS
62
  7
10
833.146
20
373.155
30
0.0
11
833.228
21
372.747
31
0.0
0
LINE
5
4156
8
0-2
6
CONTINUOUS
62
  7
10
833.228
20
372.747
30
0.0
11
833.334
21
372.359
31
0.0
0
LINE
5
4157
8
0-2
6
CONTINUOUS
62
  7
10
833.334
20
372.359
30
0.0
11
833.464
21
371.990
31
0.0
0
LINE
5
4158
8
0-2
6
CONTINUOUS
62
  7
10
833.464
20
371.990
30
0.0
11
833.617
21
371.639
31
0.0
0
LINE
5
4159
8
0-2
6
CONTINUOUS
62
  7
10
833.617
20
371.639
30
0.0
11
833.789
21
371.303
31
0.0
0
LINE
5
415a
8
0-2
6
CONTINUOUS
62
  7
10
833.789
20
371.303
30
0.0
11
833.980
21
370.984
31
0.0
0
LINE
5
415b
8
0-2
6
CONTINUOUS
62
  7
10
833.980
20
370.984
30
0.0
11
834.187
21
370.678
31
0.0
0
LINE
5
415c
8
0-2
6
CONTINUOUS
62
  7
10
834.187
20
370.678
30
0.0
11
834.410
21
370.386
31
0.0
0
LINE
5
415d
8
0-2
6
CONTINUOUS
62
  7
10
834.410
20
370.386
30
0.0
11
834.645
21
370.105
31
0.0
0
LINE
5
415e
8
0-2
6
CONTINUOUS
62
  7
10
834.645
20
370.105
30
0.0
11
834.892
21
369.836
31
0.0
0
LINE
5
415f
8
0-2
6
CONTINUOUS
62
  7
10
834.892
20
369.836
30
0.0
11
835.149
21
369.577
31
0.0
0
LINE
5
4160
8
0-2
6
CONTINUOUS
62
  7
10
835.149
20
369.577
30
0.0
11
835.414
21
369.327
31
0.0
0
LINE
5
4161
8
0-2
6
CONTINUOUS
62
  7
10
835.414
20
369.327
30
0.0
11
835.684
21
369.085
31
0.0
0
LINE
5
4162
8
0-2
6
CONTINUOUS
62
  7
10
835.684
20
369.085
30
0.0
11
835.960
21
368.851
31
0.0
0
LINE
5
4163
8
0-2
6
CONTINUOUS
62
  7
10
835.960
20
368.851
30
0.0
11
836.238
21
368.624
31
0.0
0
LINE
5
4164
8
0-2
6
CONTINUOUS
62
  7
10
836.238
20
368.624
30
0.0
11
836.519
21
368.403
31
0.0
0
LINE
5
4165
8
0-2
6
CONTINUOUS
62
  7
10
836.519
20
368.403
30
0.0
11
836.800
21
368.188
31
0.0
0
LINE
5
4166
8
0-2
6
CONTINUOUS
62
  7
10
836.800
20
368.188
30
0.0
11
837.080
21
367.978
31
0.0
0
LINE
5
4167
8
0-2
6
CONTINUOUS
62
  7
10
837.080
20
367.978
30
0.0
11
837.359
21
367.774
31
0.0
0
LINE
5
4168
8
0-2
6
CONTINUOUS
62
  7
10
837.359
20
367.774
30
0.0
11
837.635
21
367.577
31
0.0
0
LINE
5
4169
8
0-2
6
CONTINUOUS
62
  7
10
947.114
20
367.577
30
0.0
11
946.879
21
367.620
31
0.0
0
LINE
5
416a
8
0-2
6
CONTINUOUS
62
  7
10
946.879
20
367.620
30
0.0
11
946.649
21
367.671
31
0.0
0
LINE
5
416b
8
0-2
6
CONTINUOUS
62
  7
10
946.649
20
367.671
30
0.0
11
946.425
21
367.733
31
0.0
0
LINE
5
416c
8
0-2
6
CONTINUOUS
62
  7
10
946.425
20
367.733
30
0.0
11
946.205
21
367.806
31
0.0
0
LINE
5
416d
8
0-2
6
CONTINUOUS
62
  7
10
946.205
20
367.806
30
0.0
11
945.989
21
367.893
31
0.0
0
LINE
5
416e
8
0-2
6
CONTINUOUS
62
  7
10
945.989
20
367.893
30
0.0
11
945.774
21
367.997
31
0.0
0
LINE
5
416f
8
0-2
6
CONTINUOUS
62
  7
10
945.774
20
367.997
30
0.0
11
945.561
21
368.119
31
0.0
0
LINE
5
4170
8
0-2
6
CONTINUOUS
62
  7
10
945.561
20
368.119
30
0.0
11
945.347
21
368.264
31
0.0
0
LINE
5
4171
8
0-2
6
CONTINUOUS
62
  7
10
945.347
20
368.264
30
0.0
11
945.130
21
368.432
31
0.0
0
LINE
5
4172
8
0-2
6
CONTINUOUS
62
  7
10
945.130
20
368.432
30
0.0
11
944.908
21
368.629
31
0.0
0
LINE
5
4173
8
0-2
6
CONTINUOUS
62
  7
10
944.908
20
368.629
30
0.0
11
944.680
21
368.855
31
0.0
0
LINE
5
4174
8
0-2
6
CONTINUOUS
62
  7
10
944.680
20
368.855
30
0.0
11
944.442
21
369.116
31
0.0
0
LINE
5
4175
8
0-2
6
CONTINUOUS
62
  7
10
944.442
20
369.116
30
0.0
11
944.193
21
369.414
31
0.0
0
LINE
5
4176
8
0-2
6
CONTINUOUS
62
  7
10
944.193
20
369.414
30
0.0
11
943.929
21
369.753
31
0.0
0
LINE
5
4177
8
0-2
6
CONTINUOUS
62
  7
10
943.929
20
369.753
30
0.0
11
943.647
21
370.137
31
0.0
0
LINE
5
4178
8
0-2
6
CONTINUOUS
62
  7
10
943.647
20
370.137
30
0.0
11
943.345
21
370.569
31
0.0
0
LINE
5
4179
8
0-2
6
CONTINUOUS
62
  7
10
943.345
20
370.569
30
0.0
11
943.019
21
371.054
31
0.0
0
LINE
5
417a
8
0-2
6
CONTINUOUS
62
  7
10
943.019
20
371.054
30
0.0
11
942.665
21
371.596
31
0.0
0
LINE
5
417b
8
0-2
6
CONTINUOUS
62
  7
10
942.665
20
371.596
30
0.0
11
942.280
21
372.199
31
0.0
0
LINE
5
417c
8
0-2
6
CONTINUOUS
62
  7
10
918.504
20
381.577
30
0.0
11
919.008
21
380.795
31
0.0
0
LINE
5
417d
8
0-2
6
CONTINUOUS
62
  7
10
919.008
20
380.795
30
0.0
11
919.447
21
380.038
31
0.0
0
LINE
5
417e
8
0-2
6
CONTINUOUS
62
  7
10
919.447
20
380.038
30
0.0
11
919.827
21
379.308
31
0.0
0
LINE
5
417f
8
0-2
6
CONTINUOUS
62
  7
10
919.827
20
379.308
30
0.0
11
920.153
21
378.606
31
0.0
0
LINE
5
4180
8
0-2
6
CONTINUOUS
62
  7
10
920.153
20
378.606
30
0.0
11
920.428
21
377.934
31
0.0
0
LINE
5
4181
8
0-2
6
CONTINUOUS
62
  7
10
920.428
20
377.934
30
0.0
11
920.657
21
377.292
31
0.0
0
LINE
5
4182
8
0-2
6
CONTINUOUS
62
  7
10
920.657
20
377.292
30
0.0
11
920.842
21
376.680
31
0.0
0
LINE
5
4183
8
0-2
6
CONTINUOUS
62
  7
10
920.842
20
376.680
30
0.0
11
920.986
21
376.096
31
0.0
0
LINE
5
4184
8
0-2
6
CONTINUOUS
62
  7
10
920.986
20
376.096
30
0.0
11
921.093
21
375.542
31
0.0
0
LINE
5
4185
8
0-2
6
CONTINUOUS
62
  7
10
921.093
20
375.542
30
0.0
11
921.163
21
375.014
31
0.0
0
LINE
5
4186
8
0-2
6
CONTINUOUS
62
  7
10
921.163
20
375.014
30
0.0
11
921.200
21
374.513
31
0.0
0
LINE
5
4187
8
0-2
6
CONTINUOUS
62
  7
10
921.200
20
374.513
30
0.0
11
921.204
21
374.037
31
0.0
0
LINE
5
4188
8
0-2
6
CONTINUOUS
62
  7
10
921.204
20
374.037
30
0.0
11
921.178
21
373.585
31
0.0
0
LINE
5
4189
8
0-2
6
CONTINUOUS
62
  7
10
921.178
20
373.585
30
0.0
11
921.124
21
373.155
31
0.0
0
LINE
5
418a
8
0-2
6
CONTINUOUS
62
  7
10
921.124
20
373.155
30
0.0
11
921.043
21
372.747
31
0.0
0
LINE
5
418b
8
0-2
6
CONTINUOUS
62
  7
10
921.043
20
372.747
30
0.0
11
920.936
21
372.359
31
0.0
0
LINE
5
418c
8
0-2
6
CONTINUOUS
62
  7
10
920.936
20
372.359
30
0.0
11
920.806
21
371.990
31
0.0
0
LINE
5
418d
8
0-2
6
CONTINUOUS
62
  7
10
920.806
20
371.990
30
0.0
11
920.654
21
371.639
31
0.0
0
LINE
5
418e
8
0-2
6
CONTINUOUS
62
  7
10
920.654
20
371.639
30
0.0
11
920.481
21
371.303
31
0.0
0
LINE
5
418f
8
0-2
6
CONTINUOUS
62
  7
10
920.481
20
371.303
30
0.0
11
920.291
21
370.984
31
0.0
0
LINE
5
4190
8
0-2
6
CONTINUOUS
62
  7
10
920.291
20
370.984
30
0.0
11
920.083
21
370.678
31
0.0
0
LINE
5
4191
8
0-2
6
CONTINUOUS
62
  7
10
920.083
20
370.678
30
0.0
11
919.861
21
370.386
31
0.0
0
LINE
5
4192
8
0-2
6
CONTINUOUS
62
  7
10
919.861
20
370.386
30
0.0
11
919.625
21
370.105
31
0.0
0
LINE
5
4193
8
0-2
6
CONTINUOUS
62
  7
10
919.625
20
370.105
30
0.0
11
919.378
21
369.836
31
0.0
0
LINE
5
4194
8
0-2
6
CONTINUOUS
62
  7
10
919.378
20
369.836
30
0.0
11
919.121
21
369.577
31
0.0
0
LINE
5
4195
8
0-2
6
CONTINUOUS
62
  7
10
919.121
20
369.577
30
0.0
11
918.857
21
369.327
31
0.0
0
LINE
5
4196
8
0-2
6
CONTINUOUS
62
  7
10
918.857
20
369.327
30
0.0
11
918.586
21
369.085
31
0.0
0
LINE
5
4197
8
0-2
6
CONTINUOUS
62
  7
10
918.586
20
369.085
30
0.0
11
918.310
21
368.851
31
0.0
0
LINE
5
4198
8
0-2
6
CONTINUOUS
62
  7
10
918.310
20
368.851
30
0.0
11
918.032
21
368.624
31
0.0
0
LINE
5
4199
8
0-2
6
CONTINUOUS
62
  7
10
918.032
20
368.624
30
0.0
11
917.751
21
368.403
31
0.0
0
LINE
5
419a
8
0-2
6
CONTINUOUS
62
  7
10
917.751
20
368.403
30
0.0
11
917.470
21
368.188
31
0.0
0
LINE
5
419b
8
0-2
6
CONTINUOUS
62
  7
10
917.470
20
368.188
30
0.0
11
917.190
21
367.978
31
0.0
0
LINE
5
419c
8
0-2
6
CONTINUOUS
62
  7
10
917.190
20
367.978
30
0.0
11
916.911
21
367.774
31
0.0
0
LINE
5
419d
8
0-2
6
CONTINUOUS
62
  7
10
916.911
20
367.774
30
0.0
11
916.635
21
367.577
31
0.0
0
LINE
5
419e
8
0-2
6
CONTINUOUS
62
  7
10
413.514
20
367.577
30
0.0
11
413.514
21
410.577
31
0.0
0
LINE
5
419f
8
0-2
6
CONTINUOUS
62
  7
10
595.946
20
410.577
30
0.0
11
413.514
21
410.577
31
0.0
0
LINE
5
41a0
8
0-2
6
CONTINUOUS
62
  7
10
724.135
20
685.135
30
0.0
11
809.635
21
685.135
31
0.0
0
LINE
5
41a1
8
0-2
6
CONTINUOUS
62
  7
10
724.135
20
754.054
30
0.0
11
724.135
21
685.135
31
0.0
0
LINE
5
41a2
8
0-2
6
CONTINUOUS
62
  7
10
809.635
20
754.054
30
0.0
11
809.635
21
685.135
31
0.0
0
LINE
5
41a3
8
0-2
6
CONTINUOUS
62
  7
10
809.635
20
685.135
30
0.0
11
944.635
21
685.135
31
0.0
0
LINE
5
41a4
8
0-2
6
CONTINUOUS
62
  7
10
944.635
20
754.054
30
0.0
11
944.635
21
685.135
31
0.0
0
LINE
5
41a5
8
0-2
6
CONTINUOUS
62
  7
10
944.635
20
685.135
30
0.0
11
1030.135
21
685.135
31
0.0
0
LINE
5
41a6
8
0-2
6
CONTINUOUS
62
  7
10
1030.135
20
754.054
30
0.0
11
1030.135
21
685.135
31
0.0
0
LINE
5
41a7
8
0-0
6
CONTINUOUS
62
  7
10
1256.304
20
862.243
30
0.0
11
1257.557
21
821.243
31
0.0
0
ARC
5
41a8
8
0-0
6
CONTINUOUS
62
  7
10
768.135
20
1132.243
30
0.0
40
5.000
50
270.000000
51
0.000000
0
ARC
5
41a9
8
0-0
6
CONTINUOUS
62
  7
10
980.135
20
1132.243
30
0.0
40
5.000
50
270.000000
51
0.000000
0
ARC
5
41aa
8
0-0
6
CONTINUOUS
62
  7
10
943.135
20
1132.243
30
0.0
40
5.000
50
180.000000
51
270.000000
0
ARC
5
41ab
8
0-0
6
CONTINUOUS
62
  7
10
768.135
20
1132.243
30
0.0
40
7.000
50
270.000000
51
0.000000
0
ARC
5
41ac
8
0-0
6
CONTINUOUS
62
  7
10
980.135
20
1132.243
30
0.0
40
7.000
50
270.000000
51
0.000000
0
CIRCLE
5
41ad
8
0-0
6
CONTINUOUS
62
  7
10
811.135
20
1116.243
30
0.0
40
3.000
0
CIRCLE
5
41ae
8
0-0
6
CONTINUOUS
62
  7
10
914.135
20
1116.243
30
0.0
40
3.000
0
CIRCLE
5
41af
8
0-0
6
CONTINUOUS
62
  7
10
811.135
20
1116.243
30
0.0
40
7.000
0
CIRCLE
5
41b0
8
0-0
6
CONTINUOUS
62
  7
10
914.135
20
1116.243
30
0.0
40
7.000
0
ARC
5
41b1
8
0-0
6
CONTINUOUS
62
  7
10
943.135
20
1132.243
30
0.0
40
7.000
50
180.000000
51
270.000000
0
CIRCLE
5
41b2
8
ADD_LINE
6
HIDDEN
62
  3
10
724.135
20
600.000
30
0.0
40
3.000
0
ARC
5
41b3
8
0-2
6
CONTINUOUS
62
  7
10
877.135
20
336.097
30
0.0
40
74.480
50
28.994720
51
151.005280
0
ARC
5
41b4
8
0-2
6
CONTINUOUS
62
  7
10
877.135
20
336.097
30
0.0
40
61.480
50
47.710159
51
132.289810
0
TEXT
5
41b5
100
AcDbEntity
8
0-2
62
7
100
AcDbText
10
848.260
20
1331.252
30
0.0
40
9.750
41
0.800
50
0.000
1
345
100
AcDbText
0
TEXT
5
41b6
100
AcDbEntity
8
0-2
62
7
100
AcDbText
10
1296.122
20
1331.252
30
0.0
40
9.750
41
0.800
50
0.000
1
40
100
AcDbText
0
TEXT
5
41b7
100
AcDbEntity
8
0-2
62
7
100
AcDbText
10
698.385
20
1275.473
30
0.0
40
9.750
41
0.800
50
0.000
1
39
100
AcDbText
0
TEXT
5
41b8
100
AcDbEntity
8
0-2
62
7
100
AcDbText
10
867.760
20
1275.473
30
0.0
40
9.750
41
0.800
50
0.000
1
306
100
AcDbText
0
TEXT
5
41b9
100
AcDbEntity
8
0-2
62
7
100
AcDbText
10
1281.122
20
1275.473
30
0.0
40
9.750
41
0.800
50
0.000
1
10
100
AcDbText
0
TEXT
5
41ba
100
AcDbEntity
8
0-2
62
7
100
AcDbText
10
1301.122
20
1275.473
30
0.0
40
9.750
41
0.800
50
0.000
1
30
100
AcDbText
0
TEXT
5
41bb
100
AcDbEntity
8
0-2
62
7
100
AcDbText
10
1298.122
20
687.635
30
0.0
40
9.750
41
0.800
50
0.000
1
30
100
AcDbText
0
TEXT
5
41bc
100
AcDbEntity
8
0-2
62
7
100
AcDbText
10
698.385
20
213.311
30
0.0
40
9.750
41
0.800
50
0.000
1
39
100
AcDbText
0
TEXT
5
41bd
100
AcDbEntity
8
0-2
62
7
100
AcDbText
10
867.760
20
213.311
30
0.0
40
9.750
41
0.800
50
0.000
1
306
100
AcDbText
0
TEXT
5
41be
100
AcDbEntity
8
0-2
62
7
100
AcDbText
10
411.014
20
968.868
30
0.0
40
9.750
41
0.800
50
90.000
1
330
100
AcDbText
0
TEXT
5
41bf
100
AcDbEntity
8
0-2
62
7
100
AcDbText
10
411.014
20
796.993
30
0.0
40
9.750
41
0.800
50
90.000
1
20
100
AcDbText
0
TEXT
5
41c0
100
AcDbEntity
8
0-2
62
7
100
AcDbText
10
411.014
20
580.250
30
0.0
40
9.750
41
0.800
50
90.000
1
27
100
AcDbText
0
TEXT
5
41c1
100
AcDbEntity
8
0-2
62
7
100
AcDbText
10
411.014
20
346.327
30
0.0
40
9.750
41
0.800
50
90.000
1
30
100
AcDbText
0
TEXT
5
41c2
100
AcDbEntity
8
0-2
62
7
100
AcDbText
10
1165.068
20
958.868
30
0.0
40
9.750
41
0.800
50
90.000
1
350
100
AcDbText
0
TEXT
5
41c3
100
AcDbEntity
8
0-2
62
7
100
AcDbText
10
1165.068
20
586.250
30
0.0
40
9.750
41
0.800
50
90.000
1
15
100
AcDbText
0
TEXT
5
41c4
100
AcDbEntity
8
0-2
62
7
100
AcDbText
10
411.014
20
382.827
30
0.0
40
9.750
41
0.800
50
90.000
1
43
100
AcDbText
0
TEXT
5
41c5
100
AcDbEntity
8
0-2
62
7
100
AcDbText
10
760.635
20
687.635
30
0.0
40
9.750
41
0.800
50
0.000
1
85
100
AcDbText
0
TEXT
5
41c6
100
AcDbEntity
8
0-2
62
7
100
AcDbText
10
867.760
20
687.635
30
0.0
40
9.750
41
0.800
50
0.000
1
135
100
AcDbText
0
TEXT
5
41c7
100
AcDbEntity
8
0-2
62
7
100
AcDbText
10
981.135
20
687.635
30
0.0
40
9.750
41
0.800
50
0.000
1
86
100
AcDbText
0
POINT
5
41c8
8
0-2
62
  7
10
685.135
20
1328.752
30
0.0
0
POINT
5
41c9
8
0-2
62
  7
10
1030.135
20
1328.752
30
0.0
0
POINT
5
41ca
8
0-2
62
  7
10
1282.372
20
1328.752
30
0.0
0
POINT
5
41cb
8
0-2
62
  7
10
1322.372
20
1328.752
30
0.0
0
POINT
5
41cc
8
0-2
62
  7
10
685.135
20
1272.973
30
0.0
0
POINT
5
41cd
8
0-2
62
  7
10
724.135
20
1272.973
30
0.0
0
POINT
5
41ce
8
0-2
62
  7
10
1030.135
20
1272.973
30
0.0
0
POINT
5
41cf
8
0-2
62
  7
10
1282.372
20
1272.973
30
0.0
0
POINT
5
41d0
8
0-2
62
  7
10
1292.372
20
1272.973
30
0.0
0
POINT
5
41d1
8
0-2
62
  7
10
1322.372
20
1272.973
30
0.0
0
POINT
5
41d2
8
0-2
62
  7
10
1289.372
20
685.135
30
0.0
0
POINT
5
41d3
8
0-2
62
  7
10
1319.372
20
685.135
30
0.0
0
POINT
5
41d4
8
0-2
62
  7
10
685.135
20
210.811
30
0.0
0
POINT
5
41d5
8
0-2
62
  7
10
724.135
20
210.811
30
0.0
0
POINT
5
41d6
8
0-2
62
  7
10
1030.135
20
210.811
30
0.0
0
POINT
5
41d7
8
0-2
62
  7
10
413.514
20
1143.243
30
0.0
0
POINT
5
41d8
8
0-2
62
  7
10
413.514
20
813.243
30
0.0
0
POINT
5
41d9
8
0-2
62
  7
10
413.514
20
793.243
30
0.0
0
POINT
5
41da
8
0-2
62
  7
10
413.514
20
600.000
30
0.0
0
POINT
5
41db
8
0-2
62
  7
10
413.514
20
573.000
30
0.0
0
POINT
5
41dc
8
0-2
62
  7
10
413.514
20
367.577
30
0.0
0
POINT
5
41dd
8
0-2
62
  7
10
413.514
20
337.577
30
0.0
0
POINT
5
41de
8
0-2
62
  7
10
1167.568
20
1143.243
30
0.0
0
POINT
5
41df
8
0-2
62
  7
10
1167.568
20
793.243
30
0.0
0
POINT
5
41e0
8
0-2
62
  7
10
1167.568
20
600.000
30
0.0
0
POINT
5
41e1
8
0-2
62
  7
10
1167.568
20
585.000
30
0.0
0
POINT
5
41e2
8
0-2
62
  7
10
413.514
20
410.577
30
0.0
0
POINT
5
41e3
8
0-2
62
  7
10
724.135
20
685.135
30
0.0
0
POINT
5
41e4
8
0-2
62
  7
10
809.635
20
685.135
30
0.0
0
POINT
5
41e5
8
0-2
62
  7
10
944.635
20
685.135
30
0.0
0
POINT
5
41e6
8
0-2
62
  7
10
1030.135
20
685.135
30
0.0
0
ENDSEC
0
EOF
