0
SECTION
2
HEADER
  9
$EXTMIN
10
0
20
0
30
0
  9
$EXTMAX
10
1386.487
20
1336.284
30
0
  9
$LTSCALE
40
5.000
  9
$DIMSCALE
40
5.000
  9
$PDMODE
70
0
  9
$PDSIZE
40
40
0
ENDSEC
0
SECTION
2
TABLES
0
TABLE
2
LTYPE
70
9
0
LTYPE
5
1f4
2
CONTINUOUS
70
0
3
実線
72
65
73
0
40
0.0
0
LTYPE
5
1f5
2
DOT
70
0
3
--  --  --  --  --  --  --  --     
72
65
73
2
40
5.000
49
1.000
49
-4.000
0
LTYPE
5
1f6
2
DASHED
70
0
3
----    ----    ----    ----    
72
65
73
2
40
5.000
49
2.000
49
-3.000
0
LTYPE
5
1f7
2
DASHED2
70
0
3
------  ------  ------  ------ 
72
65
73
2
40
10.000
49
4.000
49
-6.000
0
LTYPE
5
1f8
2
CENTER
70
0
3
----- - ----- - ----- - ----- - 
72
65
73
4
40
9.000
49
6.000
49
-1.000
49
1.000
49
-1.000
0
LTYPE
5
1f9
2
CENTER2
70
0
3
----------  --  ----------  -- 
72
65
73
4
40
18.000
49
12.000
49
-2.000
49
2.000
49
-2.000
0
LTYPE
5
1fa
2
PHANTOM
70
0
3
--- - - --- - - --- - - --- - -
72
65
73
6
40
10.000
49
5.000
49
-1.000
49
1.000
49
-1.000
49
1.000
49
-1.000
0
LTYPE
5
1fb
2
PHANTOM2
70
0
3
--------  -  -  --------  -  -
72
65
73
6
40
16.000
49
6.000
49
-2.000
49
2.000
49
-2.000
49
2.000
49
-2.000
0
LTYPE
5
1fc
2
HIDDEN
70
0
3
-   -   -   -   -   -   -   -   
72
65
73
2
40
2.500
49
0.500
49
-2.000
0
ENDTAB
0
TABLE
2
STYLE
70
1
0
STYLE
5
1fd
100
AcDbSymbolTableRecord
100
AcDbTextStyleTableRecord
2
STANDARD
70
0
40
0.0
41
1.0
50
0.0
71
0
42
0.0
3
txt.shx
4
extfont.shx
0
STYLE
5
1fe
100
AcDbSymbolTableRecord
100
AcDbTextStyleTableRecord
2
TATEGAKI
70
4
40
0.0
41
1.0
50
0.0
71
0
42
0.0
3
txt.shx
4
extfont.shx
0
STYLE
5
1ff
100
AcDbSymbolTableRecord
100
AcDbTextStyleTableRecord
2
MT
70
0
40
0.0
41
1.0
50
0.0
71
0
42
0.0
3
MS Mincho
4

0
STYLE
5
200
100
AcDbSymbolTableRecord
100
AcDbTextStyleTableRecord
2
TMT
70
4
40
0.0
41
1.0
50
0.0
71
0
42
0.0
3
@MS Mincho
4

0
ENDTAB
0
TABLE
2
LAYER
5
44ee
100
AcDbSymbolTable
70
10
0
LAYER
5
44ef
100
AcDbSymbolTableRecord
100
AcDbLayerTableRecord
2
0
70
64
62
  7
  6
CONTINUOUS
0
LAYER
5
44f0
100
AcDbSymbolTableRecord
100
AcDbLayerTableRecord
2
0-0
70
64
62
  7
  6
CONTINUOUS
0
LAYER
5
44f1
100
AcDbSymbolTableRecord
100
AcDbLayerTableRecord
2
0-1
70
64
62
  7
  6
CONTINUOUS
0
LAYER
5
44f2
100
AcDbSymbolTableRecord
100
AcDbLayerTableRecord
2
0-2
70
64
62
  7
  6
CONTINUOUS
0
LAYER
5
44f3
100
AcDbSymbolTableRecord
100
AcDbLayerTableRecord
2
ADD_LINE
70
64
62
  -7
  6
CONTINUOUS
0
ENDTAB
0
ENDSEC
0
SECTION
2
ENTITIES
0
LINE
5
44f4
8
0-0
6
CONTINUOUS
62
  7
10
1020.135
20
1064.203
30
0.0
11
1020.135
21
841.203
31
0.0
0
LINE
5
44f5
8
0-0
6
CONTINUOUS
62
  7
10
1020.135
20
538.054
30
0.0
11
1020.135
21
454.054
31
0.0
0
LINE
5
44f6
8
0-0
6
CONTINUOUS
62
  7
10
1307.838
20
1061.203
30
0.0
11
1337.838
21
1062.703
31
0.0
0
LINE
5
44f7
8
0-0
6
CONTINUOUS
62
  7
10
1256.838
20
964.703
30
0.0
11
1307.838
21
1061.203
31
0.0
0
LINE
5
44f8
8
0-0
6
CONTINUOUS
62
  7
10
1318.838
20
1045.634
30
0.0
11
1333.838
21
1052.703
31
0.0
0
LINE
5
44f9
8
0-0
6
CONTINUOUS
62
  7
10
1337.838
20
1062.703
30
0.0
11
1333.838
21
1052.703
31
0.0
0
LINE
5
44fa
8
0-0
6
CONTINUOUS
62
  7
10
1307.838
20
844.203
30
0.0
11
1337.838
21
842.703
31
0.0
0
LINE
5
44fb
8
0-0
6
CONTINUOUS
62
  7
10
1256.838
20
940.703
30
0.0
11
1307.838
21
844.203
31
0.0
0
LINE
5
44fc
8
0-0
6
CONTINUOUS
62
  7
10
1318.838
20
859.772
30
0.0
11
1333.838
21
852.703
31
0.0
0
LINE
5
44fd
8
0-0
6
CONTINUOUS
62
  7
10
1337.838
20
842.703
30
0.0
11
1333.838
21
852.703
31
0.0
0
LINE
5
44fe
8
0-0
6
CONTINUOUS
62
  7
10
1269.724
20
952.703
30
0.0
11
1318.838
21
859.772
31
0.0
0
LINE
5
44ff
8
0-0
6
CONTINUOUS
62
  7
10
1269.724
20
952.703
30
0.0
11
1318.838
21
1045.634
31
0.0
0
LINE
5
4500
8
0-2
6
CONTINUOUS
62
  7
10
1253.838
20
1333.784
30
0.0
11
1337.838
21
1333.784
31
0.0
0
LINE
5
4501
8
0-2
6
CONTINUOUS
62
  7
10
1253.838
20
1151.351
30
0.0
11
1253.838
21
1333.784
31
0.0
0
LINE
5
4502
8
0-2
6
CONTINUOUS
62
  7
10
1337.838
20
1151.351
30
0.0
11
1337.838
21
1333.784
31
0.0
0
LINE
5
4503
8
0-2
6
CONTINUOUS
62
  7
10
1135.135
20
1064.203
30
0.0
11
1135.135
21
841.203
31
0.0
0
LINE
5
4504
8
0-2
6
CONTINUOUS
62
  7
10
1054.054
20
1064.203
30
0.0
11
1135.135
21
1064.203
31
0.0
0
LINE
5
4505
8
0-2
6
CONTINUOUS
62
  7
10
1054.054
20
841.203
30
0.0
11
1135.135
21
841.203
31
0.0
0
LINE
5
4506
8
0-2
6
CONTINUOUS
62
  7
10
1135.135
20
538.054
30
0.0
11
1135.135
21
454.054
31
0.0
0
LINE
5
4507
8
0-2
6
CONTINUOUS
62
  7
10
1054.054
20
538.054
30
0.0
11
1135.135
21
538.054
31
0.0
0
LINE
5
4508
8
0-2
6
CONTINUOUS
62
  7
10
1054.054
20
454.054
30
0.0
11
1135.135
21
454.054
31
0.0
0
LINE
5
4509
8
ADD_LINE
6
HIDDEN
62
  3
10
1208.108
20
952.703
30
0.0
11
1386.487
21
952.703
31
0.0
0
LINE
5
450a
8
0-1
6
CONTINUOUS
62
  7
10
1096.035
20
454.054
30
0.0
11
1096.035
21
484.054
31
0.0
0
LINE
5
450b
8
0-1
6
CONTINUOUS
62
  7
10
1054.054
20
454.054
30
0.0
11
1096.035
21
454.054
31
0.0
0
LINE
5
450c
8
0-1
6
CONTINUOUS
62
  7
10
1054.054
20
484.054
30
0.0
11
1096.035
21
484.054
31
0.0
0
LINE
5
450d
8
0-1
6
CONTINUOUS
62
  7
10
1096.035
20
484.054
30
0.0
11
1096.035
21
538.054
31
0.0
0
LINE
5
450e
8
0-1
6
CONTINUOUS
62
  7
10
1054.054
20
538.054
30
0.0
11
1096.035
21
538.054
31
0.0
0
LINE
5
450f
8
0-0
6
CONTINUOUS
62
  7
10
748.857
20
1062.703
30
0.0
11
1020.135
21
1062.703
31
0.0
0
LINE
5
4510
8
0-0
6
CONTINUOUS
62
  7
10
717.135
20
1064.203
30
0.0
11
717.135
21
841.203
31
0.0
0
LINE
5
4511
8
0-0
6
CONTINUOUS
62
  7
10
717.135
20
1062.703
30
0.0
11
748.857
21
1062.703
31
0.0
0
LINE
5
4512
8
0-0
6
CONTINUOUS
62
  7
10
717.135
20
842.703
30
0.0
11
1020.135
21
842.703
31
0.0
0
LINE
5
4513
8
0-0
6
CONTINUOUS
62
  7
10
685.135
20
1046.703
30
0.0
11
717.135
21
1048.703
31
0.0
0
LINE
5
4514
8
0-0
6
CONTINUOUS
62
  7
10
717.135
20
1064.203
30
0.0
11
1020.135
21
1064.203
31
0.0
0
LINE
5
4515
8
0-0
6
CONTINUOUS
62
  7
10
717.135
20
841.203
30
0.0
11
1020.135
21
841.203
31
0.0
0
LINE
5
4516
8
0-0
6
CONTINUOUS
62
  7
10
685.135
20
1046.703
30
0.0
11
685.135
21
858.703
31
0.0
0
LINE
5
4517
8
0-0
6
CONTINUOUS
62
  7
10
685.135
20
858.703
30
0.0
11
717.135
21
856.703
31
0.0
0
LINE
5
4518
8
0-0
6
CONTINUOUS
62
  7
10
693.135
20
1047.203
30
0.0
11
693.135
21
858.203
31
0.0
0
LINE
5
4519
8
0-0
6
CONTINUOUS
62
  7
10
697.135
20
1047.453
30
0.0
11
697.135
21
857.953
31
0.0
0
LINE
5
451a
8
0-0
6
CONTINUOUS
62
  7
10
708.135
20
1048.140
30
0.0
11
708.135
21
857.265
31
0.0
0
LINE
5
451b
8
0-0
6
CONTINUOUS
62
  7
10
704.135
20
1047.890
30
0.0
11
704.135
21
857.515
31
0.0
0
LINE
5
451c
8
0-0
6
CONTINUOUS
62
  7
10
718.135
20
484.054
30
0.0
11
1020.135
21
484.054
31
0.0
0
LINE
5
451d
8
0-0
6
CONTINUOUS
62
  7
10
1020.135
20
538.054
30
0.0
11
718.135
21
538.054
31
0.0
0
LINE
5
451e
8
0-0
6
CONTINUOUS
62
  7
10
718.135
20
538.054
30
0.0
11
718.135
21
454.054
31
0.0
0
LINE
5
451f
8
0-0
6
CONTINUOUS
62
  7
10
718.135
20
454.054
30
0.0
11
1020.135
21
454.054
31
0.0
0
LINE
5
4520
8
0-0
6
CONTINUOUS
62
  7
10
718.135
20
461.054
30
0.0
11
686.135
21
461.054
31
0.0
0
LINE
5
4521
8
0-0
6
CONTINUOUS
62
  7
10
718.135
20
473.054
30
0.0
11
686.135
21
473.054
31
0.0
0
LINE
5
4522
8
0-0
6
CONTINUOUS
62
  7
10
686.135
20
522.054
30
0.0
11
686.135
21
461.054
31
0.0
0
LINE
5
4523
8
0-0
6
CONTINUOUS
62
  7
10
709.135
20
522.054
30
0.0
11
709.135
21
473.054
31
0.0
0
LINE
5
4524
8
0-0
6
CONTINUOUS
62
  7
10
705.135
20
522.054
30
0.0
11
705.135
21
473.054
31
0.0
0
LINE
5
4525
8
0-0
6
CONTINUOUS
62
  7
10
698.135
20
522.054
30
0.0
11
698.135
21
473.054
31
0.0
0
LINE
5
4526
8
0-0
6
CONTINUOUS
62
  7
10
694.135
20
522.054
30
0.0
11
694.135
21
473.054
31
0.0
0
LINE
5
4527
8
0-0
6
CONTINUOUS
62
  7
10
698.135
20
520.054
30
0.0
11
694.135
21
520.054
31
0.0
0
LINE
5
4528
8
0-0
6
CONTINUOUS
62
  7
10
709.135
20
520.054
30
0.0
11
705.135
21
520.054
31
0.0
0
LINE
5
4529
8
0-0
6
CONTINUOUS
62
  7
10
718.135
20
522.054
30
0.0
11
709.135
21
522.054
31
0.0
0
LINE
5
452a
8
0-0
6
CONTINUOUS
62
  7
10
705.135
20
522.054
30
0.0
11
698.135
21
522.054
31
0.0
0
LINE
5
452b
8
0-0
6
CONTINUOUS
62
  7
10
694.135
20
522.054
30
0.0
11
686.135
21
522.054
31
0.0
0
LINE
5
452c
8
ADD_LINE
6
HIDDEN
62
  3
10
718.135
20
454.054
30
0.0
11
705.562
21
454.054
31
0.0
0
LINE
5
452d
8
ADD_LINE
6
HIDDEN
62
  3
10
718.135
20
454.054
30
0.0
11
718.135
21
445.829
31
0.0
0
LINE
5
452e
8
0-2
6
CONTINUOUS
62
  7
10
685.135
20
1333.784
30
0.0
11
717.135
21
1333.784
31
0.0
0
LINE
5
452f
8
0-2
6
CONTINUOUS
62
  7
10
685.135
20
1151.351
30
0.0
11
685.135
21
1333.784
31
0.0
0
LINE
5
4530
8
0-2
6
CONTINUOUS
62
  7
10
717.135
20
1151.351
30
0.0
11
717.135
21
1333.784
31
0.0
0
LINE
5
4531
8
0-2
6
CONTINUOUS
62
  7
10
717.135
20
1333.784
30
0.0
11
1020.135
21
1333.784
31
0.0
0
LINE
5
4532
8
0-2
6
CONTINUOUS
62
  7
10
1020.135
20
1151.351
30
0.0
11
1020.135
21
1333.784
31
0.0
0
LINE
5
4533
8
0-2
6
CONTINUOUS
62
  7
10
686.135
20
351.423
30
0.0
11
718.135
21
351.423
31
0.0
0
LINE
5
4534
8
0-2
6
CONTINUOUS
62
  7
10
686.135
20
418.745
30
0.0
11
686.135
21
351.423
31
0.0
0
LINE
5
4535
8
0-2
6
CONTINUOUS
62
  7
10
718.135
20
418.745
30
0.0
11
718.135
21
351.423
31
0.0
0
LINE
5
4536
8
0-2
6
CONTINUOUS
62
  7
10
718.135
20
351.423
30
0.0
11
1020.135
21
351.423
31
0.0
0
LINE
5
4537
8
0-2
6
CONTINUOUS
62
  7
10
1020.135
20
418.745
30
0.0
11
1020.135
21
351.423
31
0.0
0
LINE
5
4538
8
0-0
6
CONTINUOUS
62
  7
10
1020.135
20
952.703
30
0.0
11
963.135
21
952.703
31
0.0
0
LINE
5
4539
8
0-0
6
CONTINUOUS
62
  7
10
957.135
20
952.703
30
0.0
11
810.135
21
952.703
31
0.0
0
LINE
5
453a
8
0-0
6
CONTINUOUS
62
  7
10
804.135
20
952.703
30
0.0
11
685.135
21
952.703
31
0.0
0
ARC
5
453b
8
0-0
6
CONTINUOUS
62
  7
10
1279.338
20
952.703
30
0.0
40
25.500
50
151.927933
51
208.072067
0
CIRCLE
5
453c
8
0-0
6
CONTINUOUS
62
  7
10
960.135
20
952.703
30
0.0
40
3.000
0
CIRCLE
5
453d
8
0-0
6
CONTINUOUS
62
  7
10
807.135
20
952.703
30
0.0
40
3.000
0
CIRCLE
5
453e
8
ADD_LINE
6
HIDDEN
62
  3
10
718.135
20
454.054
30
0.0
40
3.000
0
TEXT
5
453f
100
AcDbEntity
8
0-2
62
7
100
AcDbText
10
1289.588
20
1336.284
30
0.0
40
9.750
41
0.800
50
0.000
1
84
100
AcDbText
0
TEXT
5
4540
100
AcDbEntity
8
0-2
62
7
100
AcDbText
10
1132.635
20
943.328
30
0.0
40
9.750
41
0.800
50
90.000
1
223
100
AcDbText
0
TEXT
5
4541
100
AcDbEntity
8
0-2
62
7
100
AcDbText
10
1132.635
20
489.804
30
0.0
40
9.750
41
0.800
50
90.000
1
84
100
AcDbText
0
TEXT
5
4542
100
AcDbEntity
8
0-1
62
7
100
AcDbText
10
1093.535
20
462.804
30
0.0
40
9.750
41
0.800
50
90.000
1
30
100
AcDbText
0
TEXT
5
4543
100
AcDbEntity
8
0-1
62
7
100
AcDbText
10
1093.535
20
504.804
30
0.0
40
9.750
41
0.800
50
90.000
1
54
100
AcDbText
0
TEXT
5
4544
100
AcDbEntity
8
0-2
62
7
100
AcDbText
10
694.885
20
1336.284
30
0.0
40
9.750
41
0.800
50
0.000
1
32
100
AcDbText
0
TEXT
5
4545
100
AcDbEntity
8
0-2
62
7
100
AcDbText
10
859.260
20
1336.284
30
0.0
40
9.750
41
0.800
50
0.000
1
303
100
AcDbText
0
TEXT
5
4546
100
AcDbEntity
8
0-2
62
7
100
AcDbText
10
695.885
20
353.923
30
0.0
40
9.750
41
0.800
50
0.000
1
32
100
AcDbText
0
TEXT
5
4547
100
AcDbEntity
8
0-2
62
7
100
AcDbText
10
859.760
20
353.923
30
0.0
40
9.750
41
0.800
50
0.000
1
302
100
AcDbText
0
POINT
5
4548
8
0-2
62
  7
10
1253.838
20
1333.784
30
0.0
0
POINT
5
4549
8
0-2
62
  7
10
1337.838
20
1333.784
30
0.0
0
POINT
5
454a
8
0-2
62
  7
10
1135.135
20
1064.203
30
0.0
0
POINT
5
454b
8
0-2
62
  7
10
1135.135
20
841.203
30
0.0
0
POINT
5
454c
8
0-2
62
  7
10
1135.135
20
538.054
30
0.0
0
POINT
5
454d
8
0-2
62
  7
10
1135.135
20
454.054
30
0.0
0
POINT
5
454e
8
0-1
62
  7
10
1096.035
20
454.054
30
0.0
0
POINT
5
454f
8
0-1
62
  7
10
1096.035
20
484.054
30
0.0
0
POINT
5
4550
8
0-1
62
  7
10
1096.035
20
538.054
30
0.0
0
POINT
5
4551
8
0-2
62
  7
10
685.135
20
1333.784
30
0.0
0
POINT
5
4552
8
0-2
62
  7
10
717.135
20
1333.784
30
0.0
0
POINT
5
4553
8
0-2
62
  7
10
1020.135
20
1333.784
30
0.0
0
POINT
5
4554
8
0-2
62
  7
10
686.135
20
351.423
30
0.0
0
POINT
5
4555
8
0-2
62
  7
10
718.135
20
351.423
30
0.0
0
POINT
5
4556
8
0-2
62
  7
10
1020.135
20
351.423
30
0.0
0
ENDSEC
0
EOF
