0
SECTION
2
HEADER
  9
$EXTMIN
10
0
20
0
30
0
  9
$EXTMAX
10
1557.069
20
1303.851
30
0
  9
$LTSCALE
40
5.000
  9
$DIMSCALE
40
5.000
  9
$PDMODE
70
0
  9
$PDSIZE
40
40
0
ENDSEC
0
SECTION
2
TABLES
0
TABLE
2
LTYPE
70
9
0
LTYPE
5
1f4
2
CONTINUOUS
70
0
3
実線
72
65
73
0
40
0.0
0
LTYPE
5
1f5
2
DOT
70
0
3
--  --  --  --  --  --  --  --     
72
65
73
2
40
5.000
49
1.000
49
-4.000
0
LTYPE
5
1f6
2
DASHED
70
0
3
----    ----    ----    ----    
72
65
73
2
40
5.000
49
2.000
49
-3.000
0
LTYPE
5
1f7
2
DASHED2
70
0
3
------  ------  ------  ------ 
72
65
73
2
40
10.000
49
4.000
49
-6.000
0
LTYPE
5
1f8
2
CENTER
70
0
3
----- - ----- - ----- - ----- - 
72
65
73
4
40
9.000
49
6.000
49
-1.000
49
1.000
49
-1.000
0
LTYPE
5
1f9
2
CENTER2
70
0
3
----------  --  ----------  -- 
72
65
73
4
40
18.000
49
12.000
49
-2.000
49
2.000
49
-2.000
0
LTYPE
5
1fa
2
PHANTOM
70
0
3
--- - - --- - - --- - - --- - -
72
65
73
6
40
10.000
49
5.000
49
-1.000
49
1.000
49
-1.000
49
1.000
49
-1.000
0
LTYPE
5
1fb
2
PHANTOM2
70
0
3
--------  -  -  --------  -  -
72
65
73
6
40
16.000
49
6.000
49
-2.000
49
2.000
49
-2.000
49
2.000
49
-2.000
0
LTYPE
5
1fc
2
HIDDEN
70
0
3
-   -   -   -   -   -   -   -   
72
65
73
2
40
2.500
49
0.500
49
-2.000
0
ENDTAB
0
TABLE
2
STYLE
70
1
0
STYLE
5
1fd
100
AcDbSymbolTableRecord
100
AcDbTextStyleTableRecord
2
STANDARD
70
0
40
0.0
41
1.0
50
0.0
71
0
42
0.0
3
txt.shx
4
extfont.shx
0
STYLE
5
1fe
100
AcDbSymbolTableRecord
100
AcDbTextStyleTableRecord
2
TATEGAKI
70
4
40
0.0
41
1.0
50
0.0
71
0
42
0.0
3
txt.shx
4
extfont.shx
0
STYLE
5
1ff
100
AcDbSymbolTableRecord
100
AcDbTextStyleTableRecord
2
MT
70
0
40
0.0
41
1.0
50
0.0
71
0
42
0.0
3
MS Mincho
4

0
STYLE
5
200
100
AcDbSymbolTableRecord
100
AcDbTextStyleTableRecord
2
TMT
70
4
40
0.0
41
1.0
50
0.0
71
0
42
0.0
3
@MS Mincho
4

0
ENDTAB
0
TABLE
2
LAYER
5
aa8
100
AcDbSymbolTable
70
10
0
LAYER
5
aa9
100
AcDbSymbolTableRecord
100
AcDbLayerTableRecord
2
0
70
64
62
  7
  6
CONTINUOUS
0
LAYER
5
aaa
100
AcDbSymbolTableRecord
100
AcDbLayerTableRecord
2
0-0
70
64
62
  7
  6
CONTINUOUS
0
LAYER
5
aab
100
AcDbSymbolTableRecord
100
AcDbLayerTableRecord
2
0-1
70
64
62
  7
  6
CONTINUOUS
0
LAYER
5
aac
100
AcDbSymbolTableRecord
100
AcDbLayerTableRecord
2
0-2
70
64
62
  7
  6
CONTINUOUS
0
LAYER
5
aad
100
AcDbSymbolTableRecord
100
AcDbLayerTableRecord
2
ADD_LINE
70
64
62
  -7
  6
CONTINUOUS
0
ENDTAB
0
ENDSEC
0
SECTION
2
ENTITIES
0
LINE
5
aae
8
0-0
6
CONTINUOUS
62
  7
10
1092.703
20
1073.243
30
0.0
11
1092.703
21
843.243
31
0.0
0
LINE
5
aaf
8
0-0
6
CONTINUOUS
62
  7
10
857.703
20
843.243
30
0.0
11
1092.703
21
843.243
31
0.0
0
LINE
5
ab0
8
0-0
6
CONTINUOUS
62
  7
10
802.703
20
1073.243
30
0.0
11
802.703
21
843.243
31
0.0
0
LINE
5
ab1
8
0-0
6
CONTINUOUS
62
  7
10
857.703
20
1073.243
30
0.0
11
857.703
21
843.243
31
0.0
0
LINE
5
ab2
8
0-0
6
CONTINUOUS
62
  7
10
857.703
20
1073.243
30
0.0
11
1092.703
21
1073.243
31
0.0
0
LINE
5
ab3
8
0-0
6
CONTINUOUS
62
  7
10
1078.703
20
848.243
30
0.0
11
1086.703
21
848.243
31
0.0
0
LINE
5
ab4
8
0-0
6
CONTINUOUS
62
  7
10
1078.703
20
1068.243
30
0.0
11
1078.703
21
848.243
31
0.0
0
LINE
5
ab5
8
0-0
6
CONTINUOUS
62
  7
10
1078.703
20
1068.243
30
0.0
11
1086.703
21
1068.243
31
0.0
0
LINE
5
ab6
8
0-0
6
CONTINUOUS
62
  7
10
1086.703
20
1068.243
30
0.0
11
1086.703
21
848.243
31
0.0
0
LINE
5
ab7
8
0-0
6
CONTINUOUS
62
  7
10
1092.703
20
603.811
30
0.0
11
1092.703
21
510.811
31
0.0
0
LINE
5
ab8
8
0-0
6
CONTINUOUS
62
  7
10
857.703
20
510.811
30
0.0
11
1092.703
21
510.811
31
0.0
0
LINE
5
ab9
8
0-0
6
CONTINUOUS
62
  7
10
857.703
20
603.811
30
0.0
11
857.703
21
510.811
31
0.0
0
LINE
5
aba
8
0-0
6
CONTINUOUS
62
  7
10
857.703
20
603.811
30
0.0
11
1092.703
21
603.811
31
0.0
0
LINE
5
abb
8
0-0
6
CONTINUOUS
62
  7
10
1078.703
20
603.811
30
0.0
11
1078.703
21
534.727
31
0.0
0
LINE
5
abc
8
0-0
6
CONTINUOUS
62
  7
10
1086.703
20
603.811
30
0.0
11
1086.703
21
534.727
31
0.0
0
LINE
5
abd
8
0-0
6
CONTINUOUS
62
  7
10
1414.865
20
1073.243
30
0.0
11
1405.865
21
1049.879
31
0.0
0
LINE
5
abe
8
0-0
6
CONTINUOUS
62
  7
10
1405.865
20
866.608
30
0.0
11
1414.865
21
843.243
31
0.0
0
LINE
5
abf
8
0-0
6
CONTINUOUS
62
  7
10
302.167
20
848.869
30
0.0
11
295.000
21
819.014
31
0.0
0
LINE
5
ac0
8
0-0
6
CONTINUOUS
62
  7
10
309.000
20
866.608
30
0.0
11
302.167
21
848.869
31
0.0
0
LINE
5
ac1
8
0-0
6
CONTINUOUS
62
  7
10
295.000
20
1097.472
30
0.0
11
302.167
21
1067.617
31
0.0
0
LINE
5
ac2
8
0-0
6
CONTINUOUS
62
  7
10
302.167
20
1067.617
30
0.0
11
309.000
21
1049.879
31
0.0
0
LINE
5
ac3
8
0-0
6
CONTINUOUS
62
  7
10
802.703
20
606.811
30
0.0
11
802.703
21
510.811
31
0.0
0
LINE
5
ac4
8
ADD_LINE
6
HIDDEN
62
  3
10
802.703
20
510.811
30
0.0
11
793.468
21
510.811
31
0.0
0
LINE
5
ac5
8
ADD_LINE
6
HIDDEN
62
  3
10
802.703
20
510.811
30
0.0
11
802.703
21
500.097
31
0.0
0
LINE
5
ac6
8
ADD_LINE
6
HIDDEN
62
  3
10
1220.270
20
958.243
30
0.0
11
1451.351
21
958.243
31
0.0
0
LINE
5
ac7
8
ADD_LINE
6
HIDDEN
62
  3
10
1220.270
20
958.243
30
0.0
11
239.189
21
958.243
31
0.0
0
LINE
5
ac8
8
0-2
6
CONTINUOUS
62
  7
10
802.703
20
1301.351
30
0.0
11
857.703
21
1301.351
31
0.0
0
LINE
5
ac9
8
0-2
6
CONTINUOUS
62
  7
10
802.703
20
1167.568
30
0.0
11
802.703
21
1301.351
31
0.0
0
LINE
5
aca
8
0-2
6
CONTINUOUS
62
  7
10
857.703
20
1167.568
30
0.0
11
857.703
21
1301.351
31
0.0
0
LINE
5
acb
8
0-2
6
CONTINUOUS
62
  7
10
857.703
20
1301.351
30
0.0
11
1092.703
21
1301.351
31
0.0
0
LINE
5
acc
8
0-2
6
CONTINUOUS
62
  7
10
1092.703
20
1167.568
30
0.0
11
1092.703
21
1301.351
31
0.0
0
LINE
5
acd
8
0-2
6
CONTINUOUS
62
  7
10
1321.865
20
1301.351
30
0.0
11
1414.865
21
1301.351
31
0.0
0
LINE
5
ace
8
0-2
6
CONTINUOUS
62
  7
10
1321.865
20
1167.568
30
0.0
11
1321.865
21
1301.351
31
0.0
0
LINE
5
acf
8
0-2
6
CONTINUOUS
62
  7
10
1414.865
20
1167.568
30
0.0
11
1414.865
21
1301.351
31
0.0
0
LINE
5
ad0
8
0-2
6
CONTINUOUS
62
  7
10
802.703
20
389.189
30
0.0
11
857.703
21
389.189
31
0.0
0
LINE
5
ad1
8
0-2
6
CONTINUOUS
62
  7
10
802.703
20
454.054
30
0.0
11
802.703
21
389.189
31
0.0
0
LINE
5
ad2
8
0-2
6
CONTINUOUS
62
  7
10
857.703
20
454.054
30
0.0
11
857.703
21
389.189
31
0.0
0
LINE
5
ad3
8
0-2
6
CONTINUOUS
62
  7
10
857.703
20
389.189
30
0.0
11
1092.703
21
389.189
31
0.0
0
LINE
5
ad4
8
0-2
6
CONTINUOUS
62
  7
10
1092.703
20
454.054
30
0.0
11
1092.703
21
389.189
31
0.0
0
LINE
5
ad5
8
0-2
6
CONTINUOUS
62
  7
10
628.378
20
1098.243
30
0.0
11
628.378
21
818.243
31
0.0
0
LINE
5
ad6
8
0-2
6
CONTINUOUS
62
  7
10
754.054
20
1098.243
30
0.0
11
628.378
21
1098.243
31
0.0
0
LINE
5
ad7
8
0-2
6
CONTINUOUS
62
  7
10
754.054
20
818.243
30
0.0
11
628.378
21
818.243
31
0.0
0
LINE
5
ad8
8
0-2
6
CONTINUOUS
62
  7
10
1220.270
20
1073.243
30
0.0
11
1220.270
21
843.243
31
0.0
0
LINE
5
ad9
8
0-2
6
CONTINUOUS
62
  7
10
1143.243
20
1073.243
30
0.0
11
1220.270
21
1073.243
31
0.0
0
LINE
5
ada
8
0-2
6
CONTINUOUS
62
  7
10
1143.243
20
843.243
30
0.0
11
1220.270
21
843.243
31
0.0
0
LINE
5
adb
8
0-2
6
CONTINUOUS
62
  7
10
1220.270
20
603.811
30
0.0
11
1220.270
21
510.811
31
0.0
0
LINE
5
adc
8
0-2
6
CONTINUOUS
62
  7
10
1143.243
20
603.811
30
0.0
11
1220.270
21
603.811
31
0.0
0
LINE
5
add
8
0-2
6
CONTINUOUS
62
  7
10
1143.243
20
510.811
30
0.0
11
1220.270
21
510.811
31
0.0
0
LINE
5
ade
8
0-2
6
CONTINUOUS
62
  7
10
628.378
20
626.811
30
0.0
11
628.378
21
510.811
31
0.0
0
LINE
5
adf
8
0-2
6
CONTINUOUS
62
  7
10
754.054
20
626.811
30
0.0
11
628.378
21
626.811
31
0.0
0
LINE
5
ae0
8
0-2
6
CONTINUOUS
62
  7
10
754.054
20
510.811
30
0.0
11
628.378
21
510.811
31
0.0
0
LINE
5
ae1
8
0-2
6
CONTINUOUS
62
  7
10
628.378
20
510.811
30
0.0
11
628.378
21
505.811
31
0.0
0
LINE
5
ae2
8
0-2
6
CONTINUOUS
62
  7
10
754.054
20
505.811
30
0.0
11
628.378
21
505.811
31
0.0
0
ARC
5
ae3
8
0-0
6
CONTINUOUS
62
  7
10
830.203
20
1070.618
30
0.0
40
27.625
50
5.452805
51
174.547180
0
ARC
5
ae4
8
0-0
6
CONTINUOUS
62
  7
10
830.203
20
845.868
30
0.0
40
27.625
50
185.452560
51
354.547455
0
CIRCLE
5
ae5
8
0-0
6
CONTINUOUS
62
  7
10
897.703
20
958.243
30
0.0
40
3.000
0
CIRCLE
5
ae6
8
0-0
6
CONTINUOUS
62
  7
10
927.703
20
958.243
30
0.0
40
3.000
0
ARC
5
ae7
8
0-0
6
CONTINUOUS
62
  7
10
830.203
20
583.936
30
0.0
40
78.125
50
249.390381
51
290.609680
0
ARC
5
ae8
8
0-0
6
CONTINUOUS
62
  7
10
829.827
20
598.421
30
0.0
40
28.392
50
10.942520
51
162.813187
0
ARC
5
ae9
8
0-0
6
CONTINUOUS
62
  7
10
1082.703
20
534.812
30
0.0
40
4.001
50
181.219955
51
358.780029
0
ARC
5
aea
8
0-0
6
CONTINUOUS
62
  7
10
1439.467
20
958.243
30
0.0
40
117.602
50
102.075394
51
257.924622
0
ARC
5
aeb
8
0-0
6
CONTINUOUS
62
  7
10
1439.467
20
958.243
30
0.0
40
97.602
50
110.137695
51
249.862320
0
ARC
5
aec
8
0-0
6
CONTINUOUS
62
  7
10
275.398
20
958.243
30
0.0
40
97.602
50
290.137634
51
69.862320
0
ARC
5
aed
8
0-0
6
CONTINUOUS
62
  7
10
275.398
20
958.243
30
0.0
40
140.602
50
278.014038
51
81.985962
0
ARC
5
aee
8
0-0
6
CONTINUOUS
62
  7
10
275.398
20
958.243
30
0.0
40
112.602
50
283.752808
51
76.247162
0
ARC
5
aef
8
0-0
6
CONTINUOUS
62
  7
10
275.398
20
958.243
30
0.0
40
120.602
50
281.811737
51
78.188248
0
CIRCLE
5
af0
8
ADD_LINE
6
HIDDEN
62
  3
10
802.703
20
510.811
30
0.0
40
3.000
0
CIRCLE
5
af1
8
ADD_LINE
6
HIDDEN
62
  3
10
802.703
20
958.243
30
0.0
40
3.000
0
TEXT
5
af2
100
AcDbEntity
8
0-2
62
7
100
AcDbText
10
823.953
20
1303.851
30
0.0
40
9.750
41
0.800
50
0.000
1
55
100
AcDbText
0
TEXT
5
af3
100
AcDbEntity
8
0-2
62
7
100
AcDbText
10
965.828
20
1303.851
30
0.0
40
9.750
41
0.800
50
0.000
1
235
100
AcDbText
0
TEXT
5
af4
100
AcDbEntity
8
0-2
62
7
100
AcDbText
10
1362.115
20
1303.851
30
0.0
40
9.750
41
0.800
50
0.000
1
93
100
AcDbText
0
TEXT
5
af5
100
AcDbEntity
8
0-2
62
7
100
AcDbText
10
823.953
20
391.689
30
0.0
40
9.750
41
0.800
50
0.000
1
55
100
AcDbText
0
TEXT
5
af6
100
AcDbEntity
8
0-2
62
7
100
AcDbText
10
965.828
20
391.689
30
0.0
40
9.750
41
0.800
50
0.000
1
235
100
AcDbText
0
TEXT
5
af7
100
AcDbEntity
8
0-2
62
7
100
AcDbText
10
625.878
20
948.868
30
0.0
40
9.750
41
0.800
50
90.000
1
280
100
AcDbText
0
TEXT
5
af8
100
AcDbEntity
8
0-2
62
7
100
AcDbText
10
1217.770
20
948.868
30
0.0
40
9.750
41
0.800
50
90.000
1
230
100
AcDbText
0
TEXT
5
af9
100
AcDbEntity
8
0-2
62
7
100
AcDbText
10
1217.770
20
551.061
30
0.0
40
9.750
41
0.800
50
90.000
1
93
100
AcDbText
0
TEXT
5
afa
100
AcDbEntity
8
0-2
62
7
100
AcDbText
10
1338.532
20
906.044
30
0.0
40
9.750
41
0.800
50
23.629
1
20
100
AcDbText
0
TEXT
5
afb
100
AcDbEntity
8
0-2
62
7
100
AcDbText
10
625.878
20
559.436
30
0.0
40
9.750
41
0.800
50
90.000
1
116
100
AcDbText
0
TEXT
5
afc
100
AcDbEntity
8
0-2
62
7
100
AcDbText
10
625.878
20
505.186
30
0.0
40
9.750
41
0.800
50
90.000
1
5
100
AcDbText
0
POINT
5
afd
8
0-2
62
  7
10
802.703
20
1301.351
30
0.0
0
POINT
5
afe
8
0-2
62
  7
10
857.703
20
1301.351
30
0.0
0
POINT
5
aff
8
0-2
62
  7
10
1092.703
20
1301.351
30
0.0
0
POINT
5
b00
8
0-2
62
  7
10
1321.865
20
1301.351
30
0.0
0
POINT
5
b01
8
0-2
62
  7
10
1414.865
20
1301.351
30
0.0
0
POINT
5
b02
8
0-2
62
  7
10
802.703
20
389.189
30
0.0
0
POINT
5
b03
8
0-2
62
  7
10
857.703
20
389.189
30
0.0
0
POINT
5
b04
8
0-2
62
  7
10
1092.703
20
389.189
30
0.0
0
POINT
5
b05
8
0-2
62
  7
10
628.378
20
1098.243
30
0.0
0
POINT
5
b06
8
0-2
62
  7
10
628.378
20
818.243
30
0.0
0
POINT
5
b07
8
0-2
62
  7
10
1220.270
20
1073.243
30
0.0
0
POINT
5
b08
8
0-2
62
  7
10
1220.270
20
843.243
30
0.0
0
POINT
5
b09
8
0-2
62
  7
10
1220.270
20
603.811
30
0.0
0
POINT
5
b0a
8
0-2
62
  7
10
1220.270
20
510.811
30
0.0
0
POINT
5
b0b
8
0-2
62
  7
10
628.378
20
626.811
30
0.0
0
POINT
5
b0c
8
0-2
62
  7
10
628.378
20
510.811
30
0.0
0
POINT
5
b0d
8
0-2
62
  7
10
628.378
20
505.811
30
0.0
0
ENDSEC
0
EOF
