0
SECTION
2
HEADER
  9
$EXTMIN
10
0
20
0
30
0
  9
$EXTMAX
10
1684.593
20
1315.753
30
0
  9
$LTSCALE
40
5.000
  9
$DIMSCALE
40
5.000
  9
$PDMODE
70
0
  9
$PDSIZE
40
40
0
ENDSEC
0
SECTION
2
TABLES
0
TABLE
2
LTYPE
70
9
0
LTYPE
5
1f4
2
CONTINUOUS
70
0
3
実線
72
65
73
0
40
0.0
0
LTYPE
5
1f5
2
DOT
70
0
3
--  --  --  --  --  --  --  --     
72
65
73
2
40
5.000
49
1.000
49
-4.000
0
LTYPE
5
1f6
2
DASHED
70
0
3
----    ----    ----    ----    
72
65
73
2
40
5.000
49
2.000
49
-3.000
0
LTYPE
5
1f7
2
DASHED2
70
0
3
------  ------  ------  ------ 
72
65
73
2
40
10.000
49
4.000
49
-6.000
0
LTYPE
5
1f8
2
CENTER
70
0
3
----- - ----- - ----- - ----- - 
72
65
73
4
40
9.000
49
6.000
49
-1.000
49
1.000
49
-1.000
0
LTYPE
5
1f9
2
CENTER2
70
0
3
----------  --  ----------  -- 
72
65
73
4
40
18.000
49
12.000
49
-2.000
49
2.000
49
-2.000
0
LTYPE
5
1fa
2
PHANTOM
70
0
3
--- - - --- - - --- - - --- - -
72
65
73
6
40
10.000
49
5.000
49
-1.000
49
1.000
49
-1.000
49
1.000
49
-1.000
0
LTYPE
5
1fb
2
PHANTOM2
70
0
3
--------  -  -  --------  -  -
72
65
73
6
40
16.000
49
6.000
49
-2.000
49
2.000
49
-2.000
49
2.000
49
-2.000
0
LTYPE
5
1fc
2
HIDDEN
70
0
3
-   -   -   -   -   -   -   -   
72
65
73
2
40
2.500
49
0.500
49
-2.000
0
ENDTAB
0
TABLE
2
STYLE
70
1
0
STYLE
5
1fd
100
AcDbSymbolTableRecord
100
AcDbTextStyleTableRecord
2
STANDARD
70
0
40
0.0
41
1.0
50
0.0
71
0
42
0.0
3
txt.shx
4
extfont.shx
0
STYLE
5
1fe
100
AcDbSymbolTableRecord
100
AcDbTextStyleTableRecord
2
TATEGAKI
70
4
40
0.0
41
1.0
50
0.0
71
0
42
0.0
3
txt.shx
4
extfont.shx
0
STYLE
5
1ff
100
AcDbSymbolTableRecord
100
AcDbTextStyleTableRecord
2
MT
70
0
40
0.0
41
1.0
50
0.0
71
0
42
0.0
3
MS Mincho
4

0
STYLE
5
200
100
AcDbSymbolTableRecord
100
AcDbTextStyleTableRecord
2
TMT
70
4
40
0.0
41
1.0
50
0.0
71
0
42
0.0
3
@MS Mincho
4

0
ENDTAB
0
TABLE
2
LAYER
5
bed
100
AcDbSymbolTable
70
10
0
LAYER
5
bee
100
AcDbSymbolTableRecord
100
AcDbLayerTableRecord
2
0
70
64
62
  7
  6
CONTINUOUS
0
LAYER
5
bef
100
AcDbSymbolTableRecord
100
AcDbLayerTableRecord
2
0-0
70
64
62
  7
  6
CONTINUOUS
0
LAYER
5
bf0
100
AcDbSymbolTableRecord
100
AcDbLayerTableRecord
2
ADD_LINE
70
64
62
  -7
  6
CONTINUOUS
0
ENDTAB
0
ENDSEC
0
SECTION
2
ENTITIES
0
LINE
5
bf1
8
0-0
6
CONTINUOUS
62
  7
10
915.189
20
1006.276
30
0.0
11
1063.189
21
1006.276
31
0.0
0
LINE
5
bf2
8
0-0
6
CONTINUOUS
62
  7
10
915.189
20
1006.276
30
0.0
11
914.272
21
763.276
31
0.0
0
LINE
5
bf3
8
0-0
6
CONTINUOUS
62
  7
10
1063.189
20
1006.276
30
0.0
11
1064.106
21
763.276
31
0.0
0
LINE
5
bf4
8
0-0
6
CONTINUOUS
62
  7
10
914.272
20
763.276
30
0.0
11
1064.106
21
763.276
31
0.0
0
LINE
5
bf5
8
0-0
6
CONTINUOUS
62
  7
10
914.272
20
721.276
30
0.0
11
1064.106
21
721.276
31
0.0
0
LINE
5
bf6
8
0-0
6
CONTINUOUS
62
  7
10
927.152
20
996.276
30
0.0
11
927.133
21
991.276
31
0.0
0
LINE
5
bf7
8
0-0
6
CONTINUOUS
62
  7
10
927.152
20
996.276
30
0.0
11
1051.227
21
996.276
31
0.0
0
LINE
5
bf8
8
0-0
6
CONTINUOUS
62
  7
10
1051.227
20
996.276
30
0.0
11
1051.246
21
991.276
31
0.0
0
LINE
5
bf9
8
0-0
6
CONTINUOUS
62
  7
10
927.133
20
991.276
30
0.0
11
1051.246
21
991.276
31
0.0
0
LINE
5
bfa
8
0-0
6
CONTINUOUS
62
  7
10
915.189
20
1225.798
30
0.0
11
931.982
21
1219.798
31
0.0
0
LINE
5
bfb
8
0-0
6
CONTINUOUS
62
  7
10
1046.396
20
1219.798
30
0.0
11
1063.189
21
1225.798
31
0.0
0
LINE
5
bfc
8
0-0
6
CONTINUOUS
62
  7
10
914.189
20
454.054
30
0.0
11
929.018
21
460.054
31
0.0
0
LINE
5
bfd
8
0-0
6
CONTINUOUS
62
  7
10
1049.360
20
460.054
30
0.0
11
1064.189
21
454.054
31
0.0
0
LINE
5
bfe
8
0-0
6
CONTINUOUS
62
  7
10
894.189
20
454.054
30
0.0
11
914.189
21
454.054
31
0.0
0
LINE
5
bff
8
0-0
6
CONTINUOUS
62
  7
10
1064.189
20
454.054
30
0.0
11
1084.189
21
454.054
31
0.0
0
LINE
5
c00
8
0-0
6
CONTINUOUS
62
  7
10
1392.405
20
1006.276
30
0.0
11
1455.406
21
1006.276
31
0.0
0
LINE
5
c01
8
0-0
6
CONTINUOUS
62
  7
10
1392.405
20
763.276
30
0.0
11
1455.406
21
763.276
31
0.0
0
LINE
5
c02
8
0-0
6
CONTINUOUS
62
  7
10
1392.405
20
721.276
30
0.0
11
1455.406
21
721.276
31
0.0
0
LINE
5
c03
8
0-0
6
CONTINUOUS
62
  7
10
1455.406
20
1006.276
30
0.0
11
1455.406
21
763.276
31
0.0
0
LINE
5
c04
8
0-0
6
CONTINUOUS
62
  7
10
1392.405
20
1006.276
30
0.0
11
1392.405
21
996.276
31
0.0
0
LINE
5
c05
8
0-0
6
CONTINUOUS
62
  7
10
1392.405
20
991.276
30
0.0
11
1392.405
21
763.276
31
0.0
0
LINE
5
c06
8
0-0
6
CONTINUOUS
62
  7
10
1396.405
20
996.276
30
0.0
11
1396.405
21
991.276
31
0.0
0
LINE
5
c07
8
0-0
6
CONTINUOUS
62
  7
10
1392.405
20
991.276
30
0.0
11
1445.601
21
991.276
31
0.0
0
LINE
5
c08
8
0-0
6
CONTINUOUS
62
  7
10
1392.405
20
996.276
30
0.0
11
1445.601
21
996.276
31
0.0
0
LINE
5
c09
8
ADD_LINE
6
HIDDEN
62
  3
10
914.189
20
454.054
30
0.0
11
1064.189
21
454.054
31
0.0
0
LINE
5
c0a
8
ADD_LINE
6
HIDDEN
62
  3
10
989.189
20
459.278
30
0.0
11
989.189
21
433.578
31
0.0
0
LINE
5
c0b
8
ADD_LINE
6
HIDDEN
62
  3
10
989.189
20
465.745
30
0.0
11
989.189
21
459.278
31
0.0
0
LINE
5
c0c
8
ADD_LINE
6
HIDDEN
62
  3
10
915.189
20
1225.798
30
0.0
11
1063.189
21
1225.798
31
0.0
0
LINE
5
c0d
8
ADD_LINE
6
HIDDEN
62
  3
10
989.189
20
465.745
30
0.0
11
989.189
21
1204.925
31
0.0
0
LINE
5
c0e
8
0-0
6
CONTINUOUS
62
  7
10
894.189
20
317.087
30
0.0
11
1084.189
21
317.087
31
0.0
0
LINE
5
c0f
8
0-0
6
CONTINUOUS
62
  7
10
894.189
20
398.168
30
0.0
11
894.189
21
317.087
31
0.0
0
LINE
5
c10
8
0-0
6
CONTINUOUS
62
  7
10
1084.189
20
398.168
30
0.0
11
1084.189
21
317.087
31
0.0
0
LINE
5
c11
8
0-0
6
CONTINUOUS
62
  7
10
894.189
20
346.189
30
0.0
11
914.189
21
346.189
31
0.0
0
LINE
5
c12
8
0-0
6
CONTINUOUS
62
  7
10
894.189
20
398.168
30
0.0
11
894.189
21
346.189
31
0.0
0
LINE
5
c13
8
0-0
6
CONTINUOUS
62
  7
10
914.189
20
398.168
30
0.0
11
914.189
21
346.189
31
0.0
0
LINE
5
c14
8
0-0
6
CONTINUOUS
62
  7
10
914.189
20
346.189
30
0.0
11
1064.189
21
346.189
31
0.0
0
LINE
5
c15
8
0-0
6
CONTINUOUS
62
  7
10
1064.189
20
398.168
30
0.0
11
1064.189
21
346.189
31
0.0
0
LINE
5
c16
8
0-0
6
CONTINUOUS
62
  7
10
1064.189
20
346.189
30
0.0
11
1084.189
21
346.189
31
0.0
0
LINE
5
c17
8
0-0
6
CONTINUOUS
62
  7
10
1084.189
20
398.168
30
0.0
11
1084.189
21
346.189
31
0.0
0
LINE
5
c18
8
ADD_LINE
6
HIDDEN
62
  3
10
989.189
20
1204.925
30
0.0
11
989.189
21
1250.314
31
0.0
0
LINE
5
c19
8
0-0
6
CONTINUOUS
62
  7
10
915.189
20
1077.589
30
0.0
11
1063.189
21
1077.589
31
0.0
0
LINE
5
c1a
8
0-0
6
CONTINUOUS
62
  7
10
915.189
20
1025.531
30
0.0
11
915.189
21
1077.589
31
0.0
0
LINE
5
c1b
8
0-0
6
CONTINUOUS
62
  7
10
1063.189
20
1025.531
30
0.0
11
1063.189
21
1077.589
31
0.0
0
LINE
5
c1c
8
0-0
6
CONTINUOUS
62
  7
10
915.189
20
1313.253
30
0.0
11
1063.189
21
1313.253
31
0.0
0
LINE
5
c1d
8
0-0
6
CONTINUOUS
62
  7
10
915.189
20
1243.661
30
0.0
11
915.189
21
1313.253
31
0.0
0
LINE
5
c1e
8
0-0
6
CONTINUOUS
62
  7
10
1063.189
20
1243.661
30
0.0
11
1063.189
21
1313.253
31
0.0
0
LINE
5
c1f
8
0-0
6
CONTINUOUS
62
  7
10
1392.405
20
1077.589
30
0.0
11
1455.406
21
1077.589
31
0.0
0
LINE
5
c20
8
0-0
6
CONTINUOUS
62
  7
10
1392.405
20
1025.531
30
0.0
11
1392.405
21
1077.589
31
0.0
0
LINE
5
c21
8
0-0
6
CONTINUOUS
62
  7
10
1455.406
20
1025.531
30
0.0
11
1455.406
21
1077.589
31
0.0
0
LINE
5
c22
8
0-0
6
CONTINUOUS
62
  7
10
648.649
20
1225.798
30
0.0
11
648.649
21
1162.798
31
0.0
0
LINE
5
c23
8
0-0
6
CONTINUOUS
62
  7
10
827.027
20
1225.798
30
0.0
11
648.649
21
1225.798
31
0.0
0
LINE
5
c24
8
0-0
6
CONTINUOUS
62
  7
10
827.027
20
1162.798
30
0.0
11
648.649
21
1162.798
31
0.0
0
LINE
5
c25
8
0-0
6
CONTINUOUS
62
  7
10
648.649
20
1006.276
30
0.0
11
648.649
21
763.276
31
0.0
0
LINE
5
c26
8
0-0
6
CONTINUOUS
62
  7
10
827.027
20
1006.276
30
0.0
11
648.649
21
1006.276
31
0.0
0
LINE
5
c27
8
0-0
6
CONTINUOUS
62
  7
10
827.027
20
763.276
30
0.0
11
648.649
21
763.276
31
0.0
0
LINE
5
c28
8
0-0
6
CONTINUOUS
62
  7
10
648.649
20
763.276
30
0.0
11
648.649
21
721.276
31
0.0
0
LINE
5
c29
8
0-0
6
CONTINUOUS
62
  7
10
827.027
20
721.276
30
0.0
11
648.649
21
721.276
31
0.0
0
LINE
5
c2a
8
0-0
6
CONTINUOUS
62
  7
10
648.649
20
537.054
30
0.0
11
648.649
21
454.054
31
0.0
0
LINE
5
c2b
8
0-0
6
CONTINUOUS
62
  7
10
827.027
20
537.054
30
0.0
11
648.649
21
537.054
31
0.0
0
LINE
5
c2c
8
0-0
6
CONTINUOUS
62
  7
10
827.027
20
454.054
30
0.0
11
648.649
21
454.054
31
0.0
0
LINE
5
c2d
8
0-0
6
CONTINUOUS
62
  7
10
1684.593
20
1006.276
30
0.0
11
1684.593
21
721.276
31
0.0
0
LINE
5
c2e
8
0-0
6
CONTINUOUS
62
  7
10
1508.507
20
1006.276
30
0.0
11
1684.593
21
1006.276
31
0.0
0
LINE
5
c2f
8
0-0
6
CONTINUOUS
62
  7
10
1508.507
20
721.276
30
0.0
11
1684.593
21
721.276
31
0.0
0
LINE
5
c30
8
0-0
6
CONTINUOUS
62
  7
10
1632.594
20
1006.276
30
0.0
11
1632.594
21
741.276
31
0.0
0
LINE
5
c31
8
0-0
6
CONTINUOUS
62
  7
10
1508.507
20
1006.276
30
0.0
11
1632.594
21
1006.276
31
0.0
0
LINE
5
c32
8
0-0
6
CONTINUOUS
62
  7
10
1508.507
20
741.276
30
0.0
11
1632.594
21
741.276
31
0.0
0
LINE
5
c33
8
0-0
6
CONTINUOUS
62
  7
10
1632.594
20
741.276
30
0.0
11
1632.594
21
721.276
31
0.0
0
LINE
5
c34
8
0-0
6
CONTINUOUS
62
  7
10
1508.507
20
721.276
30
0.0
11
1632.594
21
721.276
31
0.0
0
LINE
5
c35
8
0-0
6
CONTINUOUS
62
  7
10
1183.784
20
1006.276
30
0.0
11
1183.784
21
741.276
31
0.0
0
LINE
5
c36
8
0-0
6
CONTINUOUS
62
  7
10
1114.865
20
1006.276
30
0.0
11
1183.784
21
1006.276
31
0.0
0
LINE
5
c37
8
0-0
6
CONTINUOUS
62
  7
10
1114.865
20
741.276
30
0.0
11
1183.784
21
741.276
31
0.0
0
ARC
5
c38
8
0-0
6
CONTINUOUS
62
  7
10
915.272
20
742.276
30
0.0
40
21.024
50
92.726395
51
267.273621
0
ARC
5
c39
8
0-0
6
CONTINUOUS
62
  7
10
1063.106
20
742.276
30
0.0
40
21.024
50
272.726379
51
87.273605
0
CIRCLE
5
c3a
8
0-0
6
CONTINUOUS
62
  7
10
974.189
20
806.276
30
0.0
40
3.000
0
CIRCLE
5
c3b
8
0-0
6
CONTINUOUS
62
  7
10
1004.189
20
806.276
30
0.0
40
3.000
0
ARC
5
c3c
8
0-0
6
CONTINUOUS
62
  7
10
989.189
20
1237.758
30
0.0
40
74.960
50
189.181046
51
350.818970
0
ARC
5
c3d
8
0-0
6
CONTINUOUS
62
  7
10
989.189
20
1237.758
30
0.0
40
59.960
50
197.429764
51
342.570221
0
ARC
5
c3e
8
0-0
6
CONTINUOUS
62
  7
10
989.189
20
440.911
30
0.0
40
76.143
50
9.939484
51
170.060516
0
ARC
5
c3f
8
0-0
6
CONTINUOUS
62
  7
10
989.189
20
441.187
30
0.0
40
95.867
50
7.713608
51
172.286392
0
ARC
5
c40
8
0-0
6
CONTINUOUS
62
  7
10
989.189
20
440.911
30
0.0
40
63.143
50
17.647964
51
162.352036
0
ARC
5
c41
8
0-0
6
CONTINUOUS
62
  7
10
1393.406
20
742.276
30
0.0
40
21.024
50
92.726395
51
267.273621
0
ARC
5
c42
8
0-0
6
CONTINUOUS
62
  7
10
1431.905
20
742.276
30
0.0
40
31.516
50
318.215576
51
41.784348
0
ARC
5
c43
8
0-0
6
CONTINUOUS
62
  7
10
1444.771
20
993.776
30
0.0
40
2.634
50
288.364319
51
71.635681
0
CIRCLE
5
c44
8
ADD_LINE
6
HIDDEN
62
  3
10
989.189
20
1225.798
30
0.0
40
3.000
0
CIRCLE
5
c45
8
ADD_LINE
6
HIDDEN
62
  3
10
989.189
20
454.054
30
0.0
40
3.000
0
TEXT
5
c46
100
AcDbEntity
8
0-0
62
7
100
AcDbText
10
979.814
20
319.587
30
0.0
40
9.750
41
0.800
50
0.000
1
190
100
AcDbText
0
TEXT
5
c47
100
AcDbEntity
8
0-0
62
7
100
AcDbText
10
897.939
20
348.689
30
0.0
40
9.750
41
0.800
50
0.000
1
20
100
AcDbText
0
TEXT
5
c48
100
AcDbEntity
8
0-0
62
7
100
AcDbText
10
979.814
20
348.689
30
0.0
40
9.750
41
0.800
50
0.000
1
150
100
AcDbText
0
TEXT
5
c49
100
AcDbEntity
8
0-0
62
7
100
AcDbText
10
1067.939
20
348.689
30
0.0
40
9.750
41
0.800
50
0.000
1
20
100
AcDbText
0
TEXT
5
c4a
100
AcDbEntity
8
0-0
62
7
100
AcDbText
10
979.814
20
1080.089
30
0.0
40
9.750
41
0.800
50
0.000
1
148
100
AcDbText
0
TEXT
5
c4b
100
AcDbEntity
8
0-0
62
7
100
AcDbText
10
979.814
20
1315.753
30
0.0
40
9.750
41
0.800
50
0.000
1
148
100
AcDbText
0
TEXT
5
c4c
100
AcDbEntity
8
0-0
62
7
100
AcDbText
10
1417.655
20
1080.089
30
0.0
40
9.750
41
0.800
50
0.000
1
63
100
AcDbText
0
TEXT
5
c4d
100
AcDbEntity
8
0-0
62
7
100
AcDbText
10
646.149
20
1188.048
30
0.0
40
9.750
41
0.800
50
90.000
1
63
100
AcDbText
0
TEXT
5
c4e
100
AcDbEntity
8
0-0
62
7
100
AcDbText
10
646.149
20
875.401
30
0.0
40
9.750
41
0.800
50
90.000
1
243
100
AcDbText
0
TEXT
5
c4f
100
AcDbEntity
8
0-0
62
7
100
AcDbText
10
646.149
20
736.026
30
0.0
40
9.750
41
0.800
50
90.000
1
42
100
AcDbText
0
TEXT
5
c50
100
AcDbEntity
8
0-0
62
7
100
AcDbText
10
646.149
20
489.304
30
0.0
40
9.750
41
0.800
50
90.000
1
83
100
AcDbText
0
TEXT
5
c51
100
AcDbEntity
8
0-0
62
7
100
AcDbText
10
1682.093
20
854.401
30
0.0
40
9.750
41
0.800
50
90.000
1
285
100
AcDbText
0
TEXT
5
c52
100
AcDbEntity
8
0-0
62
7
100
AcDbText
10
1630.094
20
864.401
30
0.0
40
9.750
41
0.800
50
90.000
1
265
100
AcDbText
0
TEXT
5
c53
100
AcDbEntity
8
0-0
62
7
100
AcDbText
10
1630.094
20
725.026
30
0.0
40
9.750
41
0.800
50
90.000
1
20
100
AcDbText
0
TEXT
5
c54
100
AcDbEntity
8
0-0
62
7
100
AcDbText
10
1181.284
20
864.401
30
0.0
40
9.750
41
0.800
50
90.000
1
265
100
AcDbText
0
POINT
5
c55
8
0-0
62
  7
10
894.189
20
317.087
30
0.0
0
POINT
5
c56
8
0-0
62
  7
10
1084.189
20
317.087
30
0.0
0
POINT
5
c57
8
0-0
62
  7
10
894.189
20
346.189
30
0.0
0
POINT
5
c58
8
0-0
62
  7
10
914.189
20
346.189
30
0.0
0
POINT
5
c59
8
0-0
62
  7
10
1064.189
20
346.189
30
0.0
0
POINT
5
c5a
8
0-0
62
  7
10
1084.189
20
346.189
30
0.0
0
POINT
5
c5b
8
0-0
62
  7
10
915.189
20
1077.589
30
0.0
0
POINT
5
c5c
8
0-0
62
  7
10
1063.189
20
1077.589
30
0.0
0
POINT
5
c5d
8
0-0
62
  7
10
915.189
20
1313.253
30
0.0
0
POINT
5
c5e
8
0-0
62
  7
10
1063.189
20
1313.253
30
0.0
0
POINT
5
c5f
8
0-0
62
  7
10
1392.405
20
1077.589
30
0.0
0
POINT
5
c60
8
0-0
62
  7
10
1455.406
20
1077.589
30
0.0
0
POINT
5
c61
8
0-0
62
  7
10
648.649
20
1225.798
30
0.0
0
POINT
5
c62
8
0-0
62
  7
10
648.649
20
1162.798
30
0.0
0
POINT
5
c63
8
0-0
62
  7
10
648.649
20
1006.276
30
0.0
0
POINT
5
c64
8
0-0
62
  7
10
648.649
20
763.276
30
0.0
0
POINT
5
c65
8
0-0
62
  7
10
648.649
20
721.276
30
0.0
0
POINT
5
c66
8
0-0
62
  7
10
648.649
20
537.054
30
0.0
0
POINT
5
c67
8
0-0
62
  7
10
648.649
20
454.054
30
0.0
0
POINT
5
c68
8
0-0
62
  7
10
1684.593
20
1006.276
30
0.0
0
POINT
5
c69
8
0-0
62
  7
10
1684.593
20
721.276
30
0.0
0
POINT
5
c6a
8
0-0
62
  7
10
1632.594
20
1006.276
30
0.0
0
POINT
5
c6b
8
0-0
62
  7
10
1632.594
20
741.276
30
0.0
0
POINT
5
c6c
8
0-0
62
  7
10
1632.594
20
721.276
30
0.0
0
POINT
5
c6d
8
0-0
62
  7
10
1183.784
20
1006.276
30
0.0
0
POINT
5
c6e
8
0-0
62
  7
10
1183.784
20
741.276
30
0.0
0
ENDSEC
0
EOF
