0
SECTION
2
HEADER
  9
$EXTMIN
10
0
20
0
30
0
  9
$EXTMAX
10
1642.229
20
1316.382
30
0
  9
$LTSCALE
40
5.000
  9
$DIMSCALE
40
5.000
  9
$PDMODE
70
0
  9
$PDSIZE
40
40
0
ENDSEC
0
SECTION
2
TABLES
0
TABLE
2
LTYPE
70
9
0
LTYPE
5
1f4
2
CONTINUOUS
70
0
3
実線
72
65
73
0
40
0.0
0
LTYPE
5
1f5
2
DOT
70
0
3
--  --  --  --  --  --  --  --     
72
65
73
2
40
5.000
49
1.000
49
-4.000
0
LTYPE
5
1f6
2
DASHED
70
0
3
----    ----    ----    ----    
72
65
73
2
40
5.000
49
2.000
49
-3.000
0
LTYPE
5
1f7
2
DASHED2
70
0
3
------  ------  ------  ------ 
72
65
73
2
40
10.000
49
4.000
49
-6.000
0
LTYPE
5
1f8
2
CENTER
70
0
3
----- - ----- - ----- - ----- - 
72
65
73
4
40
9.000
49
6.000
49
-1.000
49
1.000
49
-1.000
0
LTYPE
5
1f9
2
CENTER2
70
0
3
----------  --  ----------  -- 
72
65
73
4
40
18.000
49
12.000
49
-2.000
49
2.000
49
-2.000
0
LTYPE
5
1fa
2
PHANTOM
70
0
3
--- - - --- - - --- - - --- - -
72
65
73
6
40
10.000
49
5.000
49
-1.000
49
1.000
49
-1.000
49
1.000
49
-1.000
0
LTYPE
5
1fb
2
PHANTOM2
70
0
3
--------  -  -  --------  -  -
72
65
73
6
40
16.000
49
6.000
49
-2.000
49
2.000
49
-2.000
49
2.000
49
-2.000
0
LTYPE
5
1fc
2
HIDDEN
70
0
3
-   -   -   -   -   -   -   -   
72
65
73
2
40
2.500
49
0.500
49
-2.000
0
ENDTAB
0
TABLE
2
STYLE
70
1
0
STYLE
5
1fd
100
AcDbSymbolTableRecord
100
AcDbTextStyleTableRecord
2
STANDARD
70
0
40
0.0
41
1.0
50
0.0
71
0
42
0.0
3
txt.shx
4
extfont.shx
0
STYLE
5
1fe
100
AcDbSymbolTableRecord
100
AcDbTextStyleTableRecord
2
TATEGAKI
70
4
40
0.0
41
1.0
50
0.0
71
0
42
0.0
3
txt.shx
4
extfont.shx
0
STYLE
5
1ff
100
AcDbSymbolTableRecord
100
AcDbTextStyleTableRecord
2
MT
70
0
40
0.0
41
1.0
50
0.0
71
0
42
0.0
3
MS Mincho
4

0
STYLE
5
200
100
AcDbSymbolTableRecord
100
AcDbTextStyleTableRecord
2
TMT
70
4
40
0.0
41
1.0
50
0.0
71
0
42
0.0
3
@MS Mincho
4

0
ENDTAB
0
TABLE
2
LAYER
5
1306
100
AcDbSymbolTable
70
10
0
LAYER
5
1307
100
AcDbSymbolTableRecord
100
AcDbLayerTableRecord
2
0
70
64
62
  7
  6
CONTINUOUS
0
LAYER
5
1308
100
AcDbSymbolTableRecord
100
AcDbLayerTableRecord
2
0-0
70
64
62
  7
  6
CONTINUOUS
0
LAYER
5
1309
100
AcDbSymbolTableRecord
100
AcDbLayerTableRecord
2
ADD_LINE
70
64
62
  -7
  6
CONTINUOUS
0
ENDTAB
0
ENDSEC
0
SECTION
2
ENTITIES
0
LINE
5
130a
8
0-0
6
CONTINUOUS
62
  7
10
879.331
20
426.055
30
0.0
11
850.973
21
409.930
31
0.0
0
LINE
5
130b
8
0-0
6
CONTINUOUS
62
  7
10
850.973
20
409.930
30
0.0
11
850.973
21
395.930
31
0.0
0
LINE
5
130c
8
0-0
6
CONTINUOUS
62
  7
10
873.835
20
407.773
30
0.0
11
850.973
21
395.930
31
0.0
0
LINE
5
130d
8
0-0
6
CONTINUOUS
62
  7
10
850.973
20
536.699
30
0.0
11
1155.973
21
536.699
31
0.0
0
LINE
5
130e
8
0-0
6
CONTINUOUS
62
  7
10
850.973
20
464.696
30
0.0
11
850.973
21
536.699
31
0.0
0
LINE
5
130f
8
0-0
6
CONTINUOUS
62
  7
10
1155.973
20
464.696
30
0.0
11
1155.973
21
536.699
31
0.0
0
LINE
5
1310
8
ADD_LINE
6
HIDDEN
62
  3
10
1038.176
20
359.855
30
0.0
11
1038.176
21
427.109
31
0.0
0
LINE
5
1311
8
ADD_LINE
6
HIDDEN
62
  3
10
1038.176
20
368.919
30
0.0
11
1038.176
21
366.895
31
0.0
0
LINE
5
1312
8
ADD_LINE
6
HIDDEN
62
  3
10
1038.176
20
368.919
30
0.0
11
1107.252
21
368.919
31
0.0
0
LINE
5
1313
8
0-0
6
CONTINUOUS
62
  7
10
850.973
20
1095.504
30
0.0
11
895.973
21
1095.504
31
0.0
0
LINE
5
1314
8
0-0
6
CONTINUOUS
62
  7
10
895.973
20
1135.504
30
0.0
11
895.973
21
1095.504
31
0.0
0
LINE
5
1315
8
0-0
6
CONTINUOUS
62
  7
10
895.973
20
1135.504
30
0.0
11
1135.973
21
1135.504
31
0.0
0
LINE
5
1316
8
0-0
6
CONTINUOUS
62
  7
10
895.973
20
1130.504
30
0.0
11
1155.973
21
1130.504
31
0.0
0
LINE
5
1317
8
0-0
6
CONTINUOUS
62
  7
10
1135.973
20
1135.504
30
0.0
11
1135.973
21
1130.504
31
0.0
0
LINE
5
1318
8
0-0
6
CONTINUOUS
62
  7
10
850.973
20
1095.504
30
0.0
11
850.973
21
830.504
31
0.0
0
LINE
5
1319
8
0-0
6
CONTINUOUS
62
  7
10
850.973
20
830.504
30
0.0
11
1155.973
21
830.504
31
0.0
0
LINE
5
131a
8
0-0
6
CONTINUOUS
62
  7
10
1155.973
20
1130.504
30
0.0
11
1155.973
21
830.504
31
0.0
0
LINE
5
131b
8
0-0
6
CONTINUOUS
62
  7
10
1378.717
20
830.504
30
0.0
11
1398.717
21
830.504
31
0.0
0
LINE
5
131c
8
0-0
6
CONTINUOUS
62
  7
10
1398.717
20
888.504
30
0.0
11
1398.717
21
830.504
31
0.0
0
LINE
5
131d
8
0-0
6
CONTINUOUS
62
  7
10
622.149
20
1135.504
30
0.0
11
642.149
21
1135.504
31
0.0
0
LINE
5
131e
8
0-0
6
CONTINUOUS
62
  7
10
661.149
20
1130.504
30
0.0
11
661.149
21
830.504
31
0.0
0
LINE
5
131f
8
0-0
6
CONTINUOUS
62
  7
10
642.149
20
1135.504
30
0.0
11
642.149
21
1130.696
31
0.0
0
LINE
5
1320
8
0-0
6
CONTINUOUS
62
  7
10
661.149
20
1130.504
30
0.0
11
636.149
21
1130.504
31
0.0
0
LINE
5
1321
8
0-0
6
CONTINUOUS
62
  7
10
642.149
20
1135.504
30
0.0
11
653.149
21
1135.504
31
0.0
0
LINE
5
1322
8
0-0
6
CONTINUOUS
62
  7
10
653.149
20
1130.504
30
0.0
11
653.149
21
1135.504
31
0.0
0
LINE
5
1323
8
0-0
6
CONTINUOUS
62
  7
10
494.933
20
830.504
30
0.0
11
494.933
21
1135.504
31
0.0
0
LINE
5
1324
8
0-0
6
CONTINUOUS
62
  7
10
576.014
20
830.504
30
0.0
11
494.933
21
830.504
31
0.0
0
LINE
5
1325
8
0-0
6
CONTINUOUS
62
  7
10
576.014
20
1135.504
30
0.0
11
494.933
21
1135.504
31
0.0
0
LINE
5
1326
8
0-0
6
CONTINUOUS
62
  7
10
850.973
20
1313.882
30
0.0
11
1155.973
21
1313.882
31
0.0
0
LINE
5
1327
8
0-0
6
CONTINUOUS
62
  7
10
850.973
20
1184.153
30
0.0
11
850.973
21
1313.882
31
0.0
0
LINE
5
1328
8
0-0
6
CONTINUOUS
62
  7
10
1155.973
20
1184.153
30
0.0
11
1155.973
21
1313.882
31
0.0
0
LINE
5
1329
8
0-0
6
CONTINUOUS
62
  7
10
1378.717
20
1184.153
30
0.0
11
1378.717
21
1313.882
31
0.0
0
LINE
5
132a
8
0-0
6
CONTINUOUS
62
  7
10
1378.717
20
1313.882
30
0.0
11
1443.717
21
1313.882
31
0.0
0
LINE
5
132b
8
0-0
6
CONTINUOUS
62
  7
10
1443.717
20
1184.153
30
0.0
11
1443.717
21
1313.882
31
0.0
0
LINE
5
132c
8
0-0
6
CONTINUOUS
62
  7
10
850.973
20
657.126
30
0.0
11
1155.973
21
657.126
31
0.0
0
LINE
5
132d
8
0-0
6
CONTINUOUS
62
  7
10
850.973
20
774.693
30
0.0
11
850.973
21
657.126
31
0.0
0
LINE
5
132e
8
0-0
6
CONTINUOUS
62
  7
10
1155.973
20
774.693
30
0.0
11
1155.973
21
657.126
31
0.0
0
LINE
5
132f
8
ADD_LINE
6
HIDDEN
62
  3
10
1038.176
20
368.919
30
0.0
11
815.203
21
368.919
31
0.0
0
LINE
5
1330
8
ADD_LINE
6
HIDDEN
62
  3
10
850.973
20
395.930
30
0.0
11
850.973
21
358.988
31
0.0
0
LINE
5
1331
8
ADD_LINE
6
HIDDEN
62
  3
10
850.973
20
464.696
30
0.0
11
850.973
21
465.234
31
0.0
0
LINE
5
1332
8
0-0
6
CONTINUOUS
62
  7
10
1273.312
20
830.504
30
0.0
11
1273.312
21
1135.504
31
0.0
0
LINE
5
1333
8
0-0
6
CONTINUOUS
62
  7
10
1212.501
20
830.504
30
0.0
11
1273.312
21
830.504
31
0.0
0
LINE
5
1334
8
0-0
6
CONTINUOUS
62
  7
10
1212.501
20
1135.504
30
0.0
11
1273.312
21
1135.504
31
0.0
0
LINE
5
1335
8
0-0
6
CONTINUOUS
62
  7
10
750.338
20
830.504
30
0.0
11
750.338
21
1095.504
31
0.0
0
LINE
5
1336
8
0-0
6
CONTINUOUS
62
  7
10
815.203
20
830.504
30
0.0
11
750.338
21
830.504
31
0.0
0
LINE
5
1337
8
0-0
6
CONTINUOUS
62
  7
10
815.203
20
1095.504
30
0.0
11
750.338
21
1095.504
31
0.0
0
LINE
5
1338
8
0-0
6
CONTINUOUS
62
  7
10
750.338
20
1095.504
30
0.0
11
750.338
21
1135.504
31
0.0
0
LINE
5
1339
8
0-0
6
CONTINUOUS
62
  7
10
815.203
20
1135.504
30
0.0
11
750.338
21
1135.504
31
0.0
0
LINE
5
133a
8
0-0
6
CONTINUOUS
62
  7
10
1155.973
20
411.644
30
0.0
11
1155.973
21
396.644
31
0.0
0
LINE
5
133b
8
ADD_LINE
6
HIDDEN
62
  3
10
1155.973
20
464.696
30
0.0
11
1155.973
21
465.234
31
0.0
0
LINE
5
133c
8
0-0
6
CONTINUOUS
62
  7
10
636.149
20
1130.504
30
0.0
11
636.149
21
830.504
31
0.0
0
LINE
5
133d
8
0-0
6
CONTINUOUS
62
  7
10
622.149
20
1135.504
30
0.0
11
622.149
21
830.504
31
0.0
0
LINE
5
133e
8
0-0
6
CONTINUOUS
62
  7
10
661.149
20
830.504
30
0.0
11
622.149
21
830.504
31
0.0
0
LINE
5
133f
8
0-0
6
CONTINUOUS
62
  7
10
1398.717
20
1130.504
30
0.0
11
1443.717
21
1130.504
31
0.0
0
LINE
5
1340
8
0-0
6
CONTINUOUS
62
  7
10
1642.229
20
830.504
30
0.0
11
1642.229
21
888.504
31
0.0
0
LINE
5
1341
8
0-0
6
CONTINUOUS
62
  7
10
1548.985
20
830.504
30
0.0
11
1642.229
21
830.504
31
0.0
0
LINE
5
1342
8
0-0
6
CONTINUOUS
62
  7
10
1548.985
20
888.504
30
0.0
11
1642.229
21
888.504
31
0.0
0
LINE
5
1343
8
0-0
6
CONTINUOUS
62
  7
10
1642.229
20
888.504
30
0.0
11
1642.229
21
1130.504
31
0.0
0
LINE
5
1344
8
0-0
6
CONTINUOUS
62
  7
10
1548.985
20
1130.504
30
0.0
11
1642.229
21
1130.504
31
0.0
0
LINE
5
1345
8
0-0
6
CONTINUOUS
62
  7
10
1378.717
20
1130.504
30
0.0
11
1378.717
21
830.504
31
0.0
0
LINE
5
1346
8
0-0
6
CONTINUOUS
62
  7
10
1398.717
20
1130.504
30
0.0
11
1378.717
21
1130.504
31
0.0
0
LINE
5
1347
8
0-0
6
CONTINUOUS
62
  7
10
1398.717
20
888.504
30
0.0
11
1398.717
21
1130.504
31
0.0
0
LINE
5
1348
8
ADD_LINE
6
HIDDEN
62
  3
10
1107.252
20
368.919
30
0.0
11
1148.413
21
368.919
31
0.0
0
LINE
5
1349
8
0-0
6
CONTINUOUS
62
  7
10
1122.973
20
382.354
30
0.0
11
1122.973
21
326.644
31
0.0
0
LINE
5
134a
8
0-0
6
CONTINUOUS
62
  7
10
1122.973
20
326.644
30
0.0
11
1138.973
21
326.644
31
0.0
0
LINE
5
134b
8
0-0
6
CONTINUOUS
62
  7
10
1138.973
20
388.203
30
0.0
11
1138.973
21
326.644
31
0.0
0
LINE
5
134c
8
0-0
6
CONTINUOUS
62
  7
10
1398.717
20
888.504
30
0.0
11
1463.717
21
888.504
31
0.0
0
LINE
5
134d
8
0-0
6
CONTINUOUS
62
  7
10
1463.717
20
888.504
30
0.0
11
1443.717
21
1130.504
31
0.0
0
LINE
5
134e
8
0-0
6
CONTINUOUS
62
  7
10
1378.717
20
657.126
30
0.0
11
1463.717
21
657.126
31
0.0
0
LINE
5
134f
8
0-0
6
CONTINUOUS
62
  7
10
1378.717
20
774.693
30
0.0
11
1378.717
21
657.126
31
0.0
0
LINE
5
1350
8
0-0
6
CONTINUOUS
62
  7
10
1463.717
20
774.693
30
0.0
11
1463.717
21
657.126
31
0.0
0
LINE
5
1351
8
0-0
6
CONTINUOUS
62
  7
10
1378.717
20
709.459
30
0.0
11
1398.717
21
709.459
31
0.0
0
LINE
5
1352
8
0-0
6
CONTINUOUS
62
  7
10
1378.717
20
774.693
30
0.0
11
1378.717
21
709.459
31
0.0
0
LINE
5
1353
8
0-0
6
CONTINUOUS
62
  7
10
1398.717
20
774.693
30
0.0
11
1398.717
21
709.459
31
0.0
0
LINE
5
1354
8
0-0
6
CONTINUOUS
62
  7
10
1398.717
20
709.459
30
0.0
11
1463.717
21
709.459
31
0.0
0
LINE
5
1355
8
0-0
6
CONTINUOUS
62
  7
10
1463.717
20
774.693
30
0.0
11
1463.717
21
709.459
31
0.0
0
LINE
5
1356
8
0-0
6
CONTINUOUS
62
  7
10
1273.312
20
411.644
30
0.0
11
1273.312
21
326.644
31
0.0
0
LINE
5
1357
8
0-0
6
CONTINUOUS
62
  7
10
1212.501
20
411.644
30
0.0
11
1273.312
21
411.644
31
0.0
0
LINE
5
1358
8
0-0
6
CONTINUOUS
62
  7
10
1212.501
20
326.644
30
0.0
11
1273.312
21
326.644
31
0.0
0
ARC
5
1359
8
0-0
6
CONTINUOUS
62
  7
10
888.530
20
413.813
30
0.0
40
15.314
50
42.690552
51
126.920761
0
ARC
5
135a
8
0-0
6
CONTINUOUS
62
  7
10
887.597
20
389.181
30
0.0
40
23.132
50
47.123047
51
126.507172
0
ARC
5
135b
8
0-0
6
CONTINUOUS
62
  7
10
1038.625
20
637.248
30
0.0
40
254.299
50
236.909088
51
297.481079
0
CIRCLE
5
135c
8
0-0
6
CONTINUOUS
62
  7
10
955.973
20
1115.504
30
0.0
40
3.000
0
CIRCLE
5
135d
8
0-0
6
CONTINUOUS
62
  7
10
1065.973
20
1115.504
30
0.0
40
3.000
0
ARC
5
135e
8
0-0
6
CONTINUOUS
62
  7
10
1039.324
20
635.985
30
0.0
40
267.069
50
239.390030
51
292.139587
0
CIRCLE
5
135f
8
ADD_LINE
6
HIDDEN
62
  3
10
1038.174
20
368.919
30
0.0
40
3.000
0
CIRCLE
5
1360
8
ADD_LINE
6
HIDDEN
62
  3
10
850.973
20
368.919
30
0.0
40
3.000
0
ARC
5
1361
8
0-0
6
CONTINUOUS
62
  7
10
1072.145
20
543.602
30
0.0
40
169.186
50
293.635101
51
299.701477
0
CIRCLE
5
1362
8
ADD_LINE
6
HIDDEN
62
  3
10
1122.973
20
368.919
30
0.0
40
3.000
0
TEXT
5
1363
100
AcDbEntity
8
0-0
62
7
100
AcDbText
10
994.098
20
539.199
30
0.0
40
9.750
41
0.800
50
0.000
1
305
100
AcDbText
0
TEXT
5
1364
100
AcDbEntity
8
0-0
62
7
100
AcDbText
10
490.561
20
976.051
30
0.0
40
9.750
41
0.800
50
90.000
1
305
100
AcDbText
0
TEXT
5
1365
100
AcDbEntity
8
0-0
62
7
100
AcDbText
10
994.098
20
1316.382
30
0.0
40
9.750
41
0.800
50
0.000
1
305
100
AcDbText
0
TEXT
5
1366
100
AcDbEntity
8
0-0
62
7
100
AcDbText
10
1404.967
20
1316.382
30
0.0
40
9.750
41
0.800
50
0.000
1
65
100
AcDbText
0
TEXT
5
1367
100
AcDbEntity
8
0-0
62
7
100
AcDbText
10
994.098
20
659.626
30
0.0
40
9.750
41
0.800
50
0.000
1
305
100
AcDbText
0
TEXT
5
1368
100
AcDbEntity
8
0-0
62
7
100
AcDbText
10
1270.811
20
973.629
30
0.0
40
9.750
41
0.800
50
90.000
1
305
100
AcDbText
0
TEXT
5
1369
100
AcDbEntity
8
0-0
62
7
100
AcDbText
10
747.838
20
953.629
30
0.0
40
9.750
41
0.800
50
90.000
1
265
100
AcDbText
0
TEXT
5
136a
100
AcDbEntity
8
0-0
62
7
100
AcDbText
10
747.838
20
1109.254
30
0.0
40
9.750
41
0.800
50
90.000
1
40
100
AcDbText
0
TEXT
5
136b
100
AcDbEntity
8
0-0
62
7
100
AcDbText
10
1639.728
20
853.254
30
0.0
40
9.750
41
0.800
50
90.000
1
58
100
AcDbText
0
TEXT
5
136c
100
AcDbEntity
8
0-0
62
7
100
AcDbText
10
1639.728
20
1000.129
30
0.0
40
9.750
41
0.800
50
90.000
1
242
100
AcDbText
0
TEXT
5
136d
100
AcDbEntity
8
0-0
62
7
100
AcDbText
10
1414.967
20
659.626
30
0.0
40
9.750
41
0.800
50
0.000
1
85
100
AcDbText
0
TEXT
5
136e
100
AcDbEntity
8
0-0
62
7
100
AcDbText
10
1382.467
20
711.960
30
0.0
40
9.750
41
0.800
50
0.000
1
20
100
AcDbText
0
TEXT
5
136f
100
AcDbEntity
8
0-0
62
7
100
AcDbText
10
1424.967
20
711.960
30
0.0
40
9.750
41
0.800
50
0.000
1
65
100
AcDbText
0
TEXT
5
1370
100
AcDbEntity
8
0-0
62
7
100
AcDbText
10
1270.812
20
362.894
30
0.0
40
9.750
41
0.800
50
90.000
1
85
100
AcDbText
0
POINT
5
1371
8
0-0
62
  7
10
850.973
20
536.699
30
0.0
0
POINT
5
1372
8
0-0
62
  7
10
1155.973
20
536.699
30
0.0
0
POINT
5
1373
8
0-0
62
  7
10
494.933
20
830.504
30
0.0
0
POINT
5
1374
8
0-0
62
  7
10
494.933
20
1135.504
30
0.0
0
POINT
5
1375
8
0-0
62
  7
10
850.973
20
1313.882
30
0.0
0
POINT
5
1376
8
0-0
62
  7
10
1155.973
20
1313.882
30
0.0
0
POINT
5
1377
8
0-0
62
  7
10
1378.717
20
1313.882
30
0.0
0
POINT
5
1378
8
0-0
62
  7
10
1443.717
20
1313.882
30
0.0
0
POINT
5
1379
8
0-0
62
  7
10
850.973
20
657.126
30
0.0
0
POINT
5
137a
8
0-0
62
  7
10
1155.973
20
657.126
30
0.0
0
POINT
5
137b
8
0-0
62
  7
10
1273.312
20
830.504
30
0.0
0
POINT
5
137c
8
0-0
62
  7
10
1273.312
20
1135.504
30
0.0
0
POINT
5
137d
8
0-0
62
  7
10
750.338
20
830.504
30
0.0
0
POINT
5
137e
8
0-0
62
  7
10
750.338
20
1095.504
30
0.0
0
POINT
5
137f
8
0-0
62
  7
10
750.338
20
1135.504
30
0.0
0
POINT
5
1380
8
0-0
62
  7
10
1642.229
20
830.504
30
0.0
0
POINT
5
1381
8
0-0
62
  7
10
1642.229
20
888.504
30
0.0
0
POINT
5
1382
8
0-0
62
  7
10
1642.229
20
1130.504
30
0.0
0
POINT
5
1383
8
0-0
62
  7
10
1378.717
20
657.126
30
0.0
0
POINT
5
1384
8
0-0
62
  7
10
1463.717
20
657.126
30
0.0
0
POINT
5
1385
8
0-0
62
  7
10
1378.717
20
709.459
30
0.0
0
POINT
5
1386
8
0-0
62
  7
10
1398.717
20
709.459
30
0.0
0
POINT
5
1387
8
0-0
62
  7
10
1463.717
20
709.459
30
0.0
0
POINT
5
1388
8
0-0
62
  7
10
1273.312
20
411.644
30
0.0
0
POINT
5
1389
8
0-0
62
  7
10
1273.312
20
326.644
30
0.0
0
ENDSEC
0
EOF
