0
SECTION
2
HEADER
  9
$EXTMIN
10
0
20
0
30
0
  9
$EXTMAX
10
1719.970
20
1379.869
30
0
  9
$LTSCALE
40
5.000
  9
$DIMSCALE
40
5.000
  9
$PDMODE
70
0
  9
$PDSIZE
40
40
0
ENDSEC
0
SECTION
2
TABLES
0
TABLE
2
LTYPE
70
9
0
LTYPE
5
1f4
2
CONTINUOUS
70
0
3
実線
72
65
73
0
40
0.0
0
LTYPE
5
1f5
2
DOT
70
0
3
--  --  --  --  --  --  --  --     
72
65
73
2
40
5.000
49
1.000
49
-4.000
0
LTYPE
5
1f6
2
DASHED
70
0
3
----    ----    ----    ----    
72
65
73
2
40
5.000
49
2.000
49
-3.000
0
LTYPE
5
1f7
2
DASHED2
70
0
3
------  ------  ------  ------ 
72
65
73
2
40
10.000
49
4.000
49
-6.000
0
LTYPE
5
1f8
2
CENTER
70
0
3
----- - ----- - ----- - ----- - 
72
65
73
4
40
9.000
49
6.000
49
-1.000
49
1.000
49
-1.000
0
LTYPE
5
1f9
2
CENTER2
70
0
3
----------  --  ----------  -- 
72
65
73
4
40
18.000
49
12.000
49
-2.000
49
2.000
49
-2.000
0
LTYPE
5
1fa
2
PHANTOM
70
0
3
--- - - --- - - --- - - --- - -
72
65
73
6
40
10.000
49
5.000
49
-1.000
49
1.000
49
-1.000
49
1.000
49
-1.000
0
LTYPE
5
1fb
2
PHANTOM2
70
0
3
--------  -  -  --------  -  -
72
65
73
6
40
16.000
49
6.000
49
-2.000
49
2.000
49
-2.000
49
2.000
49
-2.000
0
LTYPE
5
1fc
2
HIDDEN
70
0
3
-   -   -   -   -   -   -   -   
72
65
73
2
40
2.500
49
0.500
49
-2.000
0
ENDTAB
0
TABLE
2
STYLE
70
1
0
STYLE
5
1fd
100
AcDbSymbolTableRecord
100
AcDbTextStyleTableRecord
2
STANDARD
70
0
40
0.0
41
1.0
50
0.0
71
0
42
0.0
3
txt.shx
4
extfont.shx
0
STYLE
5
1fe
100
AcDbSymbolTableRecord
100
AcDbTextStyleTableRecord
2
TATEGAKI
70
4
40
0.0
41
1.0
50
0.0
71
0
42
0.0
3
txt.shx
4
extfont.shx
0
STYLE
5
1ff
100
AcDbSymbolTableRecord
100
AcDbTextStyleTableRecord
2
MT
70
0
40
0.0
41
1.0
50
0.0
71
0
42
0.0
3
MS Mincho
4

0
STYLE
5
200
100
AcDbSymbolTableRecord
100
AcDbTextStyleTableRecord
2
TMT
70
4
40
0.0
41
1.0
50
0.0
71
0
42
0.0
3
@MS Mincho
4

0
ENDTAB
0
TABLE
2
LAYER
5
2970
100
AcDbSymbolTable
70
10
0
LAYER
5
2971
100
AcDbSymbolTableRecord
100
AcDbLayerTableRecord
2
0
70
64
62
  7
  6
CONTINUOUS
0
LAYER
5
2972
100
AcDbSymbolTableRecord
100
AcDbLayerTableRecord
2
0-0
70
64
62
  7
  6
CONTINUOUS
0
LAYER
5
2973
100
AcDbSymbolTableRecord
100
AcDbLayerTableRecord
2
ADD_LINE
70
64
62
  -7
  6
CONTINUOUS
0
ENDTAB
0
ENDSEC
0
SECTION
2
ENTITIES
0
LINE
5
2974
8
0-0
6
CONTINUOUS
62
  7
10
1058.108
20
970.405
30
0.0
11
1101.108
21
970.405
31
0.0
0
LINE
5
2975
8
0-0
6
CONTINUOUS
62
  7
10
1103.108
20
1005.405
30
0.0
11
1101.108
21
970.405
31
0.0
0
LINE
5
2976
8
0-0
6
CONTINUOUS
62
  7
10
1058.108
20
970.405
30
0.0
11
1058.108
21
725.406
31
0.0
0
LINE
5
2977
8
0-0
6
CONTINUOUS
62
  7
10
637.946
20
710.405
30
0.0
11
600.946
21
706.517
31
0.0
0
LINE
5
2978
8
0-0
6
CONTINUOUS
62
  7
10
619.946
20
726.613
30
0.0
11
602.544
21
724.784
31
0.0
0
LINE
5
2979
8
0-0
6
CONTINUOUS
62
  7
10
637.946
20
710.405
30
0.0
11
637.946
21
1005.405
31
0.0
0
LINE
5
297a
8
0-0
6
CONTINUOUS
62
  7
10
619.946
20
726.613
30
0.0
11
619.946
21
1005.405
31
0.0
0
LINE
5
297b
8
0-0
6
CONTINUOUS
62
  7
10
637.946
20
1005.405
30
0.0
11
619.946
21
1005.405
31
0.0
0
LINE
5
297c
8
0-0
6
CONTINUOUS
62
  7
10
637.946
20
1005.405
30
0.0
11
673.946
21
1005.405
31
0.0
0
LINE
5
297d
8
0-0
6
CONTINUOUS
62
  7
10
673.946
20
714.189
30
0.0
11
673.946
21
1005.405
31
0.0
0
LINE
5
297e
8
0-0
6
CONTINUOUS
62
  7
10
637.946
20
710.405
30
0.0
11
673.946
21
714.189
31
0.0
0
LINE
5
297f
8
0-0
6
CONTINUOUS
62
  7
10
1058.108
20
1195.946
30
0.0
11
1358.108
21
1195.946
31
0.0
0
LINE
5
2980
8
0-0
6
CONTINUOUS
62
  7
10
1058.108
20
1045.946
30
0.0
11
1058.108
21
1195.946
31
0.0
0
LINE
5
2981
8
0-0
6
CONTINUOUS
62
  7
10
1358.108
20
1045.946
30
0.0
11
1358.108
21
1195.946
31
0.0
0
LINE
5
2982
8
0-0
6
CONTINUOUS
62
  7
10
1058.108
20
1139.189
30
0.0
11
1103.108
21
1139.189
31
0.0
0
LINE
5
2983
8
0-0
6
CONTINUOUS
62
  7
10
1058.108
20
1045.946
30
0.0
11
1058.108
21
1139.189
31
0.0
0
LINE
5
2984
8
0-0
6
CONTINUOUS
62
  7
10
1103.108
20
1045.946
30
0.0
11
1103.108
21
1139.189
31
0.0
0
LINE
5
2985
8
0-0
6
CONTINUOUS
62
  7
10
1103.108
20
1139.189
30
0.0
11
1358.108
21
1139.189
31
0.0
0
LINE
5
2986
8
0-0
6
CONTINUOUS
62
  7
10
1358.108
20
1045.946
30
0.0
11
1358.108
21
1139.189
31
0.0
0
LINE
5
2987
8
0-0
6
CONTINUOUS
62
  7
10
1058.108
20
612.162
30
0.0
11
1364.108
21
612.162
31
0.0
0
LINE
5
2988
8
0-0
6
CONTINUOUS
62
  7
10
1058.108
20
664.865
30
0.0
11
1058.108
21
612.162
31
0.0
0
LINE
5
2989
8
0-0
6
CONTINUOUS
62
  7
10
1364.108
20
664.865
30
0.0
11
1364.108
21
612.162
31
0.0
0
LINE
5
298a
8
0-0
6
CONTINUOUS
62
  7
10
808.703
20
1005.405
30
0.0
11
808.703
21
710.405
31
0.0
0
LINE
5
298b
8
0-0
6
CONTINUOUS
62
  7
10
991.135
20
1005.405
30
0.0
11
808.703
21
1005.405
31
0.0
0
LINE
5
298c
8
0-0
6
CONTINUOUS
62
  7
10
991.135
20
710.405
30
0.0
11
808.703
21
710.405
31
0.0
0
LINE
5
298d
8
0-0
6
CONTINUOUS
62
  7
10
808.703
20
387.745
30
0.0
11
808.703
21
364.865
31
0.0
0
LINE
5
298e
8
0-0
6
CONTINUOUS
62
  7
10
991.135
20
387.745
30
0.0
11
808.703
21
387.745
31
0.0
0
LINE
5
298f
8
0-0
6
CONTINUOUS
62
  7
10
991.135
20
364.865
30
0.0
11
808.703
21
364.865
31
0.0
0
LINE
5
2990
8
0-0
6
CONTINUOUS
62
  7
10
873.568
20
1005.405
30
0.0
11
873.568
21
970.405
31
0.0
0
LINE
5
2991
8
0-0
6
CONTINUOUS
62
  7
10
991.135
20
1005.405
30
0.0
11
873.568
21
1005.405
31
0.0
0
LINE
5
2992
8
0-0
6
CONTINUOUS
62
  7
10
991.135
20
970.405
30
0.0
11
873.568
21
970.405
31
0.0
0
LINE
5
2993
8
0-0
6
CONTINUOUS
62
  7
10
637.946
20
1139.189
30
0.0
11
619.946
21
1139.189
31
0.0
0
LINE
5
2994
8
0-0
6
CONTINUOUS
62
  7
10
637.946
20
1045.946
30
0.0
11
637.946
21
1139.189
31
0.0
0
LINE
5
2995
8
0-0
6
CONTINUOUS
62
  7
10
619.946
20
1045.946
30
0.0
11
619.946
21
1139.189
31
0.0
0
LINE
5
2996
8
ADD_LINE
6
HIDDEN
62
  3
10
1058.108
20
281.573
30
0.0
11
1058.108
21
452.031
31
0.0
0
LINE
5
2997
8
ADD_LINE
6
HIDDEN
62
  3
10
1036.246
20
364.865
30
0.0
11
1099.522
21
364.865
31
0.0
0
LINE
5
2998
8
0-0
6
CONTINUOUS
62
  7
10
1158.108
20
710.405
30
0.0
11
1358.108
21
710.405
31
0.0
0
LINE
5
2999
8
0-0
6
CONTINUOUS
62
  7
10
1358.108
20
1000.405
30
0.0
11
1358.108
21
710.405
31
0.0
0
LINE
5
299a
8
0-0
6
CONTINUOUS
62
  7
10
1332.108
20
1000.405
30
0.0
11
1358.108
21
1000.405
31
0.0
0
LINE
5
299b
8
0-0
6
CONTINUOUS
62
  7
10
1103.108
20
1005.405
30
0.0
11
1332.108
21
1005.405
31
0.0
0
LINE
5
299c
8
0-0
6
CONTINUOUS
62
  7
10
1133.108
20
997.405
30
0.0
11
1332.108
21
997.405
31
0.0
0
LINE
5
299d
8
0-0
6
CONTINUOUS
62
  7
10
1133.108
20
1005.405
30
0.0
11
1133.108
21
997.405
31
0.0
0
LINE
5
299e
8
0-0
6
CONTINUOUS
62
  7
10
1332.108
20
1005.405
30
0.0
11
1332.108
21
997.405
31
0.0
0
LINE
5
299f
8
0-0
6
CONTINUOUS
62
  7
10
1589.189
20
1000.405
30
0.0
11
1654.189
21
1000.405
31
0.0
0
LINE
5
29a0
8
0-0
6
CONTINUOUS
62
  7
10
1654.189
20
1000.405
30
0.0
11
1677.189
21
758.405
31
0.0
0
LINE
5
29a1
8
0-0
6
CONTINUOUS
62
  7
10
1628.970
20
706.224
30
0.0
11
1628.970
21
724.323
31
0.0
0
LINE
5
29a2
8
0-0
6
CONTINUOUS
62
  7
10
1589.189
20
1000.405
30
0.0
11
1589.189
21
710.405
31
0.0
0
LINE
5
29a3
8
0-0
6
CONTINUOUS
62
  7
10
1589.189
20
710.405
30
0.0
11
1628.970
21
706.224
31
0.0
0
LINE
5
29a4
8
0-0
6
CONTINUOUS
62
  7
10
1609.189
20
773.406
30
0.0
11
1675.764
21
773.406
31
0.0
0
LINE
5
29a5
8
0-0
6
CONTINUOUS
62
  7
10
1609.189
20
708.303
30
0.0
11
1609.189
21
773.406
31
0.0
0
LINE
5
29a6
8
0-0
6
CONTINUOUS
62
  7
10
1608.189
20
708.409
30
0.0
11
1608.189
21
774.406
31
0.0
0
LINE
5
29a7
8
0-0
6
CONTINUOUS
62
  7
10
1608.189
20
774.406
30
0.0
11
1675.669
21
774.406
31
0.0
0
LINE
5
29a8
8
0-0
6
CONTINUOUS
62
  7
10
602.544
20
724.784
30
0.0
11
577.946
21
722.198
31
0.0
0
LINE
5
29a9
8
0-0
6
CONTINUOUS
62
  7
10
577.946
20
722.198
30
0.0
11
577.946
21
704.099
31
0.0
0
LINE
5
29aa
8
0-0
6
CONTINUOUS
62
  7
10
600.946
20
706.517
30
0.0
11
577.946
21
704.099
31
0.0
0
LINE
5
29ab
8
0-0
6
CONTINUOUS
62
  7
10
577.946
20
612.162
30
0.0
11
637.946
21
612.162
31
0.0
0
LINE
5
29ac
8
0-0
6
CONTINUOUS
62
  7
10
577.946
20
664.865
30
0.0
11
577.946
21
612.162
31
0.0
0
LINE
5
29ad
8
0-0
6
CONTINUOUS
62
  7
10
637.946
20
664.865
30
0.0
11
637.946
21
612.162
31
0.0
0
LINE
5
29ae
8
0-0
6
CONTINUOUS
62
  7
10
1589.189
20
612.162
30
0.0
11
1677.189
21
612.162
31
0.0
0
LINE
5
29af
8
0-0
6
CONTINUOUS
62
  7
10
1589.189
20
664.865
30
0.0
11
1589.189
21
612.162
31
0.0
0
LINE
5
29b0
8
0-0
6
CONTINUOUS
62
  7
10
1677.189
20
664.865
30
0.0
11
1677.189
21
612.162
31
0.0
0
LINE
5
29b1
8
0-0
6
CONTINUOUS
62
  7
10
1589.189
20
1195.946
30
0.0
11
1654.189
21
1195.946
31
0.0
0
LINE
5
29b2
8
0-0
6
CONTINUOUS
62
  7
10
1589.189
20
1045.946
30
0.0
11
1589.189
21
1195.946
31
0.0
0
LINE
5
29b3
8
0-0
6
CONTINUOUS
62
  7
10
1654.189
20
1045.946
30
0.0
11
1654.189
21
1195.946
31
0.0
0
LINE
5
29b4
8
ADD_LINE
6
HIDDEN
62
  3
10
1036.246
20
364.865
30
0.0
11
1099.522
21
364.865
31
0.0
0
LINE
5
29b5
8
0-0
6
CONTINUOUS
62
  7
10
1093.663
20
378.256
30
0.0
11
1093.663
21
338.281
31
0.0
0
LINE
5
29b6
8
0-0
6
CONTINUOUS
62
  7
10
1058.813
20
371.741
30
0.0
11
1058.108
21
364.865
31
0.0
0
LINE
5
29b7
8
0-0
6
CONTINUOUS
62
  7
10
1058.813
20
371.741
30
0.0
11
1058.108
21
364.865
31
0.0
0
LINE
5
29b8
8
0-0
6
CONTINUOUS
62
  7
10
1060.454
20
387.745
30
0.0
11
1058.813
21
371.741
31
0.0
0
LINE
5
29b9
8
0-0
6
CONTINUOUS
62
  7
10
1088.812
20
403.870
30
0.0
11
1060.454
21
387.745
31
0.0
0
LINE
5
29ba
8
ADD_LINE
6
HIDDEN
62
  3
10
1036.246
20
364.865
30
0.0
11
1099.522
21
364.865
31
0.0
0
LINE
5
29bb
8
0-0
6
CONTINUOUS
62
  7
10
1093.663
20
378.292
30
0.0
11
1093.663
21
338.281
31
0.0
0
LINE
5
29bc
8
0-0
6
CONTINUOUS
62
  7
10
1364.108
20
342.013
30
0.0
11
1364.108
21
380.891
31
0.0
0
LINE
5
29bd
8
0-0
6
CONTINUOUS
62
  7
10
1347.108
20
292.891
30
0.0
11
1364.108
21
292.891
31
0.0
0
LINE
5
29be
8
0-0
6
CONTINUOUS
62
  7
10
1364.108
20
342.013
30
0.0
11
1364.108
21
292.891
31
0.0
0
LINE
5
29bf
8
0-0
6
CONTINUOUS
62
  7
10
1347.108
20
331.060
30
0.0
11
1347.108
21
292.891
31
0.0
0
LINE
5
29c0
8
0-0
6
CONTINUOUS
62
  7
10
1487.838
20
380.891
30
0.0
11
1487.838
21
292.891
31
0.0
0
LINE
5
29c1
8
0-0
6
CONTINUOUS
62
  7
10
1406.757
20
380.891
30
0.0
11
1487.838
21
380.891
31
0.0
0
LINE
5
29c2
8
0-0
6
CONTINUOUS
62
  7
10
1406.757
20
292.891
30
0.0
11
1487.838
21
292.891
31
0.0
0
ARC
5
29c3
8
0-0
6
CONTINUOUS
62
  7
10
1157.193
20
1045.136
30
0.0
40
334.732
50
252.781799
51
270.156677
0
CIRCLE
5
29c4
8
0-0
6
CONTINUOUS
62
  7
10
1171.108
20
985.405
30
0.0
40
3.000
0
CIRCLE
5
29c5
8
0-0
6
CONTINUOUS
62
  7
10
1291.108
20
985.405
30
0.0
40
3.000
0
ARC
5
29c6
8
0-0
6
CONTINUOUS
62
  7
10
1673.668
20
712.237
30
0.0
40
46.303
50
85.638000
51
164.868530
0
CIRCLE
5
29c7
8
ADD_LINE
6
HIDDEN
62
  3
10
1058.108
20
364.865
30
0.0
40
3.000
0
ARC
5
29c8
8
0-0
6
CONTINUOUS
62
  7
10
1272.483
20
647.305
30
0.0
40
294.246
50
235.860168
51
241.571106
0
ARC
5
29c9
8
0-0
6
CONTINUOUS
62
  7
10
1098.011
20
391.628
30
0.0
40
15.314
50
52.433243
51
126.920761
0
CIRCLE
5
29ca
8
ADD_LINE
6
HIDDEN
62
  3
10
1058.108
20
364.865
30
0.0
40
3.000
0
ARC
5
29cb
8
0-0
6
CONTINUOUS
62
  7
10
986.221
20
609.006
30
0.0
40
254.504
50
646.406982
51
654.971069
0
ARC
5
29cc
8
0-0
6
CONTINUOUS
62
  7
10
1255.323
20
598.745
30
0.0
40
243.505
50
239.682083
51
296.535156
0
ARC
5
29cd
8
0-0
6
CONTINUOUS
62
  7
10
1226.163
20
537.442
30
0.0
40
239.210
50
236.364563
51
305.216675
0
TEXT
5
29ce
100
AcDbEntity
8
0-0
62
7
100
AcDbText
10
1198.733
20
1198.446
30
0.0
40
9.750
41
0.800
50
0.000
1
300
100
AcDbText
0
TEXT
5
29cf
100
AcDbEntity
8
0-0
62
7
100
AcDbText
10
1074.358
20
1141.689
30
0.0
40
9.750
41
0.800
50
0.000
1
45
100
AcDbText
0
TEXT
5
29d0
100
AcDbEntity
8
0-0
62
7
100
AcDbText
10
1221.233
20
1141.689
30
0.0
40
9.750
41
0.800
50
0.000
1
255
100
AcDbText
0
TEXT
5
29d1
100
AcDbEntity
8
0-0
62
7
100
AcDbText
10
1201.733
20
614.662
30
0.0
40
9.750
41
0.800
50
0.000
1
306
100
AcDbText
0
TEXT
5
29d2
100
AcDbEntity
8
0-0
62
7
100
AcDbText
10
806.203
20
848.531
30
0.0
40
9.750
41
0.800
50
90.000
1
295
100
AcDbText
0
TEXT
5
29d3
100
AcDbEntity
8
0-0
62
7
100
AcDbText
10
806.203
20
370.055
30
0.0
40
9.750
41
0.800
50
90.000
1
23
100
AcDbText
0
TEXT
5
29d4
100
AcDbEntity
8
0-0
62
7
100
AcDbText
10
871.068
20
981.655
30
0.0
40
9.750
41
0.800
50
90.000
1
35
100
AcDbText
0
TEXT
5
29d5
100
AcDbEntity
8
0-0
62
7
100
AcDbText
10
622.696
20
1141.689
30
0.0
40
9.750
41
0.800
50
0.000
1
18
100
AcDbText
0
TEXT
5
29d6
100
AcDbEntity
8
0-0
62
7
100
AcDbText
10
601.696
20
614.662
30
0.0
40
9.750
41
0.800
50
360.000
1
60
100
AcDbText
0
TEXT
5
29d7
100
AcDbEntity
8
0-0
62
7
100
AcDbText
10
1626.939
20
614.662
30
0.0
40
9.750
41
0.800
50
0.000
1
88
100
AcDbText
0
TEXT
5
29d8
100
AcDbEntity
8
0-0
62
7
100
AcDbText
10
1615.439
20
1198.446
30
0.0
40
9.750
41
0.800
50
0.000
1
65
100
AcDbText
0
TEXT
5
29d9
100
AcDbEntity
8
0-0
62
7
100
AcDbText
10
1485.338
20
330.641
30
0.0
40
9.750
41
0.800
50
90.000
1
88
100
AcDbText
0
POINT
5
29da
8
0-0
62
  7
10
1058.108
20
1195.946
30
0.0
0
POINT
5
29db
8
0-0
62
  7
10
1358.108
20
1195.946
30
0.0
0
POINT
5
29dc
8
0-0
62
  7
10
1058.108
20
1139.189
30
0.0
0
POINT
5
29dd
8
0-0
62
  7
10
1103.108
20
1139.189
30
0.0
0
POINT
5
29de
8
0-0
62
  7
10
1358.108
20
1139.189
30
0.0
0
POINT
5
29df
8
0-0
62
  7
10
1058.108
20
612.162
30
0.0
0
POINT
5
29e0
8
0-0
62
  7
10
1364.108
20
612.162
30
0.0
0
POINT
5
29e1
8
0-0
62
  7
10
808.703
20
1005.405
30
0.0
0
POINT
5
29e2
8
0-0
62
  7
10
808.703
20
710.405
30
0.0
0
POINT
5
29e3
8
0-0
62
  7
10
808.703
20
387.745
30
0.0
0
POINT
5
29e4
8
0-0
62
  7
10
808.703
20
364.865
30
0.0
0
POINT
5
29e5
8
0-0
62
  7
10
873.568
20
1005.405
30
0.0
0
POINT
5
29e6
8
0-0
62
  7
10
873.568
20
970.405
30
0.0
0
POINT
5
29e7
8
0-0
62
  7
10
637.946
20
1139.189
30
0.0
0
POINT
5
29e8
8
0-0
62
  7
10
619.946
20
1139.189
30
0.0
0
POINT
5
29e9
8
0-0
62
  7
10
577.946
20
612.162
30
0.0
0
POINT
5
29ea
8
0-0
62
  7
10
637.946
20
612.162
30
0.0
0
POINT
5
29eb
8
0-0
62
  7
10
1589.189
20
612.162
30
0.0
0
POINT
5
29ec
8
0-0
62
  7
10
1677.189
20
612.162
30
0.0
0
POINT
5
29ed
8
0-0
62
  7
10
1589.189
20
1195.946
30
0.0
0
POINT
5
29ee
8
0-0
62
  7
10
1654.189
20
1195.946
30
0.0
0
POINT
5
29ef
8
0-0
62
  7
10
1487.838
20
380.891
30
0.0
0
POINT
5
29f0
8
0-0
62
  7
10
1487.838
20
292.891
30
0.0
0
ENDSEC
0
EOF
