0
SECTION
2
HEADER
  9
$EXTMIN
10
0
20
0
30
0
  9
$EXTMAX
10
1718.919
20
1204.649
30
0
  9
$LTSCALE
40
5.000
  9
$DIMSCALE
40
5.000
  9
$PDMODE
70
0
  9
$PDSIZE
40
40
0
ENDSEC
0
SECTION
2
TABLES
0
TABLE
2
LTYPE
70
9
0
LTYPE
5
1f4
2
CONTINUOUS
70
0
3
実線
72
65
73
0
40
0.0
0
LTYPE
5
1f5
2
DOT
70
0
3
--  --  --  --  --  --  --  --     
72
65
73
2
40
5.000
49
1.000
49
-4.000
0
LTYPE
5
1f6
2
DASHED
70
0
3
----    ----    ----    ----    
72
65
73
2
40
5.000
49
2.000
49
-3.000
0
LTYPE
5
1f7
2
DASHED2
70
0
3
------  ------  ------  ------ 
72
65
73
2
40
10.000
49
4.000
49
-6.000
0
LTYPE
5
1f8
2
CENTER
70
0
3
----- - ----- - ----- - ----- - 
72
65
73
4
40
9.000
49
6.000
49
-1.000
49
1.000
49
-1.000
0
LTYPE
5
1f9
2
CENTER2
70
0
3
----------  --  ----------  -- 
72
65
73
4
40
18.000
49
12.000
49
-2.000
49
2.000
49
-2.000
0
LTYPE
5
1fa
2
PHANTOM
70
0
3
--- - - --- - - --- - - --- - -
72
65
73
6
40
10.000
49
5.000
49
-1.000
49
1.000
49
-1.000
49
1.000
49
-1.000
0
LTYPE
5
1fb
2
PHANTOM2
70
0
3
--------  -  -  --------  -  -
72
65
73
6
40
16.000
49
6.000
49
-2.000
49
2.000
49
-2.000
49
2.000
49
-2.000
0
LTYPE
5
1fc
2
HIDDEN
70
0
3
-   -   -   -   -   -   -   -   
72
65
73
2
40
2.500
49
0.500
49
-2.000
0
ENDTAB
0
TABLE
2
STYLE
70
1
0
STYLE
5
1fd
100
AcDbSymbolTableRecord
100
AcDbTextStyleTableRecord
2
STANDARD
70
0
40
0.0
41
1.0
50
0.0
71
0
42
0.0
3
txt.shx
4
extfont.shx
0
STYLE
5
1fe
100
AcDbSymbolTableRecord
100
AcDbTextStyleTableRecord
2
TATEGAKI
70
4
40
0.0
41
1.0
50
0.0
71
0
42
0.0
3
txt.shx
4
extfont.shx
0
STYLE
5
1ff
100
AcDbSymbolTableRecord
100
AcDbTextStyleTableRecord
2
MT
70
0
40
0.0
41
1.0
50
0.0
71
0
42
0.0
3
MS Mincho
4

0
STYLE
5
200
100
AcDbSymbolTableRecord
100
AcDbTextStyleTableRecord
2
TMT
70
4
40
0.0
41
1.0
50
0.0
71
0
42
0.0
3
@MS Mincho
4

0
ENDTAB
0
TABLE
2
LAYER
5
5c9
100
AcDbSymbolTable
70
10
0
LAYER
5
5ca
100
AcDbSymbolTableRecord
100
AcDbLayerTableRecord
2
0
70
64
62
  7
  6
CONTINUOUS
0
LAYER
5
5cb
100
AcDbSymbolTableRecord
100
AcDbLayerTableRecord
2
0-0
70
64
62
  7
  6
CONTINUOUS
0
LAYER
5
5cc
100
AcDbSymbolTableRecord
100
AcDbLayerTableRecord
2
ADD_LINE
70
64
62
  -7
  6
CONTINUOUS
0
ENDTAB
0
ENDSEC
0
SECTION
2
ENTITIES
0
LINE
5
5cd
8
0-0
6
CONTINUOUS
62
  7
10
1221.486
20
962.960
30
0.0
11
1221.486
21
755.959
31
0.0
0
LINE
5
5ce
8
0-0
6
CONTINUOUS
62
  7
10
976.487
20
962.960
30
0.0
11
976.487
21
755.959
31
0.0
0
LINE
5
5cf
8
0-0
6
CONTINUOUS
62
  7
10
976.487
20
962.960
30
0.0
11
1221.486
21
962.960
31
0.0
0
LINE
5
5d0
8
0-0
6
CONTINUOUS
62
  7
10
976.487
20
755.959
30
0.0
11
1221.486
21
755.959
31
0.0
0
LINE
5
5d1
8
0-0
6
CONTINUOUS
62
  7
10
976.487
20
928.960
30
0.0
11
1221.486
21
928.960
31
0.0
0
LINE
5
5d2
8
0-0
6
CONTINUOUS
62
  7
10
976.487
20
789.960
30
0.0
11
1221.486
21
789.960
31
0.0
0
LINE
5
5d3
8
0-0
6
CONTINUOUS
62
  7
10
936.487
20
966.959
30
0.0
11
936.487
21
751.960
31
0.0
0
LINE
5
5d4
8
0-0
6
CONTINUOUS
62
  7
10
1215.486
20
962.960
30
0.0
11
1215.486
21
769.028
31
0.0
0
LINE
5
5d5
8
0-0
6
CONTINUOUS
62
  7
10
1209.486
20
962.960
30
0.0
11
1209.486
21
769.371
31
0.0
0
LINE
5
5d6
8
0-0
6
CONTINUOUS
62
  7
10
1221.486
20
485.338
30
0.0
11
1221.486
21
391.338
31
0.0
0
LINE
5
5d7
8
0-0
6
CONTINUOUS
62
  7
10
976.487
20
418.338
30
0.0
11
1221.486
21
418.338
31
0.0
0
LINE
5
5d8
8
0-0
6
CONTINUOUS
62
  7
10
976.487
20
391.338
30
0.0
11
1221.486
21
391.338
31
0.0
0
LINE
5
5d9
8
0-0
6
CONTINUOUS
62
  7
10
976.487
20
485.338
30
0.0
11
976.487
21
391.338
31
0.0
0
LINE
5
5da
8
0-0
6
CONTINUOUS
62
  7
10
936.487
20
485.338
30
0.0
11
936.487
21
391.338
31
0.0
0
LINE
5
5db
8
0-0
6
CONTINUOUS
62
  7
10
1215.486
20
485.338
30
0.0
11
1215.486
21
422.587
31
0.0
0
LINE
5
5dc
8
0-0
6
CONTINUOUS
62
  7
10
976.487
20
485.338
30
0.0
11
1209.486
21
485.338
31
0.0
0
LINE
5
5dd
8
0-0
6
CONTINUOUS
62
  7
10
1215.486
20
485.338
30
0.0
11
1221.486
21
485.338
31
0.0
0
LINE
5
5de
8
0-0
6
CONTINUOUS
62
  7
10
976.487
20
428.338
30
0.0
11
1209.486
21
428.338
31
0.0
0
LINE
5
5df
8
0-0
6
CONTINUOUS
62
  7
10
1215.486
20
428.338
30
0.0
11
1221.486
21
428.338
31
0.0
0
LINE
5
5e0
8
0-0
6
CONTINUOUS
62
  7
10
1209.486
20
425.400
30
0.0
11
1209.486
21
422.587
31
0.0
0
LINE
5
5e1
8
0-0
6
CONTINUOUS
62
  7
10
1209.486
20
485.338
30
0.0
11
1209.486
21
427.606
31
0.0
0
LINE
5
5e2
8
0-0
6
CONTINUOUS
62
  7
10
1209.486
20
427.606
30
0.0
11
1209.486
21
425.400
31
0.0
0
LINE
5
5e3
8
0-0
6
CONTINUOUS
62
  7
10
1209.486
20
427.667
30
0.0
11
1215.486
21
427.667
31
0.0
0
LINE
5
5e4
8
0-0
6
CONTINUOUS
62
  7
10
1535.811
20
758.960
30
0.0
11
1560.811
21
755.959
31
0.0
0
LINE
5
5e5
8
0-0
6
CONTINUOUS
62
  7
10
1535.811
20
959.960
30
0.0
11
1560.811
21
962.960
31
0.0
0
LINE
5
5e6
8
0-0
6
CONTINUOUS
62
  7
10
1535.811
20
959.960
30
0.0
11
1523.811
21
922.959
31
0.0
0
LINE
5
5e7
8
0-0
6
CONTINUOUS
62
  7
10
1535.811
20
758.960
30
0.0
11
1523.811
21
795.960
31
0.0
0
LINE
5
5e8
8
0-0
6
CONTINUOUS
62
  7
10
1560.811
20
962.960
30
0.0
11
1557.811
21
953.959
31
0.0
0
LINE
5
5e9
8
0-0
6
CONTINUOUS
62
  7
10
1557.811
20
953.959
30
0.0
11
1554.811
21
952.871
31
0.0
0
LINE
5
5ea
8
0-0
6
CONTINUOUS
62
  7
10
1554.811
20
952.871
30
0.0
11
1539.811
21
922.959
31
0.0
0
LINE
5
5eb
8
0-0
6
CONTINUOUS
62
  7
10
1539.811
20
922.959
30
0.0
11
1532.458
21
908.298
31
0.0
0
LINE
5
5ec
8
0-0
6
CONTINUOUS
62
  7
10
1535.811
20
758.959
30
0.0
11
1560.811
21
755.959
31
0.0
0
LINE
5
5ed
8
0-0
6
CONTINUOUS
62
  7
10
1535.811
20
758.959
30
0.0
11
1523.811
21
795.960
31
0.0
0
LINE
5
5ee
8
0-0
6
CONTINUOUS
62
  7
10
1560.811
20
755.959
30
0.0
11
1557.811
21
764.960
31
0.0
0
LINE
5
5ef
8
0-0
6
CONTINUOUS
62
  7
10
1557.811
20
764.960
30
0.0
11
1554.811
21
766.048
31
0.0
0
LINE
5
5f0
8
0-0
6
CONTINUOUS
62
  7
10
1554.811
20
766.048
30
0.0
11
1539.811
21
795.960
31
0.0
0
LINE
5
5f1
8
0-0
6
CONTINUOUS
62
  7
10
1539.811
20
795.960
30
0.0
11
1532.458
21
810.621
31
0.0
0
LINE
5
5f2
8
0-0
6
CONTINUOUS
62
  7
10
653.378
20
758.960
30
0.0
11
628.378
21
755.959
31
0.0
0
LINE
5
5f3
8
0-0
6
CONTINUOUS
62
  7
10
653.378
20
959.960
30
0.0
11
628.378
21
962.960
31
0.0
0
LINE
5
5f4
8
0-0
6
CONTINUOUS
62
  7
10
653.378
20
959.960
30
0.0
11
665.378
21
922.959
31
0.0
0
LINE
5
5f5
8
0-0
6
CONTINUOUS
62
  7
10
653.378
20
758.960
30
0.0
11
665.378
21
795.960
31
0.0
0
LINE
5
5f6
8
0-0
6
CONTINUOUS
62
  7
10
631.378
20
953.959
30
0.0
11
634.378
21
952.871
31
0.0
0
LINE
5
5f7
8
0-0
6
CONTINUOUS
62
  7
10
634.378
20
952.871
30
0.0
11
649.378
21
922.959
31
0.0
0
LINE
5
5f8
8
0-0
6
CONTINUOUS
62
  7
10
649.378
20
922.959
30
0.0
11
656.731
21
908.298
31
0.0
0
LINE
5
5f9
8
0-0
6
CONTINUOUS
62
  7
10
653.378
20
758.959
30
0.0
11
628.378
21
755.959
31
0.0
0
LINE
5
5fa
8
0-0
6
CONTINUOUS
62
  7
10
653.378
20
758.959
30
0.0
11
665.378
21
795.960
31
0.0
0
LINE
5
5fb
8
0-0
6
CONTINUOUS
62
  7
10
628.378
20
755.959
30
0.0
11
631.378
21
764.960
31
0.0
0
LINE
5
5fc
8
0-0
6
CONTINUOUS
62
  7
10
631.378
20
764.960
30
0.0
11
634.378
21
766.048
31
0.0
0
LINE
5
5fd
8
0-0
6
CONTINUOUS
62
  7
10
634.378
20
766.048
30
0.0
11
649.378
21
795.960
31
0.0
0
LINE
5
5fe
8
0-0
6
CONTINUOUS
62
  7
10
649.378
20
795.960
30
0.0
11
656.731
21
810.621
31
0.0
0
LINE
5
5ff
8
0-0
6
CONTINUOUS
62
  7
10
662.878
20
744.259
30
0.0
11
678.378
21
786.960
31
0.0
0
LINE
5
600
8
0-0
6
CONTINUOUS
62
  7
10
662.878
20
974.660
30
0.0
11
678.378
21
931.959
31
0.0
0
LINE
5
601
8
0-0
6
CONTINUOUS
62
  7
10
622.878
20
739.459
30
0.0
11
662.878
21
744.259
31
0.0
0
LINE
5
602
8
0-0
6
CONTINUOUS
62
  7
10
628.378
20
755.959
30
0.0
11
622.878
21
739.459
31
0.0
0
LINE
5
603
8
0-0
6
CONTINUOUS
62
  7
10
622.878
20
979.460
30
0.0
11
631.378
21
953.959
31
0.0
0
LINE
5
604
8
0-0
6
CONTINUOUS
62
  7
10
622.878
20
979.460
30
0.0
11
662.878
21
974.660
31
0.0
0
LINE
5
605
8
0-0
6
CONTINUOUS
62
  7
10
628.378
20
962.960
30
0.0
11
622.878
21
979.460
31
0.0
0
LINE
5
606
8
0-0
6
CONTINUOUS
62
  7
10
665.378
20
922.959
30
0.0
11
678.378
21
931.959
31
0.0
0
LINE
5
607
8
0-0
6
CONTINUOUS
62
  7
10
665.219
20
795.466
30
0.0
11
678.378
21
786.960
31
0.0
0
LINE
5
608
8
0-0
6
CONTINUOUS
62
  7
10
653.378
20
959.960
30
0.0
11
662.878
21
974.660
31
0.0
0
LINE
5
609
8
0-0
6
CONTINUOUS
62
  7
10
653.378
20
758.959
30
0.0
11
662.878
21
744.259
31
0.0
0
LINE
5
60a
8
0-0
6
CONTINUOUS
62
  7
10
628.378
20
1202.149
30
0.0
11
738.378
21
1202.149
31
0.0
0
LINE
5
60b
8
0-0
6
CONTINUOUS
62
  7
10
628.378
20
1039.987
30
0.0
11
628.378
21
1202.149
31
0.0
0
LINE
5
60c
8
0-0
6
CONTINUOUS
62
  7
10
738.378
20
1039.987
30
0.0
11
738.378
21
1202.149
31
0.0
0
LINE
5
60d
8
0-0
6
CONTINUOUS
62
  7
10
936.487
20
1202.149
30
0.0
11
1221.486
21
1202.149
31
0.0
0
LINE
5
60e
8
0-0
6
CONTINUOUS
62
  7
10
936.487
20
1039.987
30
0.0
11
936.487
21
1202.149
31
0.0
0
LINE
5
60f
8
0-0
6
CONTINUOUS
62
  7
10
1221.486
20
1039.987
30
0.0
11
1221.486
21
1202.149
31
0.0
0
LINE
5
610
8
0-0
6
CONTINUOUS
62
  7
10
1466.811
20
1202.149
30
0.0
11
1560.811
21
1202.149
31
0.0
0
LINE
5
611
8
0-0
6
CONTINUOUS
62
  7
10
1466.811
20
1039.987
30
0.0
11
1466.811
21
1202.149
31
0.0
0
LINE
5
612
8
0-0
6
CONTINUOUS
62
  7
10
1560.811
20
1039.987
30
0.0
11
1560.811
21
1202.149
31
0.0
0
LINE
5
613
8
0-0
6
CONTINUOUS
62
  7
10
936.487
20
1149.446
30
0.0
11
976.487
21
1149.446
31
0.0
0
LINE
5
614
8
0-0
6
CONTINUOUS
62
  7
10
936.487
20
1039.987
30
0.0
11
936.487
21
1149.446
31
0.0
0
LINE
5
615
8
0-0
6
CONTINUOUS
62
  7
10
976.487
20
1039.987
30
0.0
11
976.487
21
1149.446
31
0.0
0
LINE
5
616
8
0-0
6
CONTINUOUS
62
  7
10
976.487
20
1149.446
30
0.0
11
1221.486
21
1149.446
31
0.0
0
LINE
5
617
8
0-0
6
CONTINUOUS
62
  7
10
1221.486
20
1039.987
30
0.0
11
1221.486
21
1149.446
31
0.0
0
LINE
5
618
8
0-0
6
CONTINUOUS
62
  7
10
936.487
20
233.230
30
0.0
11
976.487
21
233.230
31
0.0
0
LINE
5
619
8
0-0
6
CONTINUOUS
62
  7
10
936.487
20
338.635
30
0.0
11
936.487
21
233.230
31
0.0
0
LINE
5
61a
8
0-0
6
CONTINUOUS
62
  7
10
976.487
20
338.635
30
0.0
11
976.487
21
233.230
31
0.0
0
LINE
5
61b
8
0-0
6
CONTINUOUS
62
  7
10
976.487
20
233.230
30
0.0
11
1221.486
21
233.230
31
0.0
0
LINE
5
61c
8
0-0
6
CONTINUOUS
62
  7
10
1221.486
20
338.635
30
0.0
11
1221.486
21
233.230
31
0.0
0
LINE
5
61d
8
0-0
6
CONTINUOUS
62
  7
10
474.324
20
979.460
30
0.0
11
474.324
21
739.459
31
0.0
0
LINE
5
61e
8
0-0
6
CONTINUOUS
62
  7
10
583.784
20
979.460
30
0.0
11
474.324
21
979.460
31
0.0
0
LINE
5
61f
8
0-0
6
CONTINUOUS
62
  7
10
583.784
20
739.459
30
0.0
11
474.324
21
739.459
31
0.0
0
LINE
5
620
8
0-0
6
CONTINUOUS
62
  7
10
1374.324
20
962.960
30
0.0
11
1374.324
21
755.959
31
0.0
0
LINE
5
621
8
0-0
6
CONTINUOUS
62
  7
10
1268.919
20
962.960
30
0.0
11
1374.324
21
962.960
31
0.0
0
LINE
5
622
8
0-0
6
CONTINUOUS
62
  7
10
1268.919
20
755.959
30
0.0
11
1374.324
21
755.959
31
0.0
0
LINE
5
623
8
0-0
6
CONTINUOUS
62
  7
10
1374.324
20
391.338
30
0.0
11
1374.324
21
485.338
31
0.0
0
LINE
5
624
8
0-0
6
CONTINUOUS
62
  7
10
1268.919
20
391.338
30
0.0
11
1374.324
21
391.338
31
0.0
0
LINE
5
625
8
0-0
6
CONTINUOUS
62
  7
10
1268.919
20
485.338
30
0.0
11
1374.324
21
485.338
31
0.0
0
LINE
5
626
8
0-0
6
CONTINUOUS
62
  7
10
1333.784
20
391.338
30
0.0
11
1333.784
21
418.338
31
0.0
0
LINE
5
627
8
0-0
6
CONTINUOUS
62
  7
10
1268.919
20
391.338
30
0.0
11
1333.784
21
391.338
31
0.0
0
LINE
5
628
8
0-0
6
CONTINUOUS
62
  7
10
1268.919
20
418.338
30
0.0
11
1333.784
21
418.338
31
0.0
0
LINE
5
629
8
0-0
6
CONTINUOUS
62
  7
10
1718.919
20
962.960
30
0.0
11
1718.919
21
755.959
31
0.0
0
LINE
5
62a
8
0-0
6
CONTINUOUS
62
  7
10
1609.460
20
962.960
30
0.0
11
1718.919
21
962.960
31
0.0
0
LINE
5
62b
8
0-0
6
CONTINUOUS
62
  7
10
1609.460
20
755.959
30
0.0
11
1718.919
21
755.959
31
0.0
0
LINE
5
62c
8
0-0
6
CONTINUOUS
62
  7
10
814.865
20
501.338
30
0.0
11
814.865
21
391.338
31
0.0
0
LINE
5
62d
8
0-0
6
CONTINUOUS
62
  7
10
887.838
20
501.338
30
0.0
11
814.865
21
501.338
31
0.0
0
LINE
5
62e
8
0-0
6
CONTINUOUS
62
  7
10
887.838
20
391.338
30
0.0
11
814.865
21
391.338
31
0.0
0
LINE
5
62f
8
0-0
6
CONTINUOUS
62
  7
10
814.865
20
979.460
30
0.0
11
814.865
21
739.459
31
0.0
0
LINE
5
630
8
0-0
6
CONTINUOUS
62
  7
10
887.838
20
979.460
30
0.0
11
814.865
21
979.460
31
0.0
0
LINE
5
631
8
0-0
6
CONTINUOUS
62
  7
10
887.838
20
739.459
30
0.0
11
814.865
21
739.459
31
0.0
0
LINE
5
632
8
ADD_LINE
6
HIDDEN
62
  3
10
591.892
20
859.459
30
0.0
11
1601.351
21
859.459
31
0.0
0
ARC
5
633
8
0-0
6
CONTINUOUS
62
  7
10
956.281
20
791.202
30
0.0
40
20.244
50
192.098114
51
356.480225
0
ARC
5
634
8
0-0
6
CONTINUOUS
62
  7
10
956.281
20
927.717
30
0.0
40
20.244
50
3.520279
51
167.901520
0
ARC
5
635
8
0-0
6
CONTINUOUS
62
  7
10
1212.486
20
949.720
30
0.0
40
3.005
50
356.716919
51
183.283203
0
ARC
5
636
8
0-0
6
CONTINUOUS
62
  7
10
1212.486
20
769.199
30
0.0
40
3.005
50
176.716797
51
3.283066
0
CIRCLE
5
637
8
0-0
6
CONTINUOUS
62
  7
10
1044.487
20
859.459
30
0.0
40
3.000
0
CIRCLE
5
638
8
0-0
6
CONTINUOUS
62
  7
10
1068.487
20
859.459
30
0.0
40
3.000
0
ARC
5
639
8
0-0
6
CONTINUOUS
62
  7
10
956.487
20
480.838
30
0.0
40
20.500
50
12.680389
51
167.319611
0
ARC
5
63a
8
0-0
6
CONTINUOUS
62
  7
10
956.487
20
415.656
30
0.0
40
23.682
50
32.378464
51
147.621536
0
ARC
5
63b
8
0-0
6
CONTINUOUS
62
  7
10
956.487
20
397.338
30
0.0
40
29.000
50
46.397308
51
133.602692
0
ARC
5
63c
8
0-0
6
CONTINUOUS
62
  7
10
956.487
20
428.838
30
0.0
40
42.500
50
241.927582
51
298.072418
0
ARC
5
63d
8
0-0
6
CONTINUOUS
62
  7
10
1212.486
20
423.754
30
0.0
40
3.219
50
201.248917
51
338.751892
0
ARC
5
63e
8
0-0
6
CONTINUOUS
62
  7
10
1212.486
20
486.504
30
0.0
40
3.219
50
201.248917
51
338.751892
0
ARC
5
63f
8
0-0
6
CONTINUOUS
62
  7
10
1530.682
20
859.459
30
0.0
40
63.871
50
96.175339
51
263.824646
0
ARC
5
640
8
0-0
6
CONTINUOUS
62
  7
10
1530.682
20
859.459
30
0.0
40
48.871
50
87.916641
51
272.083374
0
ARC
5
641
8
0-0
6
CONTINUOUS
62
  7
10
658.508
20
859.459
30
0.0
40
63.871
50
276.175354
51
443.824646
0
ARC
5
642
8
0-0
6
CONTINUOUS
62
  7
10
658.508
20
859.459
30
0.0
40
48.871
50
267.916626
51
452.083374
0
ARC
5
643
8
0-0
6
CONTINUOUS
62
  7
10
664.576
20
859.459
30
0.0
40
73.802
50
280.778625
51
79.221390
0
CIRCLE
5
644
8
ADD_LINE
6
HIDDEN
62
  3
10
936.487
20
859.459
30
0.0
40
3.000
0
ARC
5
645
8
0-0
6
CONTINUOUS
62
  7
10
955.818
20
958.279
30
0.0
40
21.192
50
12.761154
51
155.817703
0
ARC
5
646
8
0-0
6
CONTINUOUS
62
  7
10
955.818
20
760.641
30
0.0
40
21.192
50
204.182602
51
347.238678
0
TEXT
5
647
100
AcDbEntity
8
0-0
62
7
100
AcDbText
10
674.003
20
1204.649
30
0.0
40
9.750
41
0.800
50
0.000
1
110
100
AcDbText
0
TEXT
5
648
100
AcDbEntity
8
0-0
62
7
100
AcDbText
10
1069.612
20
1204.649
30
0.0
40
9.750
41
0.800
50
0.000
1
285
100
AcDbText
0
TEXT
5
649
100
AcDbEntity
8
0-0
62
7
100
AcDbText
10
1507.561
20
1204.649
30
0.0
40
9.750
41
0.800
50
0.000
1
94
100
AcDbText
0
TEXT
5
64a
100
AcDbEntity
8
0-0
62
7
100
AcDbText
10
950.237
20
1151.946
30
0.0
40
9.750
41
0.800
50
0.000
1
40
100
AcDbText
0
TEXT
5
64b
100
AcDbEntity
8
0-0
62
7
100
AcDbText
10
1089.611
20
1151.946
30
0.0
40
9.750
41
0.800
50
0.000
1
245
100
AcDbText
0
TEXT
5
64c
100
AcDbEntity
8
0-0
62
7
100
AcDbText
10
950.237
20
235.730
30
0.0
40
9.750
41
0.800
50
0.000
1
40
100
AcDbText
0
TEXT
5
64d
100
AcDbEntity
8
0-0
62
7
100
AcDbText
10
1089.611
20
235.730
30
0.0
40
9.750
41
0.800
50
0.000
1
245
100
AcDbText
0
TEXT
5
64e
100
AcDbEntity
8
0-0
62
7
100
AcDbText
10
471.824
20
850.084
30
0.0
40
9.750
41
0.800
50
90.000
1
240
100
AcDbText
0
TEXT
5
64f
100
AcDbEntity
8
0-0
62
7
100
AcDbText
10
1371.824
20
850.084
30
0.0
40
9.750
41
0.800
50
90.000
1
207
100
AcDbText
0
TEXT
5
650
100
AcDbEntity
8
0-0
62
7
100
AcDbText
10
1371.824
20
432.088
30
0.0
40
9.750
41
0.800
50
90.000
1
94
100
AcDbText
0
TEXT
5
651
100
AcDbEntity
8
0-0
62
7
100
AcDbText
10
1331.284
20
398.588
30
0.0
40
9.750
41
0.800
50
90.000
1
27
100
AcDbText
0
TEXT
5
652
100
AcDbEntity
8
0-0
62
7
100
AcDbText
10
1716.419
20
850.084
30
0.0
40
9.750
41
0.800
50
90.000
1
207
100
AcDbText
0
TEXT
5
653
100
AcDbEntity
8
0-0
62
7
100
AcDbText
10
812.365
20
436.963
30
0.0
40
9.750
41
0.800
50
90.000
1
110
100
AcDbText
0
TEXT
5
654
100
AcDbEntity
8
0-0
62
7
100
AcDbText
10
812.365
20
850.084
30
0.0
40
9.750
41
0.800
50
90.000
1
240
100
AcDbText
0
POINT
5
655
8
0-0
62
  7
10
628.378
20
1202.149
30
0.0
0
POINT
5
656
8
0-0
62
  7
10
738.378
20
1202.149
30
0.0
0
POINT
5
657
8
0-0
62
  7
10
936.487
20
1202.149
30
0.0
0
POINT
5
658
8
0-0
62
  7
10
1221.486
20
1202.149
30
0.0
0
POINT
5
659
8
0-0
62
  7
10
1466.811
20
1202.149
30
0.0
0
POINT
5
65a
8
0-0
62
  7
10
1560.811
20
1202.149
30
0.0
0
POINT
5
65b
8
0-0
62
  7
10
936.487
20
1149.446
30
0.0
0
POINT
5
65c
8
0-0
62
  7
10
976.487
20
1149.446
30
0.0
0
POINT
5
65d
8
0-0
62
  7
10
1221.486
20
1149.446
30
0.0
0
POINT
5
65e
8
0-0
62
  7
10
936.487
20
233.230
30
0.0
0
POINT
5
65f
8
0-0
62
  7
10
976.487
20
233.230
30
0.0
0
POINT
5
660
8
0-0
62
  7
10
1221.486
20
233.230
30
0.0
0
POINT
5
661
8
0-0
62
  7
10
474.324
20
979.460
30
0.0
0
POINT
5
662
8
0-0
62
  7
10
474.324
20
739.459
30
0.0
0
POINT
5
663
8
0-0
62
  7
10
1374.324
20
962.960
30
0.0
0
POINT
5
664
8
0-0
62
  7
10
1374.324
20
755.959
30
0.0
0
POINT
5
665
8
0-0
62
  7
10
1374.324
20
391.338
30
0.0
0
POINT
5
666
8
0-0
62
  7
10
1374.324
20
485.338
30
0.0
0
POINT
5
667
8
0-0
62
  7
10
1333.784
20
391.338
30
0.0
0
POINT
5
668
8
0-0
62
  7
10
1333.784
20
418.338
30
0.0
0
POINT
5
669
8
0-0
62
  7
10
1718.919
20
962.960
30
0.0
0
POINT
5
66a
8
0-0
62
  7
10
1718.919
20
755.959
30
0.0
0
POINT
5
66b
8
0-0
62
  7
10
814.865
20
501.338
30
0.0
0
POINT
5
66c
8
0-0
62
  7
10
814.865
20
391.338
30
0.0
0
POINT
5
66d
8
0-0
62
  7
10
814.865
20
979.460
30
0.0
0
POINT
5
66e
8
0-0
62
  7
10
814.865
20
739.459
30
0.0
0
ENDSEC
0
EOF
