  0
SECTION
  2
HEADER
  9
$ACADVER
  1
AC1009
  9
$INSBASE
 10
0
 20
0
 30
0
  9
$EXTMIN
 10
0
 20
0
  9
$EXTMAX
 10
420
 20
297
  9
$LIMMIN
 10
0
 20
0
  9
$LIMMAX
 10
420
 20
297
  9
$LTSCALE
 40
1
  0
ENDSEC
  0
SECTION
  2
TABLES
  0
TABLE
  2
LTYPE
 70
     9
  0
LTYPE
  2
CONTINUOUS
 70
    64
  3
実線
 72
    65
 73
     0
 40
0.0
  0
LTYPE
  2
DASHED1
 70
    64
  3
--  --  --  --  --  --  --  --  
 72
    65
 73
     2
 40
2.5
 49
1.25
 49
-1.25
  0
LTYPE
  2
DASHED2
 70
    64
  3
----    ----    ----    ----    
 72
    65
 73
     2
 40
5.0
 49
2.5
 49
-2.5
  0
LTYPE
  2
DASHED3
 70
    64
  3
------  ------  ------  ------  
 72
    65
 73
     2
 40
5.0
 49
3.75
 49
-1.25
  0
LTYPE
  2
CENTER1
 70
    64
  3
----- - ----- - ----- - ----- - 
 72
    65
 73
     4
 40
10.0
 49
6.25
 49
-1.25
 49
1.25
 49
-1.25
  0
LTYPE
  2
CENTER2
 70
    64
  3
----------  --  ----------  --  
 72
    65
 73
     4
 40
20.0
 49
12.5
 49
-2.5
 49
2.5
 49
-2.5
  0
LTYPE
  2
PHANTOM1
 70
    64
  3
--- - - --- - - --- - - --- - - 
 72
    65
 73
     6
 40
10.0
 49
3.25
 49
-1.25
 49
1.25
 49
-1.25
 49
1.25
 49
-1.25
  0
LTYPE
  2
PHANTOM2
 70
    64
  3
--------  -  -  --------  -  -  
 72
    65
 73
     6
 40
20.0
 49
10.0
 49
-2.5
 49
1.25
 49
-2.5
 49
1.25
 49
-2.5
  0
LTYPE
  2
DOT
 70
    64
  3
-   -   -   -   -   -   -   -   
 72
    65
 73
     2
 40
2.5
 49
0.625
 49
-1.875
  0
LTYPE
  2
DUMMY
 70
    64
  3
ダミー
 72
    65
 73
     0
 40
0.0
  0
LTYPE
  2
RAND1
 70
    64
  3
ランダム線1
 72
    65
 73
     4
 40
10.0
 49
1.0
 49
-2.0
 49
3.0
 49
-4.0
  0
LTYPE
  2
RAND2
 70
    64
  3
ランダム線2
 72
    65
 73
     4
 40
14.0
 49
2.0
 49
-3.0
 49
4.0
 49
-5.0
  0
LTYPE
  2
RAND3
 70
    64
  3
ランダム線3
 72
    65
 73
     4
 40
18.0
 49
3.0
 49
-4.0
 49
5.0
 49
-6.0
  0
LTYPE
  2
RAND4
 70
    64
  3
ランダム線4
 72
    65
 73
     4
 40
22.0
 49
4.0
 49
-5.0
 49
6.0
 49
-7.0
  0
LTYPE
  2
RAND5
 70
    64
  3
ランダム線5
 72
    65
 73
     4
 40
26.0
 49
5.0
 49
-6.0
 49
7.0
 49
-8.0
  0
LTYPE
  2
LONG1
 70
    64
  3
----------  --  ----------  --  
 72
    65
 73
     4
 40
40.0
 49
32.5
 49
-2.5
 49
2.5
 49
-2.5
  0
LTYPE
  2
LONG2
 70
    64
  3
--------  -  -  --------  -  -  
 72
    65
 73
     6
 40
40.0
 49
30.0
 49
-2.5
 49
1.25
 49
-2.5
 49
1.25
 49
-2.5
  0
LTYPE
  2
LONG3
 70
    64
  3
+++++++++++++++..+++++++++++++++
 72
    65
 73
     2
 40
40.0
 49
37.5
 49
-2.5
  0
LTYPE
  2
LONG4
 70
    64
  3
+++++++++++++++..+++++++++++++++
 72
    65
 73
     2
 40
80.0
 49
75.0
 49
-5.0
  0
LTYPE
  2
LONG5
 70
    64
  3
----------  --  ----------  --  
 72
    65
 73
     4
 40
60.0
 49
37.5
 49
-7.5
 49
7.5
 49
-7.5
  0
LTYPE
  2
dashed
 70
   64
  3
-------   -------------   ------
 72
   65
 73
    2
 40
7.5
 49
6
 49
-1.5
  0
LTYPE
  2
dashed_spaced
 70
   64
  3
----        --------        ----
 72
   65
 73
    2
 40
12
 49
6
 49
-6
  0
LTYPE
  2
long_dashed_dotted
 70
   64
  3
------------- --- --------------
 72
   65
 73
    4
 40
15.25
 49
12
 49
-1.5
 49
0.25
 49
-1.5
  0
LTYPE
  2
long_dashed_double-dotted
 70
   64
  3
----------- --- --- ------------
 72
   65
 73
    6
 40
17
 49
12
 49
-1.5
 49
0.25
 49
-1.5
 49
0.25
 49
-1.5
  0
LTYPE
  2
long_dashed_triplicate-dotted
 70
   64
  3
--------- --- --- --- ----------
 72
   65
 73
    8
 40
18.75
 49
12
 49
-1.5
 49
0.25
 49
-1.5
 49
0.25
 49
-1.5
 49
0.25
 49
-1.5
  0
LTYPE
  2
dotted
 70
   64
  3
   -       -       -       -    
 72
   65
 73
    2
 40
1.75
 49
0.25
 49
-1.5
  0
LTYPE
  2
chain
 70
   64
  3
-------------- -- --------------
 72
   65
 73
    4
 40
18.5
 49
12
 49
-1.5
 49
3.5
 49
-1.5
  0
LTYPE
  2
chain_double_dash
 70
   64
  3
------------ -- -- -------------
 72
   65
 73
    6
 40
23.5
 49
12
 49
-1.5
 49
3.5
 49
-1.5
 49
3.5
 49
-1.5
  0
LTYPE
  2
dashed_dotted
 70
   64
  3
-----------     -     ----------
 72
   65
 73
    4
 40
9.25
 49
6
 49
-1.5
 49
0.25
 49
-1.5
  0
LTYPE
  2
double-dashed_dotted
 70
   64
  3
------   -----------   -   -----
 72
   65
 73
    6
 40
16.75
 49
6
 49
-1.5
 49
6
 49
-1.5
 49
0.25
 49
-1.5
  0
LTYPE
  2
dashed_double-dotted
 70
   64
  3
---------    -    -    ---------
 72
   65
 73
    6
 40
11
 49
6
 49
-1.5
 49
0.25
 49
-1.5
 49
0.25
 49
-1.5
  0
LTYPE
  2
double-dashed_double-dotted
 70
   64
  3
-----   ---------   -   -   ----
 72
   65
 73
    8
 40
18.5
 49
6
 49
-1.5
 49
6
 49
-1.5
 49
0.25
 49
-1.5
 49
0.25
 49
-1.5
  0
LTYPE
  2
dashed_triplicate-dotted
 70
   64
  3
-------    -    -    -    ------
 72
   65
 73
    8
 40
12.75
 49
6
 49
-1.5
 49
0.25
 49
-1.5
 49
0.25
 49
-1.5
 49
0.25
 49
-1.5
  0
LTYPE
  2
double-dashed_triplicate-dotted
 70
   64
  3
-----  ---------  -  -  -  -----
 72
   65
 73
   10
 40
20.25
 49
6
 49
-1.5
 49
6
 49
-1.5
 49
0.25
 49
-1.5
 49
0.25
 49
-1.5
 49
0.25
 49
-1.5
  0
LTYPE
  2
undefined
 70
   64
  3
--------------------------------
 72
   65
 73
    0
 40
0
  0
ENDTAB
  0
TABLE
  2
STYLE
  5
3
100
AcDbSymbolTable
 70
     1
  0
STYLE
  5
10
100
AcDbSymbolTableRecord
100
AcDbTextStyleTableRecord
  2
STANDARD
 70
     0
 40
0.0
 41
1.0
 50
0.0
 71
     0
 42
0.2
  3
txt
  4
bigfont.shx
  0
STYLE
  5
26
100
AcDbSymbolTableRecord
100
AcDbTextStyleTableRecord
  2
TATEGAKI
 70
    68
 40
0.0
 41
1.0
 50
0.0
 71
     0
 42
1.0
  3
txt
  4
bigfont.shx
  0
ENDTAB
  0
TABLE
  2
LAYER
 70
    5
  0
LAYER
  2
_0-1_
 70
   64
 62
    7
  6
CONTINUOUS
  0
LAYER
  2
_1-0_
 70
   64
 62
    7
  6
CONTINUOUS
  0
LAYER
  2
_1-1_
 70
   64
 62
    7
  6
CONTINUOUS
  0
LAYER
  2
_1-3_
 70
   64
 62
    7
  6
CONTINUOUS
  0
LAYER
  2
ADD_LINE
 70
   64
 62
    7
  6
CONTINUOUS
  0
ENDTAB
  0
ENDSEC
  0
SECTION
  2
BLOCKS
  0
ENDSEC
  0
SECTION
  2
ENTITIES
  0
ARC
  8
_1-1_
  6
CONTINUOUS
 62
    7
 10
107.71562562075277
 20
147.66939285405522
 40
20.129313082308382
 50
109.03541521344917
 51
121.81558227539062
  0
LINE
  8
_1-1_
  6
CONTINUOUS
 62
    7
 10
102.48967351140203
 20
153.84948318069047
 11
100.68059148015203
 21
153.23740366342906
  0
LINE
  8
_0-1_
  6
CONTINUOUS
 62
    7
 10
213.43723606418919
 20
25.680405900285052
 11
213.43723606418919
 21
11.080383094581407
  0
LINE
  8
ADD_LINE
  6
DOT
 62
    7
 10
125.8372415078653
 20
22.837599161508919
 11
205.20021180848818
 21
22.837599161508919
  0
LINE
  8
_0-1_
  6
CONTINUOUS
 62
    7
 10
7.5772530323750402
 20
25.680405900285052
 11
412.72727347709042
 21
25.680405900285052
  0
LINE
  8
_0-1_
  6
CONTINUOUS
 62
    5
 10
7.5772530323750402
 20
293.59039306640625
 11
412.72727347709042
 21
293.59039306640625
  0
LINE
  8
_0-1_
  6
CONTINUOUS
 62
    5
 10
7.5772530323750402
 20
8.8904053456074621
 11
412.72727347709042
 21
8.8904053456074621
  0
LINE
  8
_0-1_
  6
CONTINUOUS
 62
    7
 10
412.72727347709042
 20
25.680405900285052
 11
412.72727347709042
 21
11.080383094581407
  0
LINE
  8
_0-1_
  6
CONTINUOUS
 62
    7
 10
7.5772530323750402
 20
14.83471019847974
 11
7.5772530323750402
 21
11.080383094581407
  0
LINE
  8
_0-1_
  6
CONTINUOUS
 62
    7
 10
7.5772530323750402
 20
25.680405900285052
 11
7.5772530323750402
 21
19.857313310777812
  0
LINE
  8
_0-1_
  6
CONTINUOUS
 62
    7
 10
7.5772530323750402
 20
19.857313310777812
 11
7.5772530323750402
 21
19.500178775271849
  0
LINE
  8
_0-1_
  6
CONTINUOUS
 62
    7
 10
7.5772530323750402
 20
19.857313310777812
 11
7.5772530323750402
 21
14.83471019847974
  0
LINE
  8
_0-1_
  6
CONTINUOUS
 62
    7
 10
7.5772530323750402
 20
11.080383094581407
 11
412.72727347709042
 21
11.080383094581407
  0
LINE
  8
_0-1_
  6
CONTINUOUS
 62
    7
 10
407.77127652554901
 20
21.534768181878164
 11
399.98847755225933
 21
13.751918174125052
  0
LINE
  8
_0-1_
  6
CONTINUOUS
 62
    7
 10
412.72727347709042
 20
11.080383094581407
 11
412.72727347709042
 21
25.680405900285052
  0
LINE
  8
_0-1_
  6
CONTINUOUS
 62
    7
 10
290.08723903346709
 20
25.680405900285052
 11
290.08723903346709
 21
19.020202739818671
  0
LINE
  8
_0-1_
  6
CONTINUOUS
 62
    7
 10
290.08723903346709
 20
19.020202739818671
 11
290.08723903346709
 21
11.080383094581407
  0
LINE
  8
_0-1_
  6
CONTINUOUS
 62
    7
 10
213.43723606418919
 20
18.380405322925469
 11
288.84424982844172
 21
18.380405322925469
  0
LINE
  8
_0-1_
  6
CONTINUOUS
 62
    7
 10
306.87721871040964
 20
25.680405900285052
 11
306.87721871040964
 21
19.857313310777812
  0
LINE
  8
_0-1_
  6
CONTINUOUS
 62
    7
 10
306.87721871040964
 20
19.857313310777812
 11
306.87721871040964
 21
11.080383094581407
  0
LINE
  8
_0-1_
  6
CONTINUOUS
 62
    7
 10
213.43723606418919
 20
18.380405322925469
 11
290.08723903346709
 21
18.380405322925469
  0
LINE
  8
_0-1_
  6
CONTINUOUS
 62
    7
 10
394.47725038270693
 20
25.680405900285052
 11
394.47725038270693
 21
11.080383094581407
  0
LINE
  8
ADD_LINE
  6
DOT
 62
    7
 10
18.655595521669142
 20
22.837599161508919
 11
48.897418460330442
 21
22.837599161508919
  0
LINE
  8
ADD_LINE
  6
DOT
 62
    7
 10
48.897418460330442
 20
22.837599161508919
 11
127.16582014754013
 21
22.837599161508919
  0
LINE
  8
ADD_LINE
  6
DOT
 62
    7
 10
205.20021180848818
 20
22.837599161508919
 11
328.84752428209464
 21
22.837599161508919
  0
LINE
  8
_0-1_
  6
CONTINUOUS
 62
    7
 10
263.07722761824328
 20
18.380405322925469
 11
263.07722761824328
 21
11.080383094581407
  0
LINE
  8
ADD_LINE
  6
DOT
 62
    7
 10
214.60807181693414
 20
15.584670917407891
 11
273.05273932379646
 21
15.584670917407891
  0
LINE
  8
ADD_LINE
  6
DOT
 62
    7
 10
328.84752428209464
 20
22.837599161508919
 11
403.85074099978885
 21
22.837599161508919
  0
LINE
  8
_0-1_
  6
CONTINUOUS
 62
    4
 10
18.118833593420078
 20
22.111630826383021
 11
213.43723606418919
 21
22.111630826383021
  0
LINE
  8
_0-1_
  6
CONTINUOUS
 62
    4
 10
18.118833593420078
 20
18.46162899120435
 11
213.43723606418919
 21
18.46162899120435
  0
LINE
  8
_0-1_
  6
CONTINUOUS
 62
    4
 10
18.118833593420078
 20
14.811651900007917
 11
213.43723606418919
 21
14.811651900007917
  0
LINE
  8
ADD_LINE
  6
DOT
 62
    4
 10
311.24967832823057
 20
19.812034916233358
 11
345.00828923405828
 21
19.812034916233358
  0
LINE
  8
_1-0_
  6
CONTINUOUS
 62
    7
 10
196.26570418074326
 20
187.39613713444891
 11
195.03461683118667
 21
190.13190604544977
  0
LINE
  8
_1-0_
  6
CONTINUOUS
 62
    7
 10
195.03461683118667
 20
190.13190604544977
 11
199.41185203758448
 21
192.10165075353675
  0
LINE
  8
_1-0_
  6
CONTINUOUS
 62
    7
 10
199.41185203758448
 20
192.10165075353675
 11
200.64293938714107
 21
189.36588184253591
  0
LINE
  8
_1-0_
  6
CONTINUOUS
 62
    7
 10
200.64293938714107
 20
189.36588184253591
 11
196.26570418074326
 21
187.39613713444891
  0
LINE
  8
_1-0_
  6
CONTINUOUS
 62
    7
 10
196.26570418074326
 20
187.39613713444891
 11
199.41185203758448
 21
192.10165075353675
  0
LINE
  8
_1-0_
  6
CONTINUOUS
 62
    7
 10
61.684131106814817
 20
159.17588517472552
 11
58.050638147302578
 21
159.17588517472552
  0
LINE
  8
_1-0_
  6
CONTINUOUS
 62
    7
 10
220.46722412109375
 20
187.39613713444891
 11
221.6983362146326
 21
190.13190604544977
  0
LINE
  8
_1-0_
  6
CONTINUOUS
 62
    7
 10
221.6983362146326
 20
190.13190604544977
 11
217.32107626425255
 21
192.10165075353675
  0
LINE
  8
_1-0_
  6
CONTINUOUS
 62
    7
 10
217.32107626425255
 20
192.10165075353675
 11
216.09001365867823
 21
189.36588184253591
  0
LINE
  8
_1-0_
  6
CONTINUOUS
 62
    7
 10
216.09001365867823
 20
189.36588184253591
 11
220.46722412109375
 21
187.39613713444891
  0
LINE
  8
_1-0_
  6
CONTINUOUS
 62
    7
 10
220.46722412109375
 20
187.39613713444891
 11
217.32107626425255
 21
192.10165075353675
  0
LINE
  8
_1-0_
  6
CONTINUOUS
 62
    7
 10
26.197350991738801
 20
106.25967902106208
 11
208.36647652290964
 21
188.23579942857899
  0
LINE
  8
_1-0_
  6
CONTINUOUS
 62
    7
 10
390.53558349609375
 20
106.25967902106208
 11
208.36647652290964
 21
188.23579942857899
  0
LINE
  8
_1-0_
  6
CONTINUOUS
 62
    7
 10
26.197350991738801
 20
108.89148609058277
 11
208.36645177892737
 21
190.86759412610854
  0
LINE
  8
_1-0_
  6
CONTINUOUS
 62
    7
 10
390.53558349609375
 20
108.89148609058277
 11
208.36645177892737
 21
190.86759412610854
  0
LINE
  8
_1-0_
  6
DASHED1
 62
    3
 10
26.197350991738801
 20
109.54944095096073
 11
208.36647652290964
 21
191.52556135847763
  0
LINE
  8
_1-0_
  6
DASHED1
 62
    3
 10
390.53558349609375
 20
109.54944095096073
 11
208.36647652290964
 21
191.52556135847763
  0
LINE
  8
_1-0_
  6
CONTINUOUS
 62
    7
 10
26.197350991738801
 20
93.100656045449753
 11
208.36647652290964
 21
175.07677645296664
  0
LINE
  8
_1-0_
  6
CONTINUOUS
 62
    7
 10
390.53558349609375
 20
93.100656045449753
 11
208.36647652290964
 21
175.07677645296664
  0
LINE
  8
_1-0_
  6
CONTINUOUS
 62
    7
 10
221.6983362146326
 20
190.13190604544977
 11
217.32107626425255
 21
192.10165075353675
  0
LINE
  8
_1-0_
  6
CONTINUOUS
 62
    7
 10
217.32107626425255
 20
192.10165075353675
 11
216.09001365867823
 21
189.36588184253591
  0
LINE
  8
_1-0_
  6
CONTINUOUS
 62
    7
 10
196.36646167652029
 20
151.07677150417018
 11
220.36646662531675
 21
151.07677150417018
  0
LINE
  8
_1-0_
  6
CONTINUOUS
 62
    7
 10
196.36646167652029
 20
169.67677348368878
 11
196.36646167652029
 21
151.07677150417018
  0
LINE
  8
_1-0_
  6
CONTINUOUS
 62
    7
 10
220.36646662531675
 20
169.67677348368878
 11
220.36646662531675
 21
151.07677150417018
  0
LINE
  8
_1-0_
  6
CONTINUOUS
 62
    7
 10
196.36646167652029
 20
169.67677348368878
 11
220.36646662531675
 21
151.07677150417018
  0
LINE
  8
_1-0_
  6
CONTINUOUS
 62
    7
 10
220.36646662531675
 20
169.67677348368878
 11
196.36646167652029
 21
151.07677150417018
  0
LINE
  8
_1-0_
  6
CONTINUOUS
 62
    7
 10
390.53558349609375
 20
110.86535067171664
 11
222.36647322371201
 21
186.5414552430849
  0
LINE
  8
_1-0_
  6
CONTINUOUS
 62
    7
 10
390.53558349609375
 20
110.20738343934755
 11
222.36647322371201
 21
185.88347563872466
  0
LINE
  8
_1-0_
  6
CONTINUOUS
 62
    7
 10
208.36647652290964
 20
192.18347910288219
 11
208.36645177892737
 21
192.18347910288219
  0
LINE
  8
_1-0_
  6
CONTINUOUS
 62
    2
 10
222.36647322371201
 20
185.88347563872466
 11
208.36645177892737
 21
192.18347910288219
  0
LINE
  8
_1-0_
  6
CONTINUOUS
 62
    2
 10
222.36647322371201
 20
186.5414552430849
 11
222.36647322371201
 21
185.88347563872466
  0
LINE
  8
_1-0_
  6
CONTINUOUS
 62
    7
 10
26.197350991738801
 20
110.86533829972551
 11
194.366455078125
 21
186.5414552430849
  0
LINE
  8
_1-0_
  6
CONTINUOUS
 62
    7
 10
26.197350991738801
 20
110.20738343934755
 11
194.366455078125
 21
185.88348801071581
  0
LINE
  8
_1-0_
  6
CONTINUOUS
 62
    2
 10
194.36646745011615
 20
185.88348801071581
 11
208.36647652290964
 21
192.18349147487334
  0
LINE
  8
_1-0_
  6
CONTINUOUS
 62
    2
 10
194.36646745011615
 20
186.5414552430849
 11
194.36646745011615
 21
185.88348801071581
  0
LINE
  8
_1-0_
  6
CONTINUOUS
 62
    7
 10
190.76927391258448
 20
259.85650139885979
 11
186.76927308778505
 21
259.85650139885979
  0
LINE
  8
_1-0_
  6
CONTINUOUS
 62
    7
 10
191.32827758789063
 20
244.13313582136826
 11
187.32827676309122
 21
244.13313582136826
  0
LINE
  8
_1-0_
  6
CONTINUOUS
 62
    7
 10
191.89674583641261
 20
232.50348890149917
 11
187.89674501161318
 21
232.50348890149917
  0
LINE
  8
_1-0_
  6
CONTINUOUS
 62
    7
 10
231.0146187447213
 20
242.642162426098
 11
235.01460719752959
 21
242.642162426098
  0
LINE
  8
_1-0_
  6
CONTINUOUS
 62
    7
 10
234.27441571209883
 20
219.92708773226352
 11
238.27440416490711
 21
219.92708773226352
  0
LINE
  8
_1-0_
  6
CONTINUOUS
 62
    7
 10
178.36646415091852
 20
134.01990323453336
 11
238.36652601087417
 21
134.01990323453336
  0
LINE
  8
_1-0_
  6
CONTINUOUS
 62
    7
 10
178.36646415091852
 20
155.13542793892526
 11
178.36646415091852
 21
134.01990323453336
  0
LINE
  8
_1-0_
  6
CONTINUOUS
 62
    7
 10
238.36652601087417
 20
155.13542793892526
 11
238.36652601087417
 21
134.01990323453336
  0
LINE
  8
_1-0_
  6
CONTINUOUS
 62
    7
 10
69.17032396471177
 20
138.60770972999367
 11
61.684131106814817
 21
159.17588517472552
  0
LINE
  8
ADD_LINE
  6
DOT
 62
    7
 10
45.933868820602839
 20
162.01400756835937
 11
45.933868820602839
 21
151.2480740933805
  0
LINE
  8
ADD_LINE
  6
DOT
 62
    4
 10
156.18672551335516
 20
172.65048052813557
 11
157.41781286291175
 21
169.91471161713471
  0
LINE
  8
ADD_LINE
  6
DOT
 62
    4
 10
112.96159898912585
 20
153.19931030273437
 11
114.19268633868244
 21
150.46354139173354
  0
LINE
  8
ADD_LINE
  6
DOT
 62
    4
 10
152.34396032384925
 20
181.19001233899917
 11
159.59742365656672
 21
165.07110183303422
  0
LINE
  8
ADD_LINE
  6
DOT
 62
    4
 10
109.11883379961994
 20
161.73884211359797
 11
116.37228476034629
 21
145.61993160763302
  0
LINE
  8
ADD_LINE
  6
DOT
 62
    4
 10
65.893701089395051
 20
142.2876718881968
 11
73.147158236116979
 21
126.16876138223185
  0
LINE
  8
ADD_LINE
  6
DOT
 62
    4
 10
22.668573018666848
 20
122.83648929080448
 11
29.922028618889897
 21
106.71759115683066
  0
LINE
  8
_1-0_
  6
CONTINUOUS
 62
    7
 10
153.04057765651393
 20
167.94496690904774
 11
151.80949030695734
 21
170.68073582004857
  0
LINE
  8
_1-0_
  6
CONTINUOUS
 62
    7
 10
151.80949030695734
 20
170.68073582004857
 11
156.18672551335516
 21
172.65048052813557
  0
LINE
  8
_1-0_
  6
CONTINUOUS
 62
    7
 10
156.18672551335516
 20
172.65048052813557
 11
157.41781286291175
 21
169.91471161713471
  0
LINE
  8
_1-0_
  6
CONTINUOUS
 62
    7
 10
157.41781286291175
 20
169.91471161713471
 11
153.04057765651393
 21
167.94496690904774
  0
LINE
  8
_1-0_
  6
CONTINUOUS
 62
    7
 10
153.04057765651393
 20
167.94496690904774
 11
156.18672551335516
 21
172.65048052813557
  0
LINE
  8
_1-0_
  6
CONTINUOUS
 62
    7
 10
109.81545113228464
 20
148.49379668364654
 11
108.58436378272805
 21
151.2295655946474
  0
LINE
  8
_1-0_
  6
CONTINUOUS
 62
    7
 10
108.58436378272805
 20
151.2295655946474
 11
112.96159898912585
 21
153.19931030273437
  0
LINE
  8
_1-0_
  6
CONTINUOUS
 62
    7
 10
112.96159898912585
 20
153.19931030273437
 11
114.19268633868244
 21
150.46354139173354
  0
LINE
  8
_1-0_
  6
CONTINUOUS
 62
    7
 10
114.19268633868244
 20
150.46354139173354
 11
109.81545113228464
 21
148.49379668364654
  0
LINE
  8
_1-0_
  6
CONTINUOUS
 62
    7
 10
109.81545113228464
 20
148.49379668364654
 11
112.96159898912585
 21
153.19931030273437
  0
LINE
  8
_1-0_
  6
CONTINUOUS
 62
    7
 10
66.59047925794448
 20
129.04226767050255
 11
65.359391908387863
 21
131.77803658150339
  0
LINE
  8
_1-0_
  6
CONTINUOUS
 62
    7
 10
65.359391908387863
 20
131.77803658150339
 11
69.736627114785676
 21
133.74778128959039
  0
LINE
  8
_1-0_
  6
CONTINUOUS
 62
    7
 10
69.736627114785676
 20
133.74778128959039
 11
70.967714464342293
 21
131.01201237858953
  0
LINE
  8
_1-0_
  6
CONTINUOUS
 62
    7
 10
70.967714464342293
 20
131.01201237858953
 11
66.59047925794448
 21
129.04226767050255
  0
LINE
  8
_1-0_
  6
CONTINUOUS
 62
    7
 10
66.59047925794448
 20
129.04226767050255
 11
69.736627114785676
 21
133.74778128959039
  0
LINE
  8
_1-0_
  6
CONTINUOUS
 62
    7
 10
23.365400675180808
 20
109.59097372519004
 11
22.13431332562422
 21
112.32674263619089
  0
LINE
  8
_1-0_
  6
CONTINUOUS
 62
    7
 10
22.13431332562422
 20
112.32674263619089
 11
26.511546985523125
 21
114.29648734427788
  0
LINE
  8
_1-0_
  6
CONTINUOUS
 62
    7
 10
26.511546985523125
 20
114.29648734427788
 11
27.742634335079714
 21
111.56071843327703
  0
LINE
  8
_1-0_
  6
CONTINUOUS
 62
    7
 10
27.742634335079714
 20
111.56071843327703
 11
23.365400675180808
 21
109.59097372519004
  0
LINE
  8
_1-0_
  6
CONTINUOUS
 62
    7
 10
23.365400675180808
 20
109.59097372519004
 11
26.511546985523125
 21
114.29648734427788
  0
LINE
  8
_1-1_
  6
CONTINUOUS
 62
    7
 10
111.46422927444046
 20
150.94592532596073
 11
140.68964365366344
 21
70.649754292256134
  0
LINE
  8
_1-0_
  6
CONTINUOUS
 62
    7
 10
140.68964365366344
 20
70.649754292256134
 11
146.77770253774284
 21
70.649754292256134
  0
LINE
  8
_1-0_
  6
CONTINUOUS
 62
    7
 10
130.4984881426837
 20
98.64974769386086
 11
146.77770253774284
 21
98.64974769386086
  0
LINE
  8
_1-0_
  6
CONTINUOUS
 62
    7
 10
133.04627702042865
 20
91.649749343459675
 11
146.77770253774284
 21
91.649749343459675
  0
LINE
  8
_1-0_
  6
CONTINUOUS
 62
    7
 10
135.59406589817357
 20
84.64975099305849
 11
146.77770253774284
 21
84.64975099305849
  0
LINE
  8
_1-0_
  6
CONTINUOUS
 62
    7
 10
138.14185477591852
 20
77.649752642657305
 11
146.77770253774284
 21
77.649752642657305
  0
LINE
  8
ADD_LINE
  6
DOT
 62
    4
 10
148.05393528293919
 20
190.7235099173881
 11
161.64625013196792
 21
160.51811012061867
  0
LINE
  8
ADD_LINE
  6
DOT
 62
    4
 10
104.82879638671875
 20
171.27233969198693
 11
118.42112360773861
 21
141.0669398952175
  0
LINE
  8
ADD_LINE
  6
DOT
 62
    4
 10
61.603669862489454
 20
151.82116946658573
 11
75.195997083509297
 21
121.6157696698163
  0
LINE
  8
ADD_LINE
  6
DOT
 62
    4
 10
18.378527873271224
 20
132.36998686919341
 11
31.970861280286641
 21
102.16459325841956
  0
LINE
  8
_1-1_
  6
CONTINUOUS
 62
    7
 10
19.672836097511095
 20
116.21282216664908
 11
20.419906410011095
 21
115.81046027106208
  0
LINE
  8
_1-1_
  6
CONTINUOUS
 62
    7
 10
27.527244155471379
 20
118.56830081424198
 11
26.37782431937552
 21
118.2236047693201
  0
LINE
  8
_1-1_
  6
CONTINUOUS
 62
    7
 10
19.672836097511095
 20
116.21282216664908
 11
18.714984172099349
 21
115.92556927655195
  0
LINE
  8
_1-1_
  6
CONTINUOUS
 62
    7
 10
26.37782431937552
 20
118.2236047693201
 11
26.550166155840913
 21
117.64888866527662
  0
LINE
  8
_1-1_
  6
CONTINUOUS
 62
    7
 10
18.714984172099349
 20
115.92556927655195
 11
18.88733838055586
 21
115.35085317250845
  0
LINE
  8
_1-1_
  6
CONTINUOUS
 62
    7
 10
26.550166155840913
 20
117.64888866527662
 11
20.419906410011095
 21
115.81046027106208
  0
LINE
  8
_1-1_
  6
CONTINUOUS
 62
    7
 10
27.527244155471379
 20
118.56830081424198
 11
29.193318341229428
 21
113.01274480046453
  0
LINE
  8
_1-1_
  6
CONTINUOUS
 62
    7
 10
27.315212971455338
 20
112.78522388355152
 11
26.511528427536433
 21
114.29649971626901
  0
LINE
  8
_1-1_
  6
CONTINUOUS
 62
    7
 10
27.783282511943099
 20
112.58988251557221
 11
29.193318341229428
 21
113.01274480046453
  0
LINE
  8
ADD_LINE
  6
DOT
 62
    4
 10
69.736620928790103
 20
133.74778128959039
 11
11.731478459126237
 21
114.12275984480576
  0
LINE
  8
_1-1_
  6
CONTINUOUS
 62
    7
 10
71.820571487014377
 20
134.45284869219807
 11
17.448240744101042
 21
116.05693507838895
  0
LINE
  8
_1-1_
  6
CONTINUOUS
 62
    7
 10
62.835252091691302
 20
135.42442115577492
 11
63.595894478462839
 21
135.04836211333404
  0
LINE
  8
_1-1_
  6
CONTINUOUS
 62
    7
 10
70.60272216796875
 20
138.05241765202703
 11
69.466020738756356
 21
137.66783430769638
  0
LINE
  8
_1-1_
  6
CONTINUOUS
 62
    7
 10
62.835252091691302
 20
135.42442115577492
 11
61.888002962679479
 21
135.10393709749789
  0
LINE
  8
_1-1_
  6
CONTINUOUS
 62
    7
 10
69.466020738756356
 20
137.66783430769638
 11
69.65831859691724
 21
137.09947740709461
  0
LINE
  8
_1-1_
  6
CONTINUOUS
 62
    7
 10
61.888002962679479
 20
135.10393709749789
 11
62.080288448849245
 21
134.53559256888727
  0
LINE
  8
_1-1_
  6
CONTINUOUS
 62
    7
 10
62.080288448849245
 20
134.53559256888727
 11
17.748843012629322
 21
119.5368173960093
  0
LINE
  8
_1-1_
  6
CONTINUOUS
 62
    7
 10
69.65831859691724
 20
137.09947740709461
 11
63.595894478462839
 21
135.04836211333404
  0
LINE
  8
_1-1_
  6
CONTINUOUS
 62
    7
 10
70.60272216796875
 20
138.05241765202703
 11
72.46155197555953
 21
132.55835043417443
  0
LINE
  8
_1-1_
  6
CONTINUOUS
 62
    7
 10
70.592515275285052
 20
132.2654559161212
 11
69.736620928790103
 21
133.74778128959039
  0
LINE
  8
_1-1_
  6
CONTINUOUS
 62
    7
 10
71.067117227090364
 20
132.08656929634714
 11
72.46155197555953
 21
132.55835043417443
  0
LINE
  8
_1-1_
  6
CONTINUOUS
 62
    7
 10
16.039503973883541
 20
114.94689529006546
 11
14.230421942633541
 21
114.3348281447952
  0
LINE
  8
_1-1_
  6
CONTINUOUS
 62
    7
 10
115.04566089527027
 20
153.90414263751057
 11
60.673320873363593
 21
135.50821665171031
  0
LINE
  8
_1-1_
  6
CONTINUOUS
 62
    7
 10
106.06032912795608
 20
154.87571510108742
 11
106.82098388671875
 21
154.49965605864654
  0
LINE
  8
_1-1_
  6
CONTINUOUS
 62
    7
 10
113.82781157622466
 20
157.50369922534841
 11
112.69109777502112
 21
157.11911588101773
  0
LINE
  8
_1-1_
  6
CONTINUOUS
 62
    7
 10
106.06032912795608
 20
154.87571510108742
 11
105.11307999894426
 21
154.55521867081927
  0
LINE
  8
_1-1_
  6
CONTINUOUS
 62
    7
 10
112.69109777502112
 20
157.11911588101773
 11
112.88338326119089
 21
156.55075898041596
  0
LINE
  8
_1-1_
  6
CONTINUOUS
 62
    7
 10
105.11307999894426
 20
154.55521867081927
 11
105.30536548511402
 21
153.98687414220862
  0
LINE
  8
_1-1_
  6
CONTINUOUS
 62
    7
 10
105.30536548511402
 20
153.98687414220862
 11
60.973923141891902
 21
138.9881113413218
  0
LINE
  8
_1-1_
  6
CONTINUOUS
 62
    7
 10
112.88338326119089
 20
156.55075898041596
 11
106.82098388671875
 21
154.49965605864654
  0
LINE
  8
_1-1_
  6
CONTINUOUS
 62
    7
 10
113.82781157622466
 20
157.50369922534841
 11
115.68662901182434
 21
152.00963200749578
  0
LINE
  8
_1-1_
  6
CONTINUOUS
 62
    7
 10
113.81759231154983
 20
151.71673748944258
 11
112.96169796505491
 21
153.19906286291175
  0
LINE
  8
_1-1_
  6
CONTINUOUS
 62
    7
 10
114.29220663534629
 20
151.53785086966852
 11
115.68662901182434
 21
152.00963200749578
  0
LINE
  8
_1-1_
  6
CONTINUOUS
 62
    7
 10
59.264596475137239
 20
134.39818923537797
 11
57.45550207189612
 21
133.78610971811656
  0
LINE
  8
_1-1_
  6
CONTINUOUS
 62
    7
 10
158.27072555954393
 20
173.35543658282307
 11
103.89839790962839
 21
154.95951059702281
  0
LINE
  8
_1-1_
  6
CONTINUOUS
 62
    7
 10
149.28541853621201
 20
174.32700904639992
 11
150.0460485509924
 21
173.95095000395904
  0
LINE
  8
_1-1_
  6
CONTINUOUS
 62
    7
 10
157.05287624049831
 20
176.95499317066091
 11
155.91618718327703
 21
176.57040982633023
  0
LINE
  8
_1-1_
  6
CONTINUOUS
 62
    7
 10
149.28541853621201
 20
174.32700904639992
 11
148.33816940720018
 21
174.00652498812289
  0
LINE
  8
_1-1_
  6
CONTINUOUS
 62
    7
 10
155.91618718327703
 20
176.57040982633023
 11
156.1084726694468
 21
176.00206529771961
  0
LINE
  8
_1-1_
  6
CONTINUOUS
 62
    7
 10
148.33816940720018
 20
174.00652498812289
 11
148.53045489336995
 21
173.43816808752112
  0
LINE
  8
_1-1_
  6
CONTINUOUS
 62
    7
 10
148.53045489336995
 20
173.43816808752112
 11
104.19901255014781
 21
158.4394052866343
  0
LINE
  8
_1-1_
  6
CONTINUOUS
 62
    7
 10
156.1084726694468
 20
176.00206529771961
 11
150.0460485509924
 21
173.95095000395904
  0
LINE
  8
_1-1_
  6
CONTINUOUS
 62
    7
 10
157.05287624049831
 20
176.95499317066091
 11
158.91171842008023
 21
171.46092595280828
  0
LINE
  8
_1-1_
  6
CONTINUOUS
 62
    7
 10
157.04268171980576
 20
171.16803143475508
 11
156.18678737331081
 21
172.65036918021539
  0
LINE
  8
_1-1_
  6
CONTINUOUS
 62
    7
 10
157.51727129961995
 20
170.98914481498102
 11
158.91171842008023
 21
171.46092595280828
  0
LINE
  8
_1-1_
  6
CONTINUOUS
 62
    7
 10
201.49581496779984
 20
192.80671815614443
 11
147.1234873178843
 21
174.41080454233531
  0
LINE
  8
_1-1_
  6
CONTINUOUS
 62
    7
 10
192.51048320048565
 20
193.7782906197213
 11
193.27113795924834
 21
193.40223157728042
  0
LINE
  8
_1-1_
  6
CONTINUOUS
 62
    7
 10
200.27796564875425
 20
196.40627474398227
 11
199.14125184755068
 21
196.02170377164273
  0
LINE
  8
_1-1_
  6
CONTINUOUS
 62
    7
 10
199.14125184755068
 20
196.02170377164273
 11
199.33356207770271
 21
195.45335924303211
  0
LINE
  8
_1-1_
  6
CONTINUOUS
 62
    7
 10
191.56323407147383
 20
193.45780656144427
 11
191.75551955764359
 21
192.88946203283362
  0
LINE
  8
_1-1_
  6
CONTINUOUS
 62
    7
 10
191.75551955764359
 20
192.88946203283362
 11
147.42407721442146
 21
177.89068685995568
  0
LINE
  8
_1-1_
  6
CONTINUOUS
 62
    7
 10
199.33356207770271
 20
195.45335924303211
 11
193.27113795924834
 21
193.40223157728042
  0
LINE
  8
_1-1_
  6
CONTINUOUS
 62
    7
 10
200.2677463840794
 20
190.61932538006758
 11
199.41185203758448
 21
192.10166312552789
  0
LINE
  8
_1-1_
  6
CONTINUOUS
 62
    7
 10
200.74236070787586
 20
190.44042638830237
 11
202.13678308435391
 21
190.91221989812078
  0
LINE
  8
_1-1_
  6
CONTINUOUS
 62
    7
 10
145.71476291965794
 20
173.30076475401182
 11
143.90565614442568
 21
172.68869760874156
  0
LINE
  8
_1-1_
  6
CONTINUOUS
 62
    7
 10
26.511621217469923
 20
114.29632650839316
 11
12.630334544826212
 21
109.59984444283151
  0
LINE
  8
_1-1_
  6
CONTINUOUS
 62
    7
 10
18.88733838055586
 20
115.35085317250845
 11
10.509435035086966
 21
112.83838632944469
  0
LINE
  8
_1-1_
  6
CONTINUOUS
 62
    7
 10
192.10474375131969
 20
193.64102337811445
 11
191.56323407147383
 21
193.45780656144427
  0
LINE
  8
_1-1_
  6
CONTINUOUS
 62
    7
 10
192.51048320048565
 20
193.7782906197213
 11
192.1461651776288
 21
193.6550284720756
  0
LINE
  8
_1-1_
  6
CONTINUOUS
 62
    7
 10
192.1461651776288
 20
193.6550284720756
 11
192.10474375131969
 21
193.64102337811445
  0
LINE
  8
ADD_LINE
  6
DOT
 62
    4
 10
208.36645177892737
 20
160.37677249392948
 11
208.36645177892737
 21
273.24210502005911
  0
LINE
  8
_1-0_
  6
CONTINUOUS
 62
    7
 10
263.69231352934969
 20
167.94484318913641
 11
264.92337613492401
 21
170.68061210013727
  0
LINE
  8
_1-0_
  6
CONTINUOUS
 62
    7
 10
264.92337613492401
 20
170.68061210013727
 11
260.54616567250844
 21
172.65035680822425
  0
LINE
  8
_1-0_
  6
CONTINUOUS
 62
    7
 10
260.54616567250844
 20
172.65035680822425
 11
259.31505357896958
 21
169.91458789722341
  0
LINE
  8
_1-0_
  6
CONTINUOUS
 62
    7
 10
259.31505357896958
 20
169.91458789722341
 11
263.69231352934969
 21
167.94484318913641
  0
LINE
  8
_1-0_
  6
CONTINUOUS
 62
    7
 10
263.69231352934969
 20
167.94484318913641
 11
260.54616567250844
 21
172.65035680822425
  0
LINE
  8
_1-0_
  6
CONTINUOUS
 62
    7
 10
306.91750191353464
 20
148.49379668364654
 11
308.14856451910896
 21
151.2295655946474
  0
LINE
  8
_1-0_
  6
CONTINUOUS
 62
    7
 10
308.14856451910896
 20
151.2295655946474
 11
303.77135405669344
 21
153.19931030273437
  0
LINE
  8
_1-0_
  6
CONTINUOUS
 62
    7
 10
303.77135405669344
 20
153.19931030273437
 11
302.54024196315459
 21
150.46354139173354
  0
LINE
  8
_1-0_
  6
CONTINUOUS
 62
    7
 10
302.54024196315459
 20
150.46354139173354
 11
306.91750191353464
 21
148.49379668364654
  0
LINE
  8
_1-0_
  6
CONTINUOUS
 62
    7
 10
306.91750191353464
 20
148.49379668364654
 11
303.77135405669344
 21
153.19931030273437
  0
LINE
  8
_1-0_
  6
CONTINUOUS
 62
    7
 10
350.14246760187922
 20
129.04226767050255
 11
351.37353020745354
 21
131.77803658150339
  0
LINE
  8
_1-0_
  6
CONTINUOUS
 62
    7
 10
351.37353020745354
 20
131.77803658150339
 11
346.99631974503802
 21
133.74778128959039
  0
LINE
  8
_1-0_
  6
CONTINUOUS
 62
    7
 10
346.99631974503802
 20
133.74778128959039
 11
345.76520765149917
 21
131.01201237858953
  0
LINE
  8
_1-0_
  6
CONTINUOUS
 62
    7
 10
345.76520765149917
 20
131.01201237858953
 11
350.14246760187922
 21
129.04226767050255
  0
LINE
  8
_1-0_
  6
CONTINUOUS
 62
    7
 10
350.14246760187922
 20
129.04226767050255
 11
346.99631974503802
 21
133.74778128959039
  0
LINE
  8
_1-0_
  6
CONTINUOUS
 62
    7
 10
393.36755701013516
 20
109.59098609718117
 11
394.59861961570948
 21
112.32675500818202
  0
LINE
  8
_1-0_
  6
CONTINUOUS
 62
    7
 10
394.59861961570948
 20
112.32675500818202
 11
390.22140915329396
 21
114.29649971626901
  0
LINE
  8
_1-0_
  6
CONTINUOUS
 62
    7
 10
390.22140915329396
 20
114.29649971626901
 11
388.99029705975511
 21
111.56073080526816
  0
LINE
  8
_1-0_
  6
CONTINUOUS
 62
    7
 10
388.99029705975511
 20
111.56073080526816
 11
393.36755701013516
 21
109.59098609718117
  0
LINE
  8
_1-0_
  6
CONTINUOUS
 62
    7
 10
393.36755701013516
 20
109.59098609718117
 11
390.22140915329396
 21
114.29649971626901
  0
ARC
  8
_1-1_
  6
CONTINUOUS
 62
    7
 10
27.668371458311356
 20
112.97303070893159
 40
0.4000000051549963
 50
208.00352478027344
 51
286.693603515625
  0
ARC
  8
_1-1_
  6
CONTINUOUS
 62
    7
 10
16.017890105376381
 20
115.15072384396116
 40
0.2000000025774981
 50
288.69233703613281
 51
314.09980773925781
  0
ARC
  8
_1-1_
  6
CONTINUOUS
 62
    7
 10
70.938918654983127
 20
132.46547389674831
 40
0.4000000051549963
 50
210.00225830078122
 51
288.69233703613281
  0
ARC
  8
_1-1_
  6
CONTINUOUS
 62
    7
 10
22.819800505767006
 20
108.13164788323481
 40
9.5741179182722771
 50
124.12844848632812
 51
133.83956909179687
  0
ARC
  8
_1-1_
  6
CONTINUOUS
 62
    7
 10
15.911317773767422
 20
115.32579989046664
 40
0.4000000051549963
 50
288.69233703613281
 51
313.83956909179687
  0
ARC
  8
_1-1_
  6
CONTINUOUS
 62
    7
 10
24.085727382350626
 20
100.43098655906884
 40
20.129313082308382
 50
108.34925842285153
 51
121.81558227539061
  0
ARC
  8
_1-1_
  6
CONTINUOUS
 62
    7
 10
13.684681041820625
 20
117.195950069943
 40
0.4000000051549963
 50
121.8155822753906
 51
198.69233703613278
  0
ARC
  8
_1-1_
  6
CONTINUOUS
 62
    7
 10
59.242970234638932
 20
134.60200541728253
 40
0.2000000025774981
 50
288.69233703613281
 51
314.09980773925781
  0
ARC
  8
_1-1_
  6
CONTINUOUS
 62
    7
 10
114.16400806323902
 20
151.91675547006969
 40
0.4000000051549963
 50
210.00225830078122
 51
288.69233703613281
  0
ARC
  8
_1-1_
  6
CONTINUOUS
 62
    7
 10
66.044893007020676
 20
127.58294182854731
 40
9.5741179182722771
 50
124.12844848632812
 51
133.83956909179687
  0
ARC
  8
_1-1_
  6
CONTINUOUS
 62
    7
 10
59.136397903030002
 20
134.77708146378802
 40
0.4000000051549963
 50
288.69233703613281
 51
313.83956909179687
  0
ARC
  8
_1-1_
  6
CONTINUOUS
 62
    7
 10
67.310807511613177
 20
119.88226813239021
 40
20.129313082308382
 50
108.34925842285153
 51
121.81558227539061
  0
ARC
  8
_1-1_
  6
CONTINUOUS
 62
    7
 10
56.909773543074323
 20
136.64723164326438
 40
0.4000000051549963
 50
121.8155822753906
 51
198.69233703613278
  0
ARC
  8
_1-1_
  6
CONTINUOUS
 62
    7
 10
102.46804727090372
 20
154.05329936259503
 40
0.2000000025774981
 50
288.69233703613281
 51
314.09980773925781
  0
ARC
  8
_1-1_
  6
CONTINUOUS
 62
    7
 10
157.38907272751268
 20
171.36804941538219
 40
0.4000000051549963
 50
210.00225830078122
 51
288.69233703613281
  0
ARC
  8
_1-1_
  6
CONTINUOUS
 62
    7
 10
109.26997004328548
 20
147.03423577385982
 40
9.5741179182722771
 50
124.12844848632812
 51
133.83956909179687
  0
ARC
  8
_1-1_
  6
CONTINUOUS
 62
    7
 10
102.36147493929477
 20
154.22838778109164
 40
0.4000000051549963
 50
288.69233703613281
 51
313.83956909179687
  0
ARC
  8
_1-1_
  6
CONTINUOUS
 62
    7
 10
110.53589691986909
 20
139.33356207770271
 40
20.129313082308382
 50
108.34925842285153
 51
121.81558227539061
  0
ARC
  8
_1-1_
  6
CONTINUOUS
 62
    7
 10
100.13486295133025
 20
156.09852558857688
 40
0.4000000051549963
 50
121.8155822753906
 51
198.69233703613278
  0
ARC
  8
_1-1_
  6
CONTINUOUS
 62
    7
 10
145.69313667915964
 20
173.50459330790753
 40
0.2000000025774981
 50
288.69233703613281
 51
314.09980773925781
  0
ARC
  8
_1-1_
  6
CONTINUOUS
 62
    7
 10
200.61416213576859
 20
190.81933098870357
 40
0.4000000051549963
 50
210.00225830078122
 51
288.69233703613281
  0
ARC
  8
_1-1_
  6
CONTINUOUS
 62
    7
 10
152.49505945154138
 20
166.48551734718117
 40
9.5741179182722771
 50
124.12844848632812
 51
133.83956909179687
  0
ARC
  8
_1-1_
  6
CONTINUOUS
 62
    7
 10
145.58656434755068
 20
173.67966935441302
 40
0.4000000051549963
 50
288.69233703613281
 51
313.83956909179687
  0
ARC
  8
_1-1_
  6
CONTINUOUS
 62
    7
 10
153.76096158414273
 20
158.78485602301521
 40
20.129313082308382
 50
108.34925842285153
 51
121.81558227539061
  0
ARC
  8
_1-1_
  6
CONTINUOUS
 62
    7
 10
143.35992761560388
 20
175.54981953388938
 40
0.4000000051549963
 50
121.8155822753906
 51
198.69233703613278
  0
TEXT
  8
_1-0_
 62
    7
 10
45.933870264001797
 20
157.4809842496305
 40
3
 41
1
 50
0
  1
桟瓦
  0
TEXT
  8
_0-1_
 62
    7
 10
9.3539285917539701
 20
22.597052084433074
 40
2
 41
1
 50
0
  1
特記
  0
TEXT
  8
_0-1_
 62
    7
 10
213.43607062262458
 20
22.58332845327017
 40
2
 41
1
 50
0
  1
図面名
  0
TEXT
  8
_0-1_
 62
    7
 10
213.76429789775131
 20
15.247170731828021
 40
2
 41
1
 50
0
  1
SCALE
  0
TEXT
  8
_0-1_
 62
    7
 10
263.93103769663219
 20
15.162648381413646
 40
2
 41
1
 50
0
  1
DATE
  0
TEXT
  8
_0-1_
 62
    7
 10
291.17833152977198
 20
22.653281237628008
 40
2
 41
1
 50
0
  1
担当
  0
TEXT
  8
_0-1_
 62
    7
 10
395.47913834855365
 20
22.372781908189921
 40
2.5
 41
1
 50
0
  1
NO
  0
TEXT
  8
_0-1_
 62
    7
 10
310.64144402581292
 20
19.57870689598289
 40
3
 41
1
 50
0
  1
株式会社
  0
TEXT
  8
_0-1_
 62
    3
 10
328.38746106946792
 20
19.490271903373099
 40
5
 41
1
 50
0
  1
神　清
  0
TEXT
  8
_0-1_
 62
    7
 10
223.82205860034838
 20
12.751538302447358
 40
3
 41
1
 50
0
  1
1/5
  0
TEXT
  8
_1-1_
 62
    7
 10
398.33609833588474
 20
17.817802944698855
 40
3
 41
1
 50
0
  1
18
  0
TEXT
  8
_0-1_
 62
    7
 10
223.13368431297511
 20
20.065472061569636
 40
3
 41
1
 50
0
  1
Ｎｏｖｕｍ　棟　1
  0
TEXT
  8
_1-0_
 62
    7
 10
238.69205619193411
 20
240.98515690983953
 40
3
 41
1
 50
0
  1
棟瓦
  0
TEXT
  8
_1-0_
 62
    7
 10
206.4914909568993
 20
134.51990488413219
 40
3
 41
1
 50
0
  1
300
  0
TEXT
  8
_1-0_
 62
    7
 10
187.45443931785792
 20
129.65435955975508
 40
3
 41
1
 50
0
  1
ゴムアス系ルーフィング２重貼り
  0
TEXT
  8
_1-0_
 62
    7
 10
121.44646928117083
 20
258.69561272698479
 40
3
 41
1
 50
0
  1
パッキン付改良ステンレススクリュウ釘
  0
TEXT
  8
_1-0_
 62
    7
 10
159.18357725401182
 20
242.62239198426943
 40
3
 41
1
 50
0
  1
棟桟木　30ｘ30
  0
TEXT
  8
_1-0_
 62
    7
 10
176.30504092654667
 20
231.09162201752534
 40
3
 41
1
 50
0
  1
棟金具
  0
TEXT
  8
_1-0_
 62
    7
 10
167.64590948981208
 20
96.761361199456303
 40
3
 41
1
 50
0
  1
18ｘ24
  0
TEXT
  8
_1-0_
 62
    7
 10
167.64589959221917
 20
81.974233678869297
 40
3
 41
1
 50
0
  1
ゴムアス系ルーフィング
  0
TEXT
  8
_1-0_
 62
    7
 10
167.64590948981208
 20
68.732021434887045
 40
3
 41
1
 50
0
  1
60ｘ60
  0
TEXT
  8
_1-0_
 62
    7
 10
153.26418737463052
 20
96.761361199456303
 40
3
 41
1
 50
0
  1
瓦桟
  0
TEXT
  8
_1-0_
 62
    7
 10
153.26418696223078
 20
89.257451650258659
 40
3
 41
1
 50
0
  1
流し桟
  0
TEXT
  8
_1-0_
 62
    7
 10
153.26418036383552
 20
81.974233678869297
 40
3
 41
1
 50
0
  1
下葺き材
  0
TEXT
  8
_1-0_
 62
    7
 10
153.26418696223078
 20
75.353139928869297
 40
3
 41
1
 50
0
  1
野地板
  0
TEXT
  8
_1-0_
 62
    7
 10
153.26418737463052
 20
68.732021434887045
 40
3
 41
1
 50
0
  1
垂木
  0
TEXT
  8
_1-0_
 62
    7
 10
167.64590742781357
 20
75.353139928869297
 40
3
 41
1
 50
0
  1
耐水合板　ｔ＝12
  0
POINT
  8
_1-0_
 62
    7
 10
178.36646415091852
 20
134.01990323453336
  0
POINT
  8
_1-0_
 62
    7
 10
238.36652601087417
 20
134.01990323453336
  0
LINE
  8
_1-0_
  6
CONTINUOUS
 62
    2
 10
194.36646745011615
 20
186.5414552430849
 11
208.32192021301475
 21
192.82140836898799
  0
LINE
  8
_1-0_
  6
CONTINUOUS
 62
    2
 10
222.36647322371201
 20
186.5414552430849
 11
208.61268316948198
 21
192.73066117220131
  0
CIRCLE
  8
_1-3_
  6
CONTINUOUS
 62
    7
 10
190.10295335627882
 20
193.59815369092132
 40
0.2437848762826462
  0
CIRCLE
  8
_1-3_
  6
CONTINUOUS
 62
    7
 10
189.85916847999616
 20
192.74490662393205
 40
0.2437848762826462
  0
CIRCLE
  8
_1-3_
  6
CONTINUOUS
 62
    7
 10
190.71241554698545
 20
194.02477722441597
 40
0.2437848762826462
  0
TEXT
  8
_1-0_
 62
    7
 10
240.23852786502323
 20
218.56107144742401
 40
3
 41
1
 50
0
  1
モルタル又は　面戸漆喰
  0
TEXT
  8
_0-1_
 62
    7
 10
310.75286205394855
 20
13.37992797026763
 40
3
 41
1
 50
0
  1
〒475－0807　半田市八軒町２８番地
  0
LINE
  8
_1-1_
  6
CONTINUOUS
 62
    7
 10
11.468388658569751
 20
122.49852575125742
 11
7.4392503705616946
 21
121.13533828293581
  0
LINE
  8
_1-1_
  6
CONTINUOUS
 62
    7
 10
10.48474276743147
 20
125.40587218094167
 11
14.230421942633541
 21
114.3348281447952
  0
ARC
  8
_1-1_
  6
CONTINUOUS
 62
    7
 10
10.864409742704282
 20
125.5317808462955
 40
0.4000000051549963
 50
121.8155822753906
 51
198.34702963057637
  0
ARC
  8
_1-1_
  6
CONTINUOUS
 62
    7
 10
21.265456083234284
 20
108.76681733542134
 40
20.129313082308382
 50
109.03541521344917
 51
121.81558227539062
  0
LINE
  8
_1-1_
  6
CONTINUOUS
 62
    7
 10
54.882732084904717
 20
141.39043924895097
 11
14.700229720854594
 21
127.79540235838893
  0
ARC
  8
_1-1_
  6
CONTINUOUS
 62
    7
 10
54.089489871966862
 20
144.98306241961686
 40
0.4000000051549963
 50
121.8155822753906
 51
198.34702963057637
  0
ARC
  8
_1-1_
  6
CONTINUOUS
 62
    7
 10
64.490536212496863
 20
128.21809890874272
 40
20.129313082308382
 50
109.03541521344917
 51
121.81558227539062
  0
ARC
  8
_1-1_
  6
CONTINUOUS
 62
    7
 10
150.94069028502642
 20
167.12068679936772
 40
20.129313082308382
 50
109.03728544772233
 51
121.8155822753906
  0
LINE
  8
_1-1_
  6
CONTINUOUS
 62
    7
 10
140.1599769692229
 20
183.75974164489011
 11
143.90565614442568
 21
172.68869760874156
  0
ARC
  8
_1-1_
  6
CONTINUOUS
 62
    7
 10
140.53964394449642
 20
183.88565031024186
 40
0.4000000051549963
 50
121.8155822753906
 51
198.34702963026194
  0
LINE
  8
_1-1_
  6
CONTINUOUS
 62
    7
 10
96.934315542826795
 20
164.3102616666315
 11
100.68059148015203
 21
153.23740366342906
  0
ARC
  8
_1-1_
  6
CONTINUOUS
 62
    7
 10
97.314579280222773
 20
164.43435636492936
 40
0.4000000051549963
 50
121.8155822753906
 51
198.07349822211202
  0
LINE
  8
_1-1_
  6
CONTINUOUS
 62
    7
 10
141.3328766875903
 20
180.29302070466738
 11
101.15039790537645
 21
166.69798187603737
  0
LINE
  8
_1-1_
  6
CONTINUOUS
 62
    7
 10
98.107822168038155
 20
160.84173119952979
 11
57.925309793525116
 21
147.24668409897788
  0
LINE
  8
_1-1_
  6
CONTINUOUS
 62
    7
 10
53.709838111750543
 20
144.85715890196744
 11
57.45550207189612
 21
133.78610971811656
  0
ARC
  8
_1-1_
  6
CONTINUOUS
 62
    7
 10
309.01727793710199
 20
147.66939285405522
 40
20.129313082308382
 50
58.184417724609368
 51
70.96458478655083
  0
LINE
  8
_1-1_
  6
CONTINUOUS
 62
    7
 10
314.24323004645271
 20
153.84948318069047
 11
316.05231207770271
 21
153.23740366342906
  0
LINE
  8
ADD_LINE
  6
DOT
 62
    4
 10
260.54617804449958
 20
172.65048052813557
 11
259.31509069494302
 21
169.91471161713471
  0
LINE
  8
ADD_LINE
  6
DOT
 62
    4
 10
303.77130456872891
 20
153.19931030273437
 11
302.54021721917229
 21
150.46354139173354
  0
LINE
  8
ADD_LINE
  6
DOT
 62
    4
 10
264.38894323400552
 20
181.19001233899917
 11
257.13547990128802
 21
165.07110183303422
  0
LINE
  8
ADD_LINE
  6
DOT
 62
    4
 10
307.61406975823479
 20
161.73884211359797
 11
300.36061879750844
 21
145.61993160763302
  0
LINE
  8
ADD_LINE
  6
DOT
 62
    4
 10
350.83920246845969
 20
142.2876718881968
 11
343.58574532173776
 21
126.16876138223185
  0
LINE
  8
ADD_LINE
  6
DOT
 62
    4
 10
394.06433053918789
 20
122.83648929080448
 11
386.81087493896484
 21
106.71759115683066
  0
LINE
  8
ADD_LINE
  6
DOT
 62
    4
 10
268.67896827491552
 20
190.7235099173881
 11
255.08665342588682
 21
160.51811012061867
  0
LINE
  8
ADD_LINE
  6
DOT
 62
    4
 10
311.90410717113599
 20
171.27233969198693
 11
298.31177995011615
 21
141.0669398952175
  0
LINE
  8
ADD_LINE
  6
DOT
 62
    4
 10
355.12923369536531
 20
151.82116946658573
 11
341.53690647434541
 21
121.6157696698163
  0
LINE
  8
ADD_LINE
  6
DOT
 62
    4
 10
398.35437568458349
 20
132.36998686919341
 11
384.76204227756807
 21
102.16459325841956
  0
LINE
  8
_1-1_
  6
CONTINUOUS
 62
    7
 10
397.06006746034365
 20
116.21282216664908
 11
396.31299714784365
 21
115.81046027106208
  0
LINE
  8
_1-1_
  6
CONTINUOUS
 62
    7
 10
389.20565940238339
 20
118.56830081424198
 11
390.35507923847922
 21
118.2236047693201
  0
LINE
  8
_1-1_
  6
CONTINUOUS
 62
    7
 10
397.06006746034365
 20
116.21282216664908
 11
398.01791938575536
 21
115.92556927655195
  0
LINE
  8
_1-1_
  6
CONTINUOUS
 62
    7
 10
390.35507923847922
 20
118.2236047693201
 11
390.1827374020138
 21
117.64888866527662
  0
LINE
  8
_1-1_
  6
CONTINUOUS
 62
    7
 10
398.01791938575536
 20
115.92556927655195
 11
397.84556517729891
 21
115.35085317250845
  0
LINE
  8
_1-1_
  6
CONTINUOUS
 62
    7
 10
390.1827374020138
 20
117.64888866527662
 11
396.31299714784365
 21
115.81046027106208
  0
LINE
  8
_1-1_
  6
CONTINUOUS
 62
    7
 10
389.20565940238339
 20
118.56830081424198
 11
387.53958521662531
 21
113.01274480046453
  0
LINE
  8
_1-1_
  6
CONTINUOUS
 62
    7
 10
389.41769058639943
 20
112.78522388355152
 11
390.22137513031828
 21
114.29649971626901
  0
LINE
  8
_1-1_
  6
CONTINUOUS
 62
    7
 10
388.94962104591161
 20
112.58988251557221
 11
387.53958521662531
 21
113.01274480046453
  0
LINE
  8
ADD_LINE
  6
DOT
 62
    4
 10
346.99628262906464
 20
133.74778128959039
 11
405.00142509872853
 21
114.12275984480576
  0
LINE
  8
_1-1_
  6
CONTINUOUS
 62
    7
 10
344.91233207084036
 20
134.45284869219807
 11
399.2846628137537
 21
116.05693507838895
  0
LINE
  8
_1-1_
  6
CONTINUOUS
 62
    7
 10
353.89765146616344
 20
135.42442115577492
 11
353.13700907939187
 21
135.04836211333404
  0
LINE
  8
_1-1_
  6
CONTINUOUS
 62
    7
 10
346.13018138988599
 20
138.05241765202703
 11
347.26688281909838
 21
137.66783430769638
  0
LINE
  8
_1-1_
  6
CONTINUOUS
 62
    7
 10
353.89765146616344
 20
135.42442115577492
 11
354.84490059517526
 21
135.10393709749789
  0
LINE
  8
_1-1_
  6
CONTINUOUS
 62
    7
 10
347.26688281909838
 20
137.66783430769638
 11
347.0745849609375
 21
137.09947740709461
  0
LINE
  8
_1-1_
  6
CONTINUOUS
 62
    7
 10
354.84490059517526
 20
135.10393709749789
 11
354.65261510900552
 21
134.53559256888727
  0
LINE
  8
_1-1_
  6
CONTINUOUS
 62
    7
 10
354.65261510900552
 20
134.53559256888727
 11
398.98406054522542
 21
119.5368173960093
  0
LINE
  8
_1-1_
  6
CONTINUOUS
 62
    7
 10
347.0745849609375
 20
137.09947740709461
 11
353.13700907939187
 21
135.04836211333404
  0
LINE
  8
_1-1_
  6
CONTINUOUS
 62
    7
 10
346.13018138988599
 20
138.05241765202703
 11
344.27135158229521
 21
132.55835043417443
  0
LINE
  8
_1-1_
  6
CONTINUOUS
 62
    7
 10
346.14038828256969
 20
132.2654559161212
 11
346.99628262906464
 21
133.74778128959039
  0
LINE
  8
_1-1_
  6
CONTINUOUS
 62
    7
 10
345.66578633076438
 20
132.08656929634714
 11
344.27135158229521
 21
132.55835043417443
  0
LINE
  8
_1-1_
  6
CONTINUOUS
 62
    7
 10
400.6933995839712
 20
114.94689529006546
 11
402.5024816152212
 21
114.3348281447952
  0
LINE
  8
_1-1_
  6
CONTINUOUS
 62
    7
 10
301.68724266258448
 20
153.90414263751057
 11
356.05958268449115
 21
135.50821665171031
  0
LINE
  8
_1-1_
  6
CONTINUOUS
 62
    7
 10
310.67257442989865
 20
154.87571510108742
 11
309.91191967113599
 21
154.49965605864654
  0
LINE
  8
_1-1_
  6
CONTINUOUS
 62
    7
 10
302.90509198163011
 20
157.50369922534841
 11
304.04180578283365
 21
157.11911588101773
  0
LINE
  8
_1-1_
  6
CONTINUOUS
 62
    7
 10
310.67257442989865
 20
154.87571510108742
 11
311.61982355891047
 21
154.55521867081927
  0
LINE
  8
_1-1_
  6
CONTINUOUS
 62
    7
 10
304.04180578283365
 20
157.11911588101773
 11
303.84952029666385
 21
156.55075898041596
  0
LINE
  8
_1-1_
  6
CONTINUOUS
 62
    7
 10
311.61982355891047
 20
154.55521867081927
 11
311.42753807274073
 21
153.98687414220862
  0
LINE
  8
_1-1_
  6
CONTINUOUS
 62
    7
 10
311.42753807274073
 20
153.98687414220862
 11
355.75898041596281
 21
138.9881113413218
  0
LINE
  8
_1-1_
  6
CONTINUOUS
 62
    7
 10
303.84952029666385
 20
156.55075898041596
 11
309.91191967113599
 21
154.49965605864654
  0
LINE
  8
_1-1_
  6
CONTINUOUS
 62
    7
 10
302.90509198163011
 20
157.50369922534841
 11
301.04627454603042
 21
152.00963200749578
  0
LINE
  8
_1-1_
  6
CONTINUOUS
 62
    7
 10
302.9153112463049
 20
151.71673748944258
 11
303.77120559279984
 21
153.19906286291175
  0
LINE
  8
_1-1_
  6
CONTINUOUS
 62
    7
 10
302.44069692250844
 20
151.53785086966852
 11
301.04627454603042
 21
152.00963200749578
  0
LINE
  8
_1-1_
  6
CONTINUOUS
 62
    7
 10
357.4683070827175
 20
134.39818923537797
 11
359.27740148595865
 21
133.78610971811656
  0
LINE
  8
_1-1_
  6
CONTINUOUS
 62
    7
 10
258.46217799831084
 20
173.35543658282307
 11
312.83450564822635
 21
154.95951059702281
  0
LINE
  8
_1-1_
  6
CONTINUOUS
 62
    7
 10
267.44748502164271
 20
174.32700904639992
 11
266.68685500686234
 21
173.95095000395904
  0
LINE
  8
_1-1_
  6
CONTINUOUS
 62
    7
 10
259.68002731735646
 20
176.95499317066091
 11
260.81671637457771
 21
176.57040982633023
  0
LINE
  8
_1-1_
  6
CONTINUOUS
 62
    7
 10
267.44748502164271
 20
174.32700904639992
 11
268.39473415065459
 21
174.00652498812289
  0
LINE
  8
_1-1_
  6
CONTINUOUS
 62
    7
 10
260.81671637457771
 20
176.57040982633023
 11
260.62443088840791
 21
176.00206529771961
  0
LINE
  8
_1-1_
  6
CONTINUOUS
 62
    7
 10
268.39473415065459
 20
174.00652498812289
 11
268.20244866448479
 21
173.43816808752112
  0
LINE
  8
_1-1_
  6
CONTINUOUS
 62
    7
 10
268.20244866448479
 20
173.43816808752112
 11
312.53389100770693
 21
158.4394052866343
  0
LINE
  8
_1-1_
  6
CONTINUOUS
 62
    7
 10
260.62443088840791
 20
176.00206529771961
 11
266.68685500686234
 21
173.95095000395904
  0
LINE
  8
_1-1_
  6
CONTINUOUS
 62
    7
 10
259.68002731735646
 20
176.95499317066091
 11
257.82118513777448
 21
171.46092595280828
  0
LINE
  8
_1-1_
  6
CONTINUOUS
 62
    7
 10
259.69022183804896
 20
171.16803143475508
 11
260.54611618454396
 21
172.65036918021539
  0
LINE
  8
_1-1_
  6
CONTINUOUS
 62
    7
 10
259.21563225823479
 20
170.98914481498102
 11
257.82118513777448
 21
171.46092595280828
  0
LINE
  8
_1-1_
  6
CONTINUOUS
 62
    7
 10
215.2370885900549
 20
192.80671815614443
 11
269.60941623997041
 21
174.41080454233531
  0
LINE
  8
_1-1_
  6
CONTINUOUS
 62
    7
 10
224.22242035736909
 20
193.7782906197213
 11
223.46176559860641
 21
193.40223157728042
  0
LINE
  8
_1-1_
  6
CONTINUOUS
 62
    7
 10
216.45493790910049
 20
196.40627474398227
 11
217.59165171030406
 21
196.02170377164273
  0
LINE
  8
_1-1_
  6
CONTINUOUS
 62
    7
 10
217.59165171030406
 20
196.02170377164273
 11
217.39934148015203
 21
195.45335924303211
  0
LINE
  8
_1-1_
  6
CONTINUOUS
 62
    7
 10
225.16966948638091
 20
193.45780656144427
 11
224.97738400021115
 21
192.88946203283362
  0
LINE
  8
_1-1_
  6
CONTINUOUS
 62
    7
 10
224.97738400021115
 20
192.88946203283362
 11
269.30882634343328
 21
177.89068685995568
  0
LINE
  8
_1-1_
  6
CONTINUOUS
 62
    7
 10
217.39934148015203
 20
195.45335924303211
 11
223.46176559860641
 21
193.40223157728042
  0
LINE
  8
_1-1_
  6
CONTINUOUS
 62
    7
 10
216.46515717377534
 20
190.61932538006758
 11
217.32105152027026
 21
192.10166312552789
  0
LINE
  8
_1-1_
  6
CONTINUOUS
 62
    7
 10
215.99054284997888
 20
190.44042638830237
 11
214.59612047350083
 21
190.91221989812078
  0
LINE
  8
_1-1_
  6
CONTINUOUS
 62
    7
 10
271.01814063819677
 20
173.30076475401182
 11
272.82724741342906
 21
172.68869760874156
  0
LINE
  8
_1-1_
  6
CONTINUOUS
 62
    7
 10
390.22128234038485
 20
114.29632650839316
 11
404.10256901302853
 21
109.59984444283151
  0
LINE
  8
_1-1_
  6
CONTINUOUS
 62
    7
 10
397.84556517729891
 20
115.35085317250845
 11
406.2234685227678
 21
112.83838632944469
  0
LINE
  8
_1-1_
  6
CONTINUOUS
 62
    7
 10
224.62815980653505
 20
193.64102337811445
 11
225.16966948638091
 21
193.45780656144427
  0
LINE
  8
_1-1_
  6
CONTINUOUS
 62
    7
 10
224.22242035736909
 20
193.7782906197213
 11
224.58673838022594
 21
193.6550284720756
  0
LINE
  8
_1-1_
  6
CONTINUOUS
 62
    7
 10
224.58673838022594
 20
193.6550284720756
 11
224.62815980653505
 21
193.64102337811445
  0
ARC
  8
_1-1_
  6
CONTINUOUS
 62
    7
 10
389.06453209954338
 20
112.97303070893159
 40
0.4000000051549963
 50
253.30639648437497
 51
331.99647521972656
  0
ARC
  8
_1-1_
  6
CONTINUOUS
 62
    7
 10
400.71501345247839
 20
115.15072384396116
 40
0.2000000025774982
 50
225.90019226074222
 51
251.30766296386722
  0
ARC
  8
_1-1_
  6
CONTINUOUS
 62
    7
 10
345.79398490287161
 20
132.46547389674831
 40
0.4000000051549964
 50
251.30766296386722
 51
329.99774169921875
  0
ARC
  8
_1-1_
  6
CONTINUOUS
 62
    7
 10
393.91310305208776
 20
108.13164788323481
 40
9.5741179182722771
 50
46.160430908203111
 51
55.871551513671861
  0
ARC
  8
_1-1_
  6
CONTINUOUS
 62
    7
 10
400.82158578408735
 20
115.32579989046664
 40
0.4000000051549964
 50
226.16043090820312
 51
251.30766296386722
  0
ARC
  8
_1-1_
  6
CONTINUOUS
 62
    7
 10
392.64717617550411
 20
100.43098655906884
 40
20.129313082308382
 50
58.184417724609403
 51
71.650741577148466
  0
ARC
  8
_1-1_
  6
CONTINUOUS
 62
    7
 10
403.04822251603412
 20
117.195950069943
 40
0.4000000051549964
 50
341.30766296386719
 51
58.184417724609403
  0
ARC
  8
_1-1_
  6
CONTINUOUS
 62
    7
 10
357.48993332321584
 20
134.60200541728253
 40
0.2000000025774982
 50
225.90019226074222
 51
251.30766296386722
  0
ARC
  8
_1-1_
  6
CONTINUOUS
 62
    7
 10
302.56889549461573
 20
151.91675547006969
 40
0.4000000051549964
 50
251.30766296386722
 51
329.99774169921875
  0
ARC
  8
_1-1_
  6
CONTINUOUS
 62
    7
 10
350.68801055083406
 20
127.58294182854731
 40
9.5741179182722771
 50
46.160430908203111
 51
55.871551513671861
  0
ARC
  8
_1-1_
  6
CONTINUOUS
 62
    7
 10
357.59650565482474
 20
134.77708146378802
 40
0.4000000051549964
 50
226.16043090820312
 51
251.30766296386722
  0
ARC
  8
_1-1_
  6
CONTINUOUS
 62
    7
 10
349.42209604624156
 20
119.88226813239021
 40
20.129313082308382
 50
58.184417724609403
 51
71.650741577148466
  0
ARC
  8
_1-1_
  6
CONTINUOUS
 62
    7
 10
359.82313001478042
 20
136.64723164326438
 40
0.4000000051549964
 50
341.30766296386719
 51
58.184417724609403
  0
ARC
  8
_1-1_
  6
CONTINUOUS
 62
    7
 10
314.26485628695104
 20
154.05329936259503
 40
0.2000000025774982
 50
225.90019226074222
 51
251.30766296386722
  0
ARC
  8
_1-1_
  6
CONTINUOUS
 62
    7
 10
259.34383083034209
 20
171.36804941538219
 40
0.4000000051549964
 50
251.30766296386722
 51
329.99774169921875
  0
ARC
  8
_1-1_
  6
CONTINUOUS
 62
    7
 10
307.46293351456927
 20
147.03423577385982
 40
9.5741179182722771
 50
46.160430908203111
 51
55.871551513671861
  0
ARC
  8
_1-1_
  6
CONTINUOUS
 62
    7
 10
314.37142861856
 20
154.22838778109164
 40
0.4000000051549964
 50
226.16043090820312
 51
251.30766296386722
  0
ARC
  8
_1-1_
  6
CONTINUOUS
 62
    7
 10
306.19700663798562
 20
139.33356207770271
 40
20.129313082308382
 50
58.184417724609403
 51
71.650741577148466
  0
ARC
  8
_1-1_
  6
CONTINUOUS
 62
    7
 10
316.59804060652448
 20
156.09852558857688
 40
0.4000000051549964
 50
341.30766296386719
 51
58.184417724609403
  0
ARC
  8
_1-1_
  6
CONTINUOUS
 62
    7
 10
271.0397668786951
 20
173.50459330790753
 40
0.2000000025774982
 50
225.90019226074222
 51
251.30766296386722
  0
ARC
  8
_1-1_
  6
CONTINUOUS
 62
    7
 10
216.11874142208615
 20
190.81933098870357
 40
0.4000000051549964
 50
251.30766296386722
 51
329.99774169921875
  0
ARC
  8
_1-1_
  6
CONTINUOUS
 62
    7
 10
264.23784410631333
 20
166.48551734718117
 40
9.5741179182722771
 50
46.160430908203111
 51
55.871551513671861
  0
ARC
  8
_1-1_
  6
CONTINUOUS
 62
    7
 10
271.14633921030406
 20
173.67966935441302
 40
0.4000000051549964
 50
226.16043090820312
 51
251.30766296386722
  0
ARC
  8
_1-1_
  6
CONTINUOUS
 62
    7
 10
262.97194197371198
 20
158.78485602301521
 40
20.129313082308382
 50
58.184417724609403
 51
71.650741577148466
  0
ARC
  8
_1-1_
  6
CONTINUOUS
 62
    7
 10
273.37297594225083
 20
175.54981953388938
 40
0.4000000051549964
 50
341.30766296386719
 51
58.184417724609403
  0
CIRCLE
  8
_1-3_
  6
CONTINUOUS
 62
    7
 10
226.62995020157592
 20
193.59815369092132
 40
0.2437848762826462
  0
CIRCLE
  8
_1-3_
  6
CONTINUOUS
 62
    7
 10
226.87373507785856
 20
192.74490662393205
 40
0.2437848762826462
  0
CIRCLE
  8
_1-3_
  6
CONTINUOUS
 62
    7
 10
226.02048801086929
 20
194.02477722441597
 40
0.2437848762826462
  0
LINE
  8
_1-1_
  6
CONTINUOUS
 62
    7
 10
405.26451489928502
 20
122.49852575125742
 11
409.29365318729305
 21
121.13533828293581
  0
LINE
  8
_1-1_
  6
CONTINUOUS
 62
    7
 10
406.2481607904233
 20
125.40587218094167
 11
402.5024816152212
 21
114.3348281447952
  0
ARC
  8
_1-1_
  6
CONTINUOUS
 62
    7
 10
405.86849381515049
 20
125.5317808462955
 40
0.4000000051549964
 50
341.6529703694236
 51
58.184417724609418
  0
ARC
  8
_1-1_
  6
CONTINUOUS
 62
    7
 10
395.46744747462049
 20
108.76681733542134
 40
20.129313082308382
 50
58.184417724609368
 51
70.96458478655083
  0
LINE
  8
_1-1_
  6
CONTINUOUS
 62
    7
 10
361.85017147295002
 20
141.39043924895097
 11
402.03267383700017
 21
127.79540235838893
  0
ARC
  8
_1-1_
  6
CONTINUOUS
 62
    7
 10
362.64341368588788
 20
144.98306241961686
 40
0.4000000051549964
 50
341.6529703694236
 51
58.184417724609418
  0
ARC
  8
_1-1_
  6
CONTINUOUS
 62
    7
 10
352.24236734535788
 20
128.21809890874272
 40
20.129313082308382
 50
58.184417724609368
 51
70.96458478655083
  0
ARC
  8
_1-1_
  6
CONTINUOUS
 62
    7
 10
265.79221327282835
 20
167.12068679936772
 40
20.129313082308382
 50
58.184417724609418
 51
70.962714552277703
  0
LINE
  8
_1-1_
  6
CONTINUOUS
 62
    7
 10
276.57292658863184
 20
183.75974164489011
 11
272.82724741342906
 21
172.68869760874156
  0
ARC
  8
_1-1_
  6
CONTINUOUS
 62
    7
 10
276.19325961335835
 20
183.88565031024186
 40
0.4000000051549964
 50
341.65297036973806
 51
58.184417724609403
  0
LINE
  8
_1-1_
  6
CONTINUOUS
 62
    7
 10
319.79858801502792
 20
164.3102616666315
 11
316.05231207770271
 21
153.23740366342906
  0
ARC
  8
_1-1_
  6
CONTINUOUS
 62
    7
 10
319.418324277632
 20
164.43435636492936
 40
0.4000000051549964
 50
341.92650177788801
 51
58.184417724609418
  0
LINE
  8
_1-1_
  6
CONTINUOUS
 62
    7
 10
275.40002687026447
 20
180.29302070466738
 11
315.58250565247829
 21
166.69798187603737
  0
LINE
  8
_1-1_
  6
CONTINUOUS
 62
    7
 10
318.62508138981661
 20
160.84173119952979
 11
358.80759376432962
 21
147.24668409897788
  0
LINE
  8
_1-1_
  6
CONTINUOUS
 62
    7
 10
363.02306544610417
 20
144.85715890196744
 11
359.27740148595865
 21
133.78610971811656
  0
LINE
  8
_1-0_
  6
CONTINUOUS
 62
    3
 10
231.36647817250847
 20
200.47311192383188
 11
230.5664804819468
 21
206.67311258367141
  0
LINE
  8
_1-0_
  6
CONTINUOUS
 62
    3
 10
186.16646019188136
 20
206.67311258367141
 11
185.36646250131969
 21
200.47311192383188
  0
LINE
  8
_1-0_
  6
CONTINUOUS
 62
    3
 10
227.77023727829393
 20
204.47485719938086
 11
208.36647652290964
 21
214.13861947239607
  0
LINE
  8
_1-0_
  6
CONTINUOUS
 62
    3
 10
229.66941214896539
 20
201.07310400575756
 11
227.77023727829393
 21
204.47485719938086
  0
LINE
  8
_1-0_
  6
CONTINUOUS
 62
    3
 10
231.36647817250847
 20
200.47311192383188
 11
229.66941214896539
 21
201.07310400575756
  0
LINE
  8
_1-0_
  6
CONTINUOUS
 62
    3
 10
185.36646250131969
 20
200.47311192383188
 11
186.16646019188136
 21
206.67311258367141
  0
LINE
  8
_1-0_
  6
CONTINUOUS
 62
    3
 10
185.36646250131969
 20
200.47311192383188
 11
187.06352852486276
 21
201.07310400575756
  0
LINE
  8
_1-0_
  6
CONTINUOUS
 62
    3
 10
187.06352852486276
 20
201.07310400575756
 11
188.96270339553422
 21
204.4749066873454
  0
LINE
  8
_1-0_
  6
CONTINUOUS
 62
    3
 10
208.36647652290964
 20
214.13861947239607
 11
188.96270339553422
 21
204.4749066873454
  0
LINE
  8
_1-0_
  6
CONTINUOUS
 62
    3
 10
209.24139899176521
 20
217.2716035306731
 11
230.5664804819468
 21
206.67311258367141
  0
LINE
  8
_1-0_
  6
CONTINUOUS
 62
    3
 10
207.49154168206294
 20
217.2716035306731
 11
186.16646019188136
 21
206.67311258367141
  0
LINE
  8
_1-0_
  6
CONTINUOUS
 62
    7
 10
205.3664542533256
 20
205.33433942330402
 11
205.3664542533256
 21
211.33433447450756
  0
LINE
  8
_1-0_
  6
CONTINUOUS
 62
    7
 10
211.36648642050255
 20
211.33433447450756
 11
211.36648642050255
 21
205.33433942330402
  0
LINE
  8
_1-0_
  6
CONTINUOUS
 62
    7
 10
211.36648642050255
 20
205.33433942330402
 11
205.3664542533256
 21
205.33433942330402
  0
LINE
  8
_1-0_
  6
CONTINUOUS
 62
    7
 10
205.3664542533256
 20
211.33433447450756
 11
211.36648642050255
 21
205.33433942330402
  0
LINE
  8
_1-0_
  6
CONTINUOUS
 62
    7
 10
211.36648642050255
 20
211.33433447450756
 11
205.3664542533256
 21
205.33433942330402
  0
LINE
  8
_1-0_
  6
CONTINUOUS
 62
    7
 10
211.76649763777451
 20
204.93434057802318
 11
204.96645540804477
 21
204.93434057802318
  0
LINE
  8
_1-0_
  6
CONTINUOUS
 62
    7
 10
204.96645540804477
 20
209.70110792520435
 11
204.96645540804477
 21
204.93434057802318
  0
LINE
  8
_1-0_
  6
CONTINUOUS
 62
    7
 10
211.76649763777451
 20
209.70110792520435
 11
211.76649763777451
 21
204.93434057802318
  0
LINE
  8
_1-0_
  6
CONTINUOUS
 62
    7
 10
204.96645540804477
 20
209.70110792520435
 11
205.3664542533256
 21
209.70110792520435
  0
LINE
  8
_1-0_
  6
CONTINUOUS
 62
    7
 10
211.36648642050255
 20
209.70110792520435
 11
211.76649763777451
 21
209.70110792520435
  0
LINE
  8
_1-0_
  6
CONTINUOUS
 62
    7
 10
205.36646662531675
 20
205.77530193122209
 11
205.36646662531675
 21
191.49146415091852
  0
LINE
  8
_1-0_
  6
CONTINUOUS
 62
    7
 10
211.36646167652029
 20
205.77530193122209
 11
211.36646167652029
 21
191.49145177892737
  0
LINE
  8
_1-0_
  6
CONTINUOUS
 62
    7
 10
204.96646778003591
 20
206.17530077650292
 11
204.96646778003591
 21
191.31146405194258
  0
LINE
  8
_1-0_
  6
CONTINUOUS
 62
    7
 10
211.76647289379224
 20
206.17530077650292
 11
211.76647289379224
 21
191.31145167995146
  0
LINE
  8
_1-0_
  6
CONTINUOUS
 62
    7
 10
207.76645969700169
 20
201.3590330928036
 11
208.96646860483531
 21
201.3590330928036
  0
LINE
  8
_1-0_
  6
CONTINUOUS
 62
    7
 10
207.76645969700169
 20
202.09992978172886
 11
208.96646860483531
 21
202.09992978172886
  0
LINE
  8
_1-0_
  6
CONTINUOUS
 62
    7
 10
207.76645969700169
 20
201.79993374076602
 11
208.96646860483531
 21
201.79993374076602
  0
LINE
  8
_1-0_
  6
CONTINUOUS
 62
    7
 10
207.76645969700169
 20
201.49993769980318
 11
208.96646860483531
 21
201.49993769980318
  0
LINE
  8
_1-0_
  6
CONTINUOUS
 62
    7
 10
207.76645969700169
 20
200.65903820655993
 11
208.96646860483531
 21
200.65903820655993
  0
LINE
  8
_1-0_
  6
CONTINUOUS
 62
    7
 10
207.76645969700169
 20
200.35904216559709
 11
208.96646860483531
 21
200.35904216559709
  0
LINE
  8
_1-0_
  6
CONTINUOUS
 62
    7
 10
207.76645969700169
 20
204.57531776737073
 11
208.96646860483531
 21
204.57531776737073
  0
LINE
  8
_1-0_
  6
CONTINUOUS
 62
    7
 10
207.76645969700169
 20
204.2753217264079
 11
208.96646860483531
 21
204.2753217264079
  0
LINE
  8
_1-0_
  6
CONTINUOUS
 62
    7
 10
207.76645969700169
 20
203.97532568544506
 11
208.96646860483531
 21
203.97532568544506
  0
LINE
  8
_1-0_
  6
CONTINUOUS
 62
    7
 10
207.76645969700169
 20
203.67532964448222
 11
208.96646860483531
 21
203.67532964448222
  0
LINE
  8
_1-0_
  6
CONTINUOUS
 62
    7
 10
207.76645969700169
 20
203.37533360351938
 11
208.96646860483531
 21
203.37533360351938
  0
LINE
  8
_1-0_
  6
CONTINUOUS
 62
    7
 10
207.76645969700169
 20
203.07533756255654
 11
208.96646860483531
 21
203.07533756255654
  0
LINE
  8
_1-0_
  6
CONTINUOUS
 62
    7
 10
207.76645969700169
 20
202.7753415215937
 11
208.96646860483531
 21
202.7753415215937
  0
LINE
  8
_1-0_
  6
CONTINUOUS
 62
    7
 10
207.76645969700169
 20
202.47534548063086
 11
208.96646860483531
 21
202.47534548063086
  0
LINE
  8
_1-0_
  6
CONTINUOUS
 62
    7
 10
207.76645969700169
 20
202.17534943966803
 11
208.96646860483531
 21
202.17534943966803
  0
LINE
  8
_1-0_
  6
CONTINUOUS
 62
    7
 10
207.76645969700169
 20
201.87535339870519
 11
208.96646860483531
 21
201.87535339870519
  0
LINE
  8
_1-0_
  6
CONTINUOUS
 62
    7
 10
207.76645969700169
 20
201.57535735774238
 11
208.96646860483531
 21
201.57535735774238
  0
LINE
  8
_1-0_
  6
CONTINUOUS
 62
    7
 10
207.76645969700169
 20
201.27536131677954
 11
208.96646860483531
 21
201.27536131677954
  0
LINE
  8
_1-0_
  6
CONTINUOUS
 62
    7
 10
207.76645969700169
 20
200.9753652758167
 11
208.96646860483531
 21
200.9753652758167
  0
LINE
  8
_1-0_
  6
CONTINUOUS
 62
    7
 10
207.76645969700169
 20
200.67536923485386
 11
208.96646860483531
 21
200.67536923485386
  0
LINE
  8
_1-0_
  6
CONTINUOUS
 62
    7
 10
207.76645969700169
 20
200.37537319389102
 11
208.96646860483531
 21
200.37537319389102
  0
LINE
  8
_1-0_
  6
CONTINUOUS
 62
    7
 10
207.16646761507602
 20
217.9308574501199
 11
209.56646068676099
 21
217.9308574501199
  0
LINE
  8
_1-0_
  6
CONTINUOUS
 62
    7
 10
207.16646761507602
 20
217.9308574501199
 11
207.16646761507602
 21
217.11002532649238
  0
LINE
  8
_1-0_
  6
CONTINUOUS
 62
    7
 10
209.56646068676099
 20
217.9308574501199
 11
209.56646068676099
 21
217.11002532649238
  0
LINE
  8
_1-0_
  6
DASHED1
 62
    7
 10
207.76645969700169
 20
211.33433447450756
 11
207.76645969700169
 21
207.62754983953079
  0
LINE
  8
_1-0_
  6
DASHED1
 62
    7
 10
207.76645969700169
 20
207.62754983953079
 11
208.36647652290964
 21
206.91606137352574
  0
LINE
  8
_1-0_
  6
DASHED1
 62
    7
 10
208.96646860483531
 20
207.73433249498899
 11
208.36647652290964
 21
206.91606137352574
  0
LINE
  8
_1-0_
  6
DASHED1
 62
    7
 10
208.96646860483531
 20
211.33433447450756
 11
208.96646860483531
 21
207.73433249498899
  0
LINE
  8
_1-0_
  6
CONTINUOUS
 62
    7
 10
207.76645969700169
 20
213.83979877059076
 11
207.76645969700169
 21
211.33433447450756
  0
LINE
  8
_1-0_
  6
CONTINUOUS
 62
    7
 10
208.96646860483531
 20
213.83979877059076
 11
208.96646860483531
 21
211.33433447450756
  0
LINE
  8
_1-0_
  6
DASHED1
 62
    7
 10
207.76645969700169
 20
213.83979877059076
 11
207.76645969700169
 21
217.36966393238342
  0
LINE
  8
_1-0_
  6
DASHED1
 62
    7
 10
208.96646860483531
 20
213.83979877059076
 11
208.96646860483531
 21
217.31918620856584
  0
LINE
  8
_1-0_
  6
CONTINUOUS
 62
    7
 10
208.4671350427576
 20
218.7076947732829
 11
190.76927391258448
 21
259.85650139885979
  0
LINE
  8
_1-0_
  6
CONTINUOUS
 62
    7
 10
206.7258020349451
 20
209.30447426151136
 11
191.32827758789063
 21
244.13313582136826
  0
LINE
  8
_1-0_
  6
CONTINUOUS
 62
    7
 10
204.98445665514149
 20
204.02097833272126
 11
191.89674583641261
 21
232.50348890149917
  0
LINE
  8
_1-0_
  6
CONTINUOUS
 62
    7
 10
217.17384956978464
 20
212.09062192040074
 11
231.0146187447213
 21
242.642162426098
  0
LINE
  8
_1-0_
  6
CONTINUOUS
 62
    7
 10
225.53226780247044
 20
203.38393213735597
 11
234.27441571209883
 21
219.92708773226352
  0
LINE
  8
_1-0_
  6
CONTINUOUS
 62
    7
 10
207.76645969700169
 20
204.93434057802318
 11
207.76645969700169
 21
201.3590330928036
  0
LINE
  8
_1-0_
  6
CONTINUOUS
 62
    7
 10
208.96646860483531
 20
204.93434057802318
 11
208.96646860483531
 21
201.3590330928036
  0
LINE
  8
_1-0_
  6
CONTINUOUS
 62
    7
 10
207.76645969700169
 20
204.93434057802318
 11
207.76645969700169
 21
192.57146474477409
  0
LINE
  8
_1-0_
  6
CONTINUOUS
 62
    7
 10
208.96646860483531
 20
204.93434057802318
 11
208.96646860483531
 21
192.57145237278294
  0
LINE
  8
_1-0_
  6
CONTINUOUS
 62
    3
 10
229.66941214896539
 20
201.07310400575756
 11
227.77023727829393
 21
204.4749066873454
  0
ARC
  8
_1-0_
  6
CONTINUOUS
 62
    3
 10
208.36647652290964
 20
215.47311192383188
 40
1.9999998324626203
 50
64.057891845703139
 51
115.9421081542969
  0
ARC
  8
_1-0_
  6
CONTINUOUS
 62
    7
 10
208.36647652290964
 20
217.46727894241297
 40
1.2864322920103333
 50
21.122879028320316
 51
158.87712097167969
  0
CIRCLE
  8
_1-3_
  6
CONTINUOUS
 62
    7
 10
191.32187773769206
 20
203.72906700859755
 40
0.2725597776271945
  0
CIRCLE
  8
_1-3_
  6
CONTINUOUS
 62
    7
 10
192.72364077631732
 20
203.18055103696159
 40
0.136279888813598
  0
CIRCLE
  8
_1-3_
  6
CONTINUOUS
 62
    7
 10
192.05323236654002
 20
202.93676616067893
 40
0.1828386572119882
  0
CIRCLE
  8
_1-3_
  6
CONTINUOUS
 62
    7
 10
191.32187773769206
 20
202.93676616067893
 40
0.2725597776271865
  0
CIRCLE
  8
_1-3_
  6
CONTINUOUS
 62
    7
 10
192.17512480468136
 20
201.71784177926568
 40
0.2437848762826462
  0
CIRCLE
  8
_1-3_
  6
CONTINUOUS
 62
    7
 10
189.06686763207756
 20
202.93676616067893
 40
0.2437848762826462
  0
CIRCLE
  8
_1-3_
  6
CONTINUOUS
 62
    7
 10
189.49349116557221
 20
202.51014262718428
 40
0.2437848762826462
  0
CIRCLE
  8
_1-3_
  6
CONTINUOUS
 62
    7
 10
189.61538360371352
 20
201.41311068391235
 40
0.2437848762826462
  0
CIRCLE
  8
_1-3_
  6
CONTINUOUS
 62
    7
 10
189.79822226092551
 20
200.31607874064042
 40
0.2437848762826462
  0
CIRCLE
  8
_1-3_
  6
CONTINUOUS
 62
    7
 10
189.9810609181375
 20
199.64567033086314
 40
0.2437848762826462
  0
CIRCLE
  8
_1-3_
  6
CONTINUOUS
 62
    7
 10
191.07809286140943
 20
200.25513252156978
 40
0.2437848762826462
  0
CIRCLE
  8
_1-3_
  6
CONTINUOUS
 62
    7
 10
192.96742565259996
 20
200.01134764528712
 40
0.2437848762826462
  0
CIRCLE
  8
_1-3_
  6
CONTINUOUS
 62
    7
 10
193.69878028144791
 20
200.01134764528712
 40
0.2437848762826462
  0
CIRCLE
  8
_1-3_
  6
CONTINUOUS
 62
    7
 10
194.55202734843721
 20
201.839734217407
 40
0.2437848762826462
  0
CIRCLE
  8
_1-3_
  6
CONTINUOUS
 62
    7
 10
194.30824247215455
 20
204.03379810395086
 40
0.2437848762826462
  0
CIRCLE
  8
_1-3_
  6
CONTINUOUS
 62
    7
 10
193.45499540516528
 20
204.82609895186948
 40
0.2437848762826462
  0
CIRCLE
  8
_1-3_
  6
CONTINUOUS
 62
    7
 10
191.99228614746937
 20
204.27758298023352
 40
0.2437848762826462
  0
CIRCLE
  8
_1-3_
  6
CONTINUOUS
 62
    7
 10
193.51594162423592
 20
202.93676616067893
 40
0.2437848762826462
  0
CIRCLE
  8
_1-3_
  6
CONTINUOUS
 62
    7
 10
194.24729625308387
 20
201.96162665554834
 40
0.2437848762826462
  0
CIRCLE
  8
_1-3_
  6
CONTINUOUS
 62
    7
 10
195.89284416799177
 20
200.80364849320574
 40
0.2437848762826462
  0
CIRCLE
  8
_1-3_
  6
CONTINUOUS
 62
    7
 10
196.68514501591039
 20
200.74270227413507
 40
0.2437848762826462
  0
CIRCLE
  8
_1-3_
  6
CONTINUOUS
 62
    7
 10
196.68514501591039
 20
203.72906700859755
 40
0.2437848762826462
  0
CIRCLE
  8
_1-3_
  6
CONTINUOUS
 62
    7
 10
196.19757526334507
 20
205.37461492350545
 40
0.2437848762826462
  0
CIRCLE
  8
_1-3_
  6
CONTINUOUS
 62
    7
 10
195.58811307263846
 20
205.98407711421208
 40
0.2437848762826462
  0
CIRCLE
  8
_1-3_
  6
CONTINUOUS
 62
    7
 10
197.96501561639431
 20
207.2030014956253
 40
0.2437848762826462
  0
CIRCLE
  8
_1-3_
  6
CONTINUOUS
 62
    7
 10
199.18393999780756
 20
207.44678637190796
 40
0.2437848762826462
  0
CIRCLE
  8
_1-3_
  6
CONTINUOUS
 62
    7
 10
199.97624084572618
 20
207.81246368633194
 40
0.2437848762826462
  0
CIRCLE
  8
_1-3_
  6
CONTINUOUS
 62
    7
 10
200.95138035085677
 20
207.62962502911995
 40
0.2437848762826462
  0
CIRCLE
  8
_1-3_
  6
CONTINUOUS
 62
    7
 10
199.85434840758484
 20
205.49650736164676
 40
0.2437848762826462
  0
CIRCLE
  8
_1-3_
  6
CONTINUOUS
 62
    7
 10
198.9401551215249
 20
203.3024434751029
 40
0.2437848762826462
  0
CIRCLE
  8
_1-3_
  6
CONTINUOUS
 62
    7
 10
197.72123074011165
 20
202.87581994160826
 40
0.2437848762826462
  0
CIRCLE
  8
_1-3_
  6
CONTINUOUS
 62
    7
 10
195.95379038706244
 20
201.71784177926568
 40
0.2437848762826462
  0
CIRCLE
  8
_1-3_
  6
CONTINUOUS
 62
    7
 10
190.83430798512677
 20
201.35216446484171
 40
0.2437848762826462
  0
CIRCLE
  8
_1-3_
  6
CONTINUOUS
 62
    7
 10
190.04200713720815
 20
203.72906700859755
 40
0.2437848762826462
  0
CIRCLE
  8
_1-3_
  6
CONTINUOUS
 62
    7
 10
194.49108112936653
 20
200.07229386435779
 40
0.2437848762826462
  0
CIRCLE
  8
_1-3_
  6
CONTINUOUS
 62
    7
 10
195.3443281963558
 20
203.72906700859755
 40
0.2437848762826462
  0
CIRCLE
  8
_1-3_
  6
CONTINUOUS
 62
    7
 10
194.49108112936653
 20
205.25272248536413
 40
0.2437848762826462
  0
CIRCLE
  8
_1-3_
  6
CONTINUOUS
 62
    7
 10
194.55202734843721
 20
206.16691577142404
 40
0.2437848762826462
  0
CIRCLE
  8
_1-3_
  6
CONTINUOUS
 62
    7
 10
194.85675844379051
 20
206.47164686677735
 40
0.2437848762826462
  0
CIRCLE
  8
_1-3_
  6
CONTINUOUS
 62
    7
 10
197.96501561639431
 20
205.49650736164676
 40
0.2437848762826462
  0
CIRCLE
  8
_1-3_
  6
CONTINUOUS
 62
    7
 10
197.90406939732364
 20
204.64326029465749
 40
0.2437848762826462
  0
CIRCLE
  8
_1-3_
  6
CONTINUOUS
 62
    7
 10
197.78217695918232
 20
201.16932580762972
 40
0.2437848762826462
  0
CIRCLE
  8
_1-3_
  6
CONTINUOUS
 62
    7
 10
199.12299377873688
 20
201.29121824577103
 40
0.2437848762826462
  0
CIRCLE
  8
_1-3_
  6
CONTINUOUS
 62
    7
 10
200.52475681736215
 20
203.60717457045621
 40
0.2437848762826462
  0
CIRCLE
  8
_1-3_
  6
CONTINUOUS
 62
    7
 10
218.56483766227828
 20
207.93435612447325
 40
0.2437848762826462
  0
CIRCLE
  8
_1-3_
  6
CONTINUOUS
 62
    7
 10
219.47903094833822
 20
205.43556114257609
 40
0.2437848762826462
  0
CIRCLE
  8
_1-3_
  6
CONTINUOUS
 62
    7
 10
220.51511667253948
 20
202.87581994160826
 40
0.2437848762826462
  0
CIRCLE
  8
_1-3_
  6
CONTINUOUS
 62
    7
 10
221.79498727302342
 20
203.48528213231489
 40
0.2437848762826462
  0
CIRCLE
  8
_1-3_
  6
CONTINUOUS
 62
    7
 10
221.79498727302342
 20
205.61839979978811
 40
0.2437848762826462
  0
CIRCLE
  8
_1-3_
  6
CONTINUOUS
 62
    7
 10
223.56242762607263
 20
204.39947541837483
 40
0.2437848762826462
  0
CIRCLE
  8
_1-3_
  6
CONTINUOUS
 62
    7
 10
224.59851335027389
 20
203.79001322766823
 40
0.2437848762826462
  0
CIRCLE
  8
_1-3_
  6
CONTINUOUS
 62
    7
 10
224.59851335027389
 20
204.88704517094016
 40
0.2437848762826462
  0
CIRCLE
  8
_1-3_
  6
CONTINUOUS
 62
    7
 10
225.75649151261649
 20
204.09474432302153
 40
0.2437848762826462
  0
CIRCLE
  8
_1-3_
  6
CONTINUOUS
 62
    7
 10
226.12216882704047
 20
203.11960481789092
 40
0.2437848762826462
  0
CIRCLE
  8
_1-3_
  6
CONTINUOUS
 62
    7
 10
223.19675031164866
 20
202.93676616067893
 40
0.2437848762826462
  0
CIRCLE
  8
_1-3_
  6
CONTINUOUS
 62
    7
 10
217.58969815714769
 20
203.05865859882027
 40
0.2437848762826462
  0
CIRCLE
  8
_1-3_
  6
CONTINUOUS
 62
    7
 10
216.85834352829974
 20
202.87581994160826
 40
0.2437848762826462
  0
CIRCLE
  8
_1-3_
  6
CONTINUOUS
 62
    7
 10
213.87197879383726
 20
202.87581994160826
 40
0.2437848762826462
  0
CIRCLE
  8
_1-3_
  6
CONTINUOUS
 62
    7
 10
213.1406241649893
 20
206.04502333328273
 40
0.2437848762826462
  0
CIRCLE
  8
_1-3_
  6
CONTINUOUS
 62
    7
 10
214.42049476547322
 20
205.43556114257609
 40
0.2437848762826462
  0
CIRCLE
  8
_1-3_
  6
CONTINUOUS
 62
    7
 10
217.16307462365305
 20
204.70420651372814
 40
0.2437848762826462
  0
CIRCLE
  8
_1-3_
  6
CONTINUOUS
 62
    7
 10
215.51752670874515
 20
206.83732418120132
 40
0.2437848762826462
  0
CIRCLE
  8
_1-3_
  6
CONTINUOUS
 62
    7
 10
213.93292501290793
 20
208.97044184867454
 40
0.2437848762826462
  0
CIRCLE
  8
_1-3_
  6
CONTINUOUS
 62
    7
 10
213.07967794591866
 20
210.06747379194647
 40
0.2437848762826462
  0
CIRCLE
  8
_1-3_
  6
CONTINUOUS
 62
    7
 10
212.28737709800004
 20
211.1645057352184
 40
0.2437848762826462
  0
CIRCLE
  8
_1-3_
  6
CONTINUOUS
 62
    7
 10
212.95778550777732
 20
210.37220488729977
 40
0.2437848762826462
  0
CIRCLE
  8
_1-3_
  6
CONTINUOUS
 62
    7
 10
215.39563427060384
 20
207.75151746726129
 40
0.2437848762826462
  0
CIRCLE
  8
_1-3_
  6
CONTINUOUS
 62
    7
 10
219.66186960555021
 20
205.19177626629346
 40
0.2437848762826462
  0
CIRCLE
  8
_1-3_
  6
CONTINUOUS
 62
    7
 10
216.18793511852243
 20
209.2142267249572
 40
0.2437848762826462
  0
CIRCLE
  8
_1-3_
  6
CONTINUOUS
 62
    7
 10
218.80862253856094
 20
206.59353930491869
 40
0.2437848762826462
  0
CIRCLE
  8
_1-3_
  6
CONTINUOUS
 62
    7
 10
220.33227801532752
 20
206.83732418120132
 40
0.2437848762826462
  0
CIRCLE
  8
_1-3_
  6
CONTINUOUS
 62
    7
 10
221.79498727302342
 20
205.61839979978811
 40
0.2437848762826462
  0
CIRCLE
  8
_1-3_
  6
CONTINUOUS
 62
    7
 10
221.61214861581141
 20
204.1556905420922
 40
0.2437848762826462
  0
CIRCLE
  8
_1-3_
  6
CONTINUOUS
 62
    7
 10
217.95537547157167
 20
204.64326029465749
 40
0.2437848762826462
  0
CIRCLE
  8
_1-3_
  6
CONTINUOUS
 62
    7
 10
215.9441502422398
 20
206.34975442863606
 40
0.2437848762826462
  0
CIRCLE
  8
_1-3_
  6
CONTINUOUS
 62
    7
 10
222.83107299722468
 20
205.31366870443478
 40
0.2437848762826462
  0
CIRCLE
  8
_1-3_
  6
CONTINUOUS
 62
    7
 10
202.59692826576466
 20
203.3024434751029
 40
0.2437848762826462
  0
CIRCLE
  8
_1-3_
  6
CONTINUOUS
 62
    7
 10
202.65787448483533
 20
201.71784177926568
 40
0.2437848762826462
  0
CIRCLE
  8
_1-3_
  6
CONTINUOUS
 62
    7
 10
201.49989632249273
 20
200.74270227413507
 40
0.2437848762826462
  0
CIRCLE
  8
_1-3_
  6
CONTINUOUS
 62
    7
 10
201.49989632249273
 20
204.33852919930416
 40
0.2437848762826462
  0
CIRCLE
  8
_1-3_
  6
CONTINUOUS
 62
    7
 10
202.23125095134068
 20
207.2030014956253
 40
0.2437848762826462
  0
CIRCLE
  8
_1-3_
  6
CONTINUOUS
 62
    7
 10
199.67150975037285
 20
208.90949562960387
 40
0.2437848762826462
  0
CIRCLE
  8
_1-3_
  6
CONTINUOUS
 62
    7
 10
192.96742565259996
 20
200.98648715041773
 40
0.2437848762826462
  0
CIRCLE
  8
_1-3_
  6
CONTINUOUS
 62
    7
 10
191.38282395676273
 20
200.49891739785244
 40
0.2437848762826462
  0
CIRCLE
  8
_1-3_
  6
CONTINUOUS
 62
    7
 10
191.9313399283987
 20
204.88704517094016
 40
0.2437848762826462
  0
CIRCLE
  8
_1-3_
  6
CONTINUOUS
 62
    7
 10
191.01714664233876
 20
204.64326029465749
 40
0.2437848762826462
  0
CIRCLE
  8
_1-3_
  6
CONTINUOUS
 62
    7
 10
191.74850127118671
 20
199.8894552071458
 40
0.2437848762826462
  0
CIRCLE
  8
_1-3_
  6
CONTINUOUS
 62
    7
 10
203.99869130438992
 20
210.18936623008778
 40
0.2437848762826462
  0
CIRCLE
  8
_1-3_
  6
CONTINUOUS
 62
    7
 10
198.51353158803028
 20
208.11719478168527
 40
0.2437848762826462
  0
CIRCLE
  8
_1-3_
  6
CONTINUOUS
 62
    7
 10
202.35314338948203
 20
205.31366870443478
 40
0.2437848762826462
  0
CIRCLE
  8
_1-3_
  6
CONTINUOUS
 62
    7
 10
202.41408960855267
 20
203.85095944673887
 40
0.2437848762826462
  0
CIRCLE
  8
_1-3_
  6
CONTINUOUS
 62
    7
 10
202.35314338948203
 20
201.04743336948837
 40
0.2437848762826462
  0
CIRCLE
  8
_1-3_
  6
CONTINUOUS
 62
    7
 10
201.07327278899811
 20
202.44919640811364
 40
0.2437848762826462
  0
CIRCLE
  8
_1-3_
  6
CONTINUOUS
 62
    7
 10
198.87920890245425
 20
204.46042163744551
 40
0.2437848762826462
  0
CIRCLE
  8
_1-3_
  6
CONTINUOUS
 62
    7
 10
196.80703745405171
 20
206.95921661934267
 40
0.2437848762826462
  0
CIRCLE
  8
_1-3_
  6
CONTINUOUS
 62
    7
 10
215.88320402316913
 20
203.97285188488019
 40
0.2437848762826462
  0
CIRCLE
  8
_1-3_
  6
CONTINUOUS
 62
    7
 10
220.33227801532752
 20
203.42433591324425
 40
0.2437848762826462
  0
CIRCLE
  8
_1-3_
  6
CONTINUOUS
 62
    7
 10
217.22402084272372
 20
206.65448552398936
 40
0.2437848762826462
  0
CIRCLE
  8
_1-3_
  6
CONTINUOUS
 62
    7
 10
216.61455865201708
 20
208.17814100075591
 40
0.2437848762826462
  0
CIRCLE
  8
_1-3_
  6
CONTINUOUS
 62
    7
 10
222.1606645874474
 20
205.86218467607074
 40
0.2437848762826462
  0
LINE
  8
_1-3_
  6
CONTINUOUS
 62
    7
 10
205.3664542533256
 20
211.33433447450756
 11
211.36648642050255
 21
211.33433447450756
  0
CIRCLE
  8
_1-3_
  6
CONTINUOUS
 62
    7
 10
225.41102582016268
 20
203.72906700859755
 40
0.2725597776271945
  0
CIRCLE
  8
_1-3_
  6
CONTINUOUS
 62
    7
 10
224.00926278153742
 20
203.18055103696159
 40
0.136279888813598
  0
CIRCLE
  8
_1-3_
  6
CONTINUOUS
 62
    7
 10
224.6796711913147
 20
202.93676616067893
 40
0.1828386572119882
  0
CIRCLE
  8
_1-3_
  6
CONTINUOUS
 62
    7
 10
225.41102582016268
 20
202.93676616067893
 40
0.2725597776271865
  0
CIRCLE
  8
_1-3_
  6
CONTINUOUS
 62
    7
 10
224.55777875317338
 20
201.71784177926568
 40
0.2437848762826462
  0
CIRCLE
  8
_1-3_
  6
CONTINUOUS
 62
    7
 10
227.66603592577718
 20
202.93676616067893
 40
0.2437848762826462
  0
CIRCLE
  8
_1-3_
  6
CONTINUOUS
 62
    7
 10
227.23941239228253
 20
202.51014262718428
 40
0.2437848762826462
  0
CIRCLE
  8
_1-3_
  6
CONTINUOUS
 62
    7
 10
227.11751995414122
 20
201.41311068391235
 40
0.2437848762826462
  0
CIRCLE
  8
_1-3_
  6
CONTINUOUS
 62
    7
 10
226.93468129692923
 20
200.31607874064042
 40
0.2437848762826462
  0
CIRCLE
  8
_1-3_
  6
CONTINUOUS
 62
    7
 10
226.75184263971727
 20
199.64567033086314
 40
0.2437848762826462
  0
CIRCLE
  8
_1-3_
  6
CONTINUOUS
 62
    7
 10
225.65481069644534
 20
200.25513252156978
 40
0.2437848762826462
  0
CIRCLE
  8
_1-3_
  6
CONTINUOUS
 62
    7
 10
223.76547790525478
 20
200.01134764528712
 40
0.2437848762826462
  0
CIRCLE
  8
_1-3_
  6
CONTINUOUS
 62
    7
 10
223.03412327640683
 20
200.01134764528712
 40
0.2437848762826462
  0
CIRCLE
  8
_1-3_
  6
CONTINUOUS
 62
    7
 10
222.18087620941753
 20
201.839734217407
 40
0.2437848762826462
  0
CIRCLE
  8
_1-3_
  6
CONTINUOUS
 62
    7
 10
222.42466108570019
 20
204.03379810395086
 40
0.2437848762826462
  0
CIRCLE
  8
_1-3_
  6
CONTINUOUS
 62
    7
 10
223.27790815268946
 20
204.82609895186948
 40
0.2437848762826462
  0
CIRCLE
  8
_1-3_
  6
CONTINUOUS
 62
    7
 10
224.74061741038537
 20
204.27758298023352
 40
0.2437848762826462
  0
CIRCLE
  8
_1-3_
  6
CONTINUOUS
 62
    7
 10
223.21696193361882
 20
202.93676616067893
 40
0.2437848762826462
  0
CIRCLE
  8
_1-3_
  6
CONTINUOUS
 62
    7
 10
222.48560730477087
 20
201.96162665554834
 40
0.2437848762826462
  0
CIRCLE
  8
_1-3_
  6
CONTINUOUS
 62
    7
 10
220.84005938986297
 20
200.80364849320574
 40
0.2437848762826462
  0
CIRCLE
  8
_1-3_
  6
CONTINUOUS
 62
    7
 10
220.04775854194435
 20
200.74270227413507
 40
0.2437848762826462
  0
CIRCLE
  8
_1-3_
  6
CONTINUOUS
 62
    7
 10
220.04775854194435
 20
203.72906700859755
 40
0.2437848762826462
  0
CIRCLE
  8
_1-3_
  6
CONTINUOUS
 62
    7
 10
220.53532829450967
 20
205.37461492350545
 40
0.2437848762826462
  0
CIRCLE
  8
_1-3_
  6
CONTINUOUS
 62
    7
 10
221.14479048521628
 20
205.98407711421208
 40
0.2437848762826462
  0
CIRCLE
  8
_1-3_
  6
CONTINUOUS
 62
    7
 10
218.76788794146043
 20
207.2030014956253
 40
0.2437848762826462
  0
CIRCLE
  8
_1-3_
  6
CONTINUOUS
 62
    7
 10
217.54896356004718
 20
207.44678637190796
 40
0.2437848762826462
  0
CIRCLE
  8
_1-3_
  6
CONTINUOUS
 62
    7
 10
216.75666271212856
 20
207.81246368633194
 40
0.2437848762826462
  0
CIRCLE
  8
_1-3_
  6
CONTINUOUS
 62
    7
 10
215.78152320699797
 20
207.62962502911995
 40
0.2437848762826462
  0
CIRCLE
  8
_1-3_
  6
CONTINUOUS
 62
    7
 10
216.8785551502699
 20
205.49650736164676
 40
0.2437848762826462
  0
CIRCLE
  8
_1-3_
  6
CONTINUOUS
 62
    7
 10
217.79274843632982
 20
203.3024434751029
 40
0.2437848762826462
  0
CIRCLE
  8
_1-3_
  6
CONTINUOUS
 62
    7
 10
219.01167281774309
 20
202.87581994160826
 40
0.2437848762826462
  0
CIRCLE
  8
_1-3_
  6
CONTINUOUS
 62
    7
 10
220.7791131707923
 20
201.71784177926568
 40
0.2437848762826462
  0
CIRCLE
  8
_1-3_
  6
CONTINUOUS
 62
    7
 10
225.89859557272797
 20
201.35216446484171
 40
0.2437848762826462
  0
CIRCLE
  8
_1-3_
  6
CONTINUOUS
 62
    7
 10
226.6908964206466
 20
203.72906700859755
 40
0.2437848762826462
  0
CIRCLE
  8
_1-3_
  6
CONTINUOUS
 62
    7
 10
222.24182242848821
 20
200.07229386435779
 40
0.2437848762826462
  0
CIRCLE
  8
_1-3_
  6
CONTINUOUS
 62
    7
 10
221.38857536149894
 20
203.72906700859755
 40
0.2437848762826462
  0
CIRCLE
  8
_1-3_
  6
CONTINUOUS
 62
    7
 10
222.24182242848821
 20
205.25272248536413
 40
0.2437848762826462
  0
CIRCLE
  8
_1-3_
  6
CONTINUOUS
 62
    7
 10
222.18087620941753
 20
206.16691577142404
 40
0.2437848762826462
  0
CIRCLE
  8
_1-3_
  6
CONTINUOUS
 62
    7
 10
221.87614511406423
 20
206.47164686677735
 40
0.2437848762826462
  0
CIRCLE
  8
_1-3_
  6
CONTINUOUS
 62
    7
 10
218.76788794146043
 20
205.49650736164676
 40
0.2437848762826462
  0
CIRCLE
  8
_1-3_
  6
CONTINUOUS
 62
    7
 10
218.8288341605311
 20
204.64326029465749
 40
0.2437848762826462
  0
CIRCLE
  8
_1-3_
  6
CONTINUOUS
 62
    7
 10
218.95072659867242
 20
201.16932580762972
 40
0.2437848762826462
  0
CIRCLE
  8
_1-3_
  6
CONTINUOUS
 62
    7
 10
217.60990977911786
 20
201.29121824577103
 40
0.2437848762826462
  0
CIRCLE
  8
_1-3_
  6
CONTINUOUS
 62
    7
 10
216.20814674049262
 20
203.60717457045621
 40
0.2437848762826462
  0
CIRCLE
  8
_1-3_
  6
CONTINUOUS
 62
    7
 10
214.13597529209008
 20
203.3024434751029
 40
0.2437848762826462
  0
CIRCLE
  8
_1-3_
  6
CONTINUOUS
 62
    7
 10
214.07502907301941
 20
201.71784177926568
 40
0.2437848762826462
  0
CIRCLE
  8
_1-3_
  6
CONTINUOUS
 62
    7
 10
215.23300723536201
 20
200.74270227413507
 40
0.2437848762826462
  0
CIRCLE
  8
_1-3_
  6
CONTINUOUS
 62
    7
 10
215.23300723536201
 20
204.33852919930416
 40
0.2437848762826462
  0
CIRCLE
  8
_1-3_
  6
CONTINUOUS
 62
    7
 10
214.50165260651406
 20
207.2030014956253
 40
0.2437848762826462
  0
CIRCLE
  8
_1-3_
  6
CONTINUOUS
 62
    7
 10
217.06139380748186
 20
208.90949562960387
 40
0.2437848762826462
  0
CIRCLE
  8
_1-3_
  6
CONTINUOUS
 62
    7
 10
223.76547790525478
 20
200.98648715041773
 40
0.2437848762826462
  0
CIRCLE
  8
_1-3_
  6
CONTINUOUS
 62
    7
 10
225.35007960109201
 20
200.49891739785244
 40
0.2437848762826462
  0
CIRCLE
  8
_1-3_
  6
CONTINUOUS
 62
    7
 10
224.80156362945604
 20
204.88704517094016
 40
0.2437848762826462
  0
CIRCLE
  8
_1-3_
  6
CONTINUOUS
 62
    7
 10
225.71575691551598
 20
204.64326029465749
 40
0.2437848762826462
  0
CIRCLE
  8
_1-3_
  6
CONTINUOUS
 62
    7
 10
224.98440228666803
 20
199.8894552071458
 40
0.2437848762826462
  0
CIRCLE
  8
_1-3_
  6
CONTINUOUS
 62
    7
 10
218.21937196982446
 20
208.11719478168527
 40
0.2437848762826462
  0
CIRCLE
  8
_1-3_
  6
CONTINUOUS
 62
    7
 10
214.37976016837274
 20
205.31366870443478
 40
0.2437848762826462
  0
CIRCLE
  8
_1-3_
  6
CONTINUOUS
 62
    7
 10
214.31881394930207
 20
203.85095944673887
 40
0.2437848762826462
  0
CIRCLE
  8
_1-3_
  6
CONTINUOUS
 62
    7
 10
214.37976016837274
 20
201.04743336948837
 40
0.2437848762826462
  0
CIRCLE
  8
_1-3_
  6
CONTINUOUS
 62
    7
 10
215.65963076885663
 20
202.44919640811364
 40
0.2437848762826462
  0
CIRCLE
  8
_1-3_
  6
CONTINUOUS
 62
    7
 10
217.85369465540049
 20
204.46042163744551
 40
0.2437848762826462
  0
CIRCLE
  8
_1-3_
  6
CONTINUOUS
 62
    7
 10
219.92586610380303
 20
206.95921661934267
 40
0.2437848762826462
  0
ARC
  8
_1-0_
  6
CONTINUOUS
 62
    2
 10
174.02054808652045
 20
195.65649694101097
 40
15.972225618704721
 50
347.36285102502694
 51
26.834950530856382
  0
ARC
  8
_1-0_
  6
CONTINUOUS
 62
    2
 10
259.69407008817029
 20
197.69720907667056
 40
32.269992234127329
 50
168.90449930320605
 51
190.37990566313903
  0
CIRCLE
  8
_1-3_
  6
CONTINUOUS
 62
    7
 10
191.20143307637289
 20
198.19809752039049
 40
0.2437848762826462
  0
CIRCLE
  8
_1-3_
  6
CONTINUOUS
 62
    7
 10
191.99373392429152
 20
198.13715130131982
 40
0.2437848762826462
  0
CIRCLE
  8
_1-3_
  6
CONTINUOUS
 62
    7
 10
191.26237929544357
 20
199.1122908064504
 40
0.2437848762826462
  0
CIRCLE
  8
_1-3_
  6
CONTINUOUS
 62
    7
 10
193.09076586756345
 20
198.56377483481447
 40
0.2437848762826462
  0
CIRCLE
  8
_1-3_
  6
CONTINUOUS
 62
    7
 10
194.43158268711801
 20
198.68566727295578
 40
0.2437848762826462
  0
CIRCLE
  8
_1-3_
  6
CONTINUOUS
 62
    7
 10
191.88050096378186
 20
195.73647642853305
 40
0.2437848762826462
  0
CIRCLE
  8
_1-3_
  6
CONTINUOUS
 62
    7
 10
192.67280181170045
 20
195.67553020946238
 40
0.2437848762826462
  0
CIRCLE
  8
_1-3_
  6
CONTINUOUS
 62
    7
 10
191.94144718285253
 20
196.65066971459299
 40
0.2437848762826462
  0
CIRCLE
  8
_1-3_
  6
CONTINUOUS
 62
    7
 10
193.76983375497238
 20
196.10215374295703
 40
0.2437848762826462
  0
CIRCLE
  8
_1-3_
  6
CONTINUOUS
 62
    7
 10
195.11065057452697
 20
196.22404618109834
 40
0.2437848762826462
  0
CIRCLE
  8
_1-3_
  6
CONTINUOUS
 62
    7
 10
192.30491839341244
 20
195.05740854112409
 40
0.2437848762826462
  0
CIRCLE
  8
_1-3_
  6
CONTINUOUS
 62
    7
 10
193.09721924133106
 20
194.99646232205342
 40
0.2437848762826462
  0
CIRCLE
  8
_1-3_
  6
CONTINUOUS
 62
    7
 10
192.36586461248311
 20
195.97160182718403
 40
0.2437848762826462
  0
CIRCLE
  8
_1-3_
  6
CONTINUOUS
 62
    7
 10
194.19425118460299
 20
195.42308585554807
 40
0.2437848762826462
  0
CIRCLE
  8
_1-3_
  6
CONTINUOUS
 62
    7
 10
195.53506800415755
 20
195.54497829368938
 40
0.2437848762826462
  0
CIRCLE
  8
_1-3_
  6
CONTINUOUS
 62
    7
 10
195.02118994304823
 20
197.77368009075988
 40
0.2437848762826462
  0
CIRCLE
  8
_1-3_
  6
CONTINUOUS
 62
    7
 10
195.81349079096685
 20
197.71273387168924
 40
0.2437848762826462
  0
CIRCLE
  8
_1-3_
  6
CONTINUOUS
 62
    7
 10
195.0821361621189
 20
198.68787337681982
 40
0.2437848762826462
  0
CIRCLE
  8
_1-3_
  6
CONTINUOUS
 62
    7
 10
196.91052273423878
 20
198.13935740518386
 40
0.2437848762826462
  0
CIRCLE
  8
_1-3_
  6
CONTINUOUS
 62
    7
 10
198.25133955379337
 20
198.26124984332517
 40
0.2437848762826462
  0
CIRCLE
  8
_1-3_
  6
CONTINUOUS
 62
    7
 10
197.90722846453627
 20
198.87716540779945
 40
0.2437848762826462
  0
CIRCLE
  8
_1-3_
  6
CONTINUOUS
 62
    7
 10
198.6995293124549
 20
198.81621918872878
 40
0.2437848762826462
  0
CIRCLE
  8
_1-3_
  6
CONTINUOUS
 62
    7
 10
197.96817468360695
 20
199.79135869385937
 40
0.2437848762826462
  0
CIRCLE
  8
_1-3_
  6
CONTINUOUS
 62
    7
 10
199.79656125572683
 20
199.24284272222343
 40
0.2437848762826462
  0
CIRCLE
  8
_1-3_
  6
CONTINUOUS
 62
    7
 10
201.13737807528139
 20
199.36473516036475
 40
0.2437848762826462
  0
CIRCLE
  8
_1-3_
  6
CONTINUOUS
 62
    7
 10
200.28396607046761
 20
197.17949568927708
 40
0.2437848762826462
  0
CIRCLE
  8
_1-3_
  6
CONTINUOUS
 62
    7
 10
201.07626691838621
 20
197.1185494702064
 40
0.2437848762826462
  0
CIRCLE
  8
_1-3_
  6
CONTINUOUS
 62
    7
 10
200.34491228953826
 20
198.09368897533699
 40
0.2437848762826462
  0
CIRCLE
  8
_1-3_
  6
CONTINUOUS
 62
    7
 10
202.17329886165814
 20
197.54517300370105
 40
0.2437848762826462
  0
CIRCLE
  8
_1-3_
  6
CONTINUOUS
 62
    7
 10
203.51411568121273
 20
197.66706544184237
 40
0.2437848762826462
  0
CIRCLE
  8
_1-3_
  6
CONTINUOUS
 62
    7
 10
201.04791744380267
 20
197.77368009075988
 40
0.2437848762826462
  0
CIRCLE
  8
_1-3_
  6
CONTINUOUS
 62
    7
 10
201.84021829172127
 20
197.71273387168924
 40
0.2437848762826462
  0
CIRCLE
  8
_1-3_
  6
CONTINUOUS
 62
    7
 10
201.10886366287335
 20
198.68787337681982
 40
0.2437848762826462
  0
CIRCLE
  8
_1-3_
  6
CONTINUOUS
 62
    7
 10
202.9372502349932
 20
198.13935740518386
 40
0.2437848762826462
  0
CIRCLE
  8
_1-3_
  6
CONTINUOUS
 62
    7
 10
204.27806705454779
 20
198.26124984332517
 40
0.2437848762826462
  0
CIRCLE
  8
_1-3_
  6
CONTINUOUS
 62
    7
 10
196.80374314749673
 20
196.58531128779424
 40
0.2437848762826462
  0
CIRCLE
  8
_1-3_
  6
CONTINUOUS
 62
    7
 10
197.59604399541536
 20
196.52436506872357
 40
0.2437848762826462
  0
CIRCLE
  8
_1-3_
  6
CONTINUOUS
 62
    7
 10
196.8646893665674
 20
197.49950457385415
 40
0.2437848762826462
  0
CIRCLE
  8
_1-3_
  6
CONTINUOUS
 62
    7
 10
198.69307593868729
 20
196.95098860221822
 40
0.2437848762826462
  0
CIRCLE
  8
_1-3_
  6
CONTINUOUS
 62
    7
 10
200.03389275824185
 20
197.07288104035953
 40
0.2437848762826462
  0
CIRCLE
  8
_1-3_
  6
CONTINUOUS
 62
    7
 10
198.07699543638853
 20
202.61203878854866
 40
0.2437848762826462
  0
CIRCLE
  8
_1-3_
  6
CONTINUOUS
 62
    7
 10
198.86929628430713
 20
202.55109256947799
 40
0.2437848762826462
  0
CIRCLE
  8
_1-3_
  6
CONTINUOUS
 62
    7
 10
198.13794165545917
 20
203.5262320746086
 40
0.2437848762826462
  0
CIRCLE
  8
_1-3_
  6
CONTINUOUS
 62
    7
 10
199.96632822757906
 20
202.97771610297264
 40
0.2437848762826462
  0
CIRCLE
  8
_1-3_
  6
CONTINUOUS
 62
    7
 10
201.30714504713364
 20
203.09960854111395
 40
0.2437848762826462
  0
CIRCLE
  8
_1-3_
  6
CONTINUOUS
 62
    7
 10
214.11997427642495
 20
199.30158283743003
 40
0.2437848762826462
  0
CIRCLE
  8
_1-3_
  6
CONTINUOUS
 62
    7
 10
214.91227512434355
 20
199.24063661835936
 40
0.2437848762826462
  0
CIRCLE
  8
_1-3_
  6
CONTINUOUS
 62
    7
 10
214.18092049549563
 20
200.21577612348997
 40
0.2437848762826462
  0
CIRCLE
  8
_1-3_
  6
CONTINUOUS
 62
    7
 10
216.00930706761548
 20
199.66726015185401
 40
0.2437848762826462
  0
CIRCLE
  8
_1-3_
  6
CONTINUOUS
 62
    7
 10
217.35012388717007
 20
199.78915258999533
 40
0.2437848762826462
  0
CIRCLE
  8
_1-3_
  6
CONTINUOUS
 62
    7
 10
215.56299353716898
 20
201.16901952780464
 40
0.2437848762826462
  0
CIRCLE
  8
_1-3_
  6
CONTINUOUS
 62
    7
 10
216.35529438508757
 20
201.10807330873396
 40
0.2437848762826462
  0
CIRCLE
  8
_1-3_
  6
CONTINUOUS
 62
    7
 10
215.62393975623962
 20
202.08321281386458
 40
0.2437848762826462
  0
CIRCLE
  8
_1-3_
  6
CONTINUOUS
 62
    7
 10
217.4523263283595
 20
201.53469684222861
 40
0.2437848762826462
  0
CIRCLE
  8
_1-3_
  6
CONTINUOUS
 62
    7
 10
218.79314314791409
 20
201.65658928036993
 40
0.2437848762826462
  0
CIRCLE
  8
_1-3_
  6
CONTINUOUS
 62
    7
 10
213.69555684679435
 20
196.58531128779424
 40
0.2437848762826462
  0
CIRCLE
  8
_1-3_
  6
CONTINUOUS
 62
    7
 10
214.48785769471297
 20
196.52436506872357
 40
0.2437848762826462
  0
CIRCLE
  8
_1-3_
  6
CONTINUOUS
 62
    7
 10
213.75650306586502
 20
197.49950457385415
 40
0.2437848762826462
  0
CIRCLE
  8
_1-3_
  6
CONTINUOUS
 62
    7
 10
215.5848896379849
 20
196.95098860221822
 40
0.2437848762826462
  0
CIRCLE
  8
_1-3_
  6
CONTINUOUS
 62
    7
 10
216.92570645753949
 20
197.07288104035953
 40
0.2437848762826462
  0
CIRCLE
  8
_1-3_
  6
CONTINUOUS
 62
    7
 10
212.67695501568093
 20
197.94344706261214
 40
0.2437848762826462
  0
CIRCLE
  8
_1-3_
  6
CONTINUOUS
 62
    7
 10
213.46925586359956
 20
197.88250084354146
 40
0.2437848762826462
  0
CIRCLE
  8
_1-3_
  6
CONTINUOUS
 62
    7
 10
212.7379012347516
 20
198.85764034867208
 40
0.2437848762826462
  0
CIRCLE
  8
_1-3_
  6
CONTINUOUS
 62
    7
 10
214.56628780687149
 20
198.30912437703611
 40
0.2437848762826462
  0
CIRCLE
  8
_1-3_
  6
CONTINUOUS
 62
    7
 10
215.90710462642605
 20
198.43101681517743
 40
0.2437848762826462
  0
CIRCLE
  8
_1-3_
  6
CONTINUOUS
 62
    7
 10
218.27926508680477
 20
197.68879660483378
 40
0.2437848762826462
  0
CIRCLE
  8
_1-3_
  6
CONTINUOUS
 62
    7
 10
219.07156593472337
 20
197.62785038576311
 40
0.2437848762826462
  0
CIRCLE
  8
_1-3_
  6
CONTINUOUS
 62
    7
 10
218.34021130587544
 20
198.6029898908937
 40
0.2437848762826462
  0
CIRCLE
  8
_1-3_
  6
CONTINUOUS
 62
    7
 10
220.1685978779953
 20
198.05447391925776
 40
0.2437848762826462
  0
CIRCLE
  8
_1-3_
  6
CONTINUOUS
 62
    7
 10
221.50941469754989
 20
198.17636635739908
 40
0.2437848762826462
  0
CIRCLE
  8
_1-3_
  6
CONTINUOUS
 62
    7
 10
221.50483755199727
 20
197.94344706261214
 40
0.2437848762826462
  0
CIRCLE
  8
_1-3_
  6
CONTINUOUS
 62
    7
 10
222.29713839991589
 20
197.88250084354146
 40
0.2437848762826462
  0
CIRCLE
  8
_1-3_
  6
CONTINUOUS
 62
    7
 10
221.56578377106794
 20
198.85764034867208
 40
0.2437848762826462
  0
CIRCLE
  8
_1-3_
  6
CONTINUOUS
 62
    7
 10
223.39417034318782
 20
198.30912437703611
 40
0.2437848762826462
  0
CIRCLE
  8
_1-3_
  6
CONTINUOUS
 62
    7
 10
224.73498716274241
 20
198.43101681517743
 40
0.2437848762826462
  0
CIRCLE
  8
_1-3_
  6
CONTINUOUS
 62
    7
 10
223.11762378459352
 20
196.16089385816363
 40
0.2437848762826462
  0
CIRCLE
  8
_1-3_
  6
CONTINUOUS
 62
    7
 10
223.90992463251214
 20
196.09994763909296
 40
0.2437848762826462
  0
CIRCLE
  8
_1-3_
  6
CONTINUOUS
 62
    7
 10
223.17857000366419
 20
197.07508714422357
 40
0.2437848762826462
  0
CIRCLE
  8
_1-3_
  6
CONTINUOUS
 62
    7
 10
225.00695657578407
 20
196.52657117258761
 40
0.2437848762826462
  0
CIRCLE
  8
_1-3_
  6
CONTINUOUS
 62
    7
 10
226.34777339533866
 20
196.64846361072892
 40
0.2437848762826462
  0
CIRCLE
  8
_1-3_
  6
CONTINUOUS
 62
    7
 10
220.74088617866221
 20
195.22717551297632
 40
0.2437848762826462
  0
CIRCLE
  8
_1-3_
  6
CONTINUOUS
 62
    7
 10
221.53318702658083
 20
195.16622929390567
 40
0.2437848762826462
  0
CIRCLE
  8
_1-3_
  6
CONTINUOUS
 62
    7
 10
220.80183239773288
 20
196.14136879903626
 40
0.2437848762826462
  0
CIRCLE
  8
_1-3_
  6
CONTINUOUS
 62
    7
 10
222.63021896985276
 20
195.59285282740029
 40
0.2437848762826462
  0
CIRCLE
  8
_1-3_
  6
CONTINUOUS
 62
    7
 10
223.97103578940732
 20
195.71474526554164
 40
0.2437848762826462
  0
CIRCLE
  8
_1-3_
  6
CONTINUOUS
 62
    7
 10
223.88157515792861
 20
198.19809752039049
 40
0.2437848762826462
  0
CIRCLE
  8
_1-3_
  6
CONTINUOUS
 62
    7
 10
224.67387600584721
 20
198.13715130131982
 40
0.2437848762826462
  0
CIRCLE
  8
_1-3_
  6
CONTINUOUS
 62
    7
 10
223.94252137699925
 20
199.1122908064504
 40
0.2437848762826462
  0
CIRCLE
  8
_1-3_
  6
CONTINUOUS
 62
    7
 10
225.77090794911913
 20
198.56377483481447
 40
0.2437848762826462
  0
CIRCLE
  8
_1-3_
  6
CONTINUOUS
 62
    7
 10
227.11172476867372
 20
198.68566727295578
 40
0.2437848762826462
  0
CIRCLE
  8
_1-3_
  6
CONTINUOUS
 62
    7
 10
223.457157728298
 20
194.63299111149348
 40
0.2437848762826462
  0
CIRCLE
  8
_1-3_
  6
CONTINUOUS
 62
    7
 10
224.24945857621663
 20
194.57204489242284
 40
0.2437848762826462
  0
CIRCLE
  8
_1-3_
  6
CONTINUOUS
 62
    7
 10
223.51810394736867
 20
195.54718439755342
 40
0.2437848762826462
  0
CIRCLE
  8
_1-3_
  6
CONTINUOUS
 62
    7
 10
225.34649051948855
 20
194.99866842591746
 40
0.2437848762826462
  0
CIRCLE
  8
_1-3_
  6
CONTINUOUS
 62
    7
 10
226.68730733904312
 20
195.1205608640588
 40
0.2437848762826462
  0
CIRCLE
  8
_1-3_
  6
CONTINUOUS
 62
    7
 10
199.60489818305865
 20
201.08413604187854
 40
0.2437848762826462
  0
CIRCLE
  8
_1-3_
  6
CONTINUOUS
 62
    7
 10
200.39719903097728
 20
201.02318982280786
 40
0.2437848762826462
  0
CIRCLE
  8
_1-3_
  6
CONTINUOUS
 62
    7
 10
199.66584440212932
 20
201.99832932793845
 40
0.2437848762826462
  0
CIRCLE
  8
_1-3_
  6
CONTINUOUS
 62
    7
 10
201.49423097424921
 20
201.44981335630251
 40
0.2437848762826462
  0
CIRCLE
  8
_1-3_
  6
CONTINUOUS
 62
    7
 10
202.83504779380377
 20
201.57170579444383
 40
0.2437848762826462
  0
CIRCLE
  8
_1-3_
  6
CONTINUOUS
 62
    7
 10
199.18048075342804
 20
206.60156262707625
 40
0.2437848762826462
  0
CIRCLE
  8
_1-3_
  6
CONTINUOUS
 62
    7
 10
199.97278160134667
 20
206.54061640800558
 40
0.2437848762826462
  0
CIRCLE
  8
_1-3_
  6
CONTINUOUS
 62
    7
 10
199.24142697249872
 20
207.51575591313616
 40
0.2437848762826462
  0
CIRCLE
  8
_1-3_
  6
CONTINUOUS
 62
    7
 10
201.0698135446186
 20
206.96723994150022
 40
0.2437848762826462
  0
CIRCLE
  8
_1-3_
  6
CONTINUOUS
 62
    7
 10
202.41063036417319
 20
207.08913237964154
 40
0.2437848762826462
  0
CIRCLE
  8
_1-3_
  6
CONTINUOUS
 62
    7
 10
201.75930579275044
 20
209.23545094183183
 40
0.2437848762826462
  0
CIRCLE
  8
_1-3_
  6
CONTINUOUS
 62
    7
 10
201.4262252228136
 20
209.40301180982001
 40
0.2437848762826462
  0
CIRCLE
  8
_1-3_
  6
CONTINUOUS
 62
    7
 10
202.52325716608553
 20
209.82963534331466
 40
0.2437848762826462
  0
CIRCLE
  8
_1-3_
  6
CONTINUOUS
 62
    7
 10
203.54185899719894
 20
207.70754819516171
 40
0.2437848762826462
  0
CIRCLE
  8
_1-3_
  6
CONTINUOUS
 62
    7
 10
203.20877842726208
 20
207.87510906314989
 40
0.2437848762826462
  0
CIRCLE
  8
_1-3_
  6
CONTINUOUS
 62
    7
 10
204.305810370534
 20
208.30173259664451
 40
0.2437848762826462
  0
CIRCLE
  8
_1-3_
  6
CONTINUOUS
 62
    7
 10
212.70927547721976
 20
203.80290784256024
 40
0.2437848762826462
  0
CIRCLE
  8
_1-3_
  6
CONTINUOUS
 62
    7
 10
212.37619490728289
 20
203.97046871054843
 40
0.2437848762826462
  0
CIRCLE
  8
_1-3_
  6
CONTINUOUS
 62
    7
 10
213.47322685055482
 20
204.39709224404305
 40
0.2437848762826462
  0
CIRCLE
  8
_1-3_
  6
CONTINUOUS
 62
    7
 10
219.16042040760479
 20
199.64361703218043
 40
0.2437848762826462
  0
CIRCLE
  8
_1-3_
  6
CONTINUOUS
 62
    7
 10
218.82733983766792
 20
199.81117790016862
 40
0.2437848762826462
  0
CIRCLE
  8
_1-3_
  6
CONTINUOUS
 62
    7
 10
219.92437178093985
 20
200.23780143366326
 40
0.2437848762826462
  0
CIRCLE
  8
_1-3_
  6
CONTINUOUS
 62
    7
 10
225.69644882391592
 20
197.26687942624909
 40
0.2437848762826462
  0
CIRCLE
  8
_1-3_
  6
CONTINUOUS
 62
    7
 10
225.36336825397905
 20
197.43444029423728
 40
0.2437848762826462
  0
CIRCLE
  8
_1-3_
  6
CONTINUOUS
 62
    7
 10
226.46040019725098
 20
197.86106382773193
 40
0.2437848762826462
  0
CIRCLE
  8
_1-3_
  6
CONTINUOUS
 62
    7
 10
213.3034598787026
 20
194.63549136253943
 40
0.2437848762826462
  0
CIRCLE
  8
_1-3_
  6
CONTINUOUS
 62
    7
 10
212.97037930876573
 20
194.80305223052761
 40
0.2437848762826462
  0
CIRCLE
  8
_1-3_
  6
CONTINUOUS
 62
    7
 10
214.06741125203766
 20
195.22967576402226
 40
0.2437848762826462
  0
CIRCLE
  8
_1-3_
  6
CONTINUOUS
 62
    7
 10
202.4383736801594
 20
195.05990879217001
 40
0.2437848762826462
  0
CIRCLE
  8
_1-3_
  6
CONTINUOUS
 62
    7
 10
202.10529311022253
 20
195.22746966015819
 40
0.2437848762826462
  0
CIRCLE
  8
_1-3_
  6
CONTINUOUS
 62
    7
 10
203.20232505349446
 20
195.65409319365284
 40
0.2437848762826462
  0
CIRCLE
  8
_1-3_
  6
CONTINUOUS
 62
    7
 10
203.28720853942059
 20
200.15291794773714
 40
0.2437848762826462
  0
CIRCLE
  8
_1-3_
  6
CONTINUOUS
 62
    7
 10
202.95412796948372
 20
200.32047881572532
 40
0.2437848762826462
  0
CIRCLE
  8
_1-3_
  6
CONTINUOUS
 62
    7
 10
204.05115991275565
 20
200.74710234921997
 40
0.2437848762826462
  0
CIRCLE
  8
_1-3_
  6
CONTINUOUS
 62
    7
 10
191.14887005198563
 20
196.24827759513568
 40
0.2437848762826462
  0
CIRCLE
  8
_1-3_
  6
CONTINUOUS
 62
    7
 10
190.81578948204876
 20
196.41583846312386
 40
0.2437848762826462
  0
CIRCLE
  8
_1-3_
  6
CONTINUOUS
 62
    7
 10
191.91282142532069
 20
196.84246199661851
 40
0.2437848762826462
  0
LINE
  8
_1-1_
  6
CONTINUOUS
 62
    7
 10
197.64997467043332
 20
204.17375437528153
 11
144.37484279990821
 21
186.14905751174763
  0
LINE
  8
_1-1_
  6
CONTINUOUS
 62
    7
 10
197.64997467043332
 20
204.17375437528153
 11
202.13678308435391
 21
190.91221989812078
  0
LINE
  8
_1-1_
  6
CONTINUOUS
 62
    7
 10
219.08292888742142
 20
204.17375437528153
 11
214.59612047350083
 21
190.91221989812078
  0
LINE
  8
_1-1_
  6
CONTINUOUS
 62
    7
 10
219.08292888742142
 20
204.17375437528153
 11
272.35806075794653
 21
186.14905751174763
  0
ENDSEC
  0
EOF
