  0
SECTION
  2
HEADER
  9
$ACADVER
  1
AC1009
  9
$INSBASE
 10
0
 20
0
 30
0
  9
$EXTMIN
 10
0
 20
0
  9
$EXTMAX
 10
420
 20
297
  9
$LIMMIN
 10
0
 20
0
  9
$LIMMAX
 10
420
 20
297
  9
$LTSCALE
 40
1
  0
ENDSEC
  0
SECTION
  2
TABLES
  0
TABLE
  2
LTYPE
 70
     9
  0
LTYPE
  2
CONTINUOUS
 70
    64
  3
実線
 72
    65
 73
     0
 40
0.0
  0
LTYPE
  2
DASHED1
 70
    64
  3
--  --  --  --  --  --  --  --  
 72
    65
 73
     2
 40
2.5
 49
1.25
 49
-1.25
  0
LTYPE
  2
DASHED2
 70
    64
  3
----    ----    ----    ----    
 72
    65
 73
     2
 40
5.0
 49
2.5
 49
-2.5
  0
LTYPE
  2
DASHED3
 70
    64
  3
------  ------  ------  ------  
 72
    65
 73
     2
 40
5.0
 49
3.75
 49
-1.25
  0
LTYPE
  2
CENTER1
 70
    64
  3
----- - ----- - ----- - ----- - 
 72
    65
 73
     4
 40
10.0
 49
6.25
 49
-1.25
 49
1.25
 49
-1.25
  0
LTYPE
  2
CENTER2
 70
    64
  3
----------  --  ----------  --  
 72
    65
 73
     4
 40
20.0
 49
12.5
 49
-2.5
 49
2.5
 49
-2.5
  0
LTYPE
  2
PHANTOM1
 70
    64
  3
--- - - --- - - --- - - --- - - 
 72
    65
 73
     6
 40
10.0
 49
3.25
 49
-1.25
 49
1.25
 49
-1.25
 49
1.25
 49
-1.25
  0
LTYPE
  2
PHANTOM2
 70
    64
  3
--------  -  -  --------  -  -  
 72
    65
 73
     6
 40
20.0
 49
10.0
 49
-2.5
 49
1.25
 49
-2.5
 49
1.25
 49
-2.5
  0
LTYPE
  2
DOT
 70
    64
  3
-   -   -   -   -   -   -   -   
 72
    65
 73
     2
 40
2.5
 49
0.625
 49
-1.875
  0
LTYPE
  2
DUMMY
 70
    64
  3
ダミー
 72
    65
 73
     0
 40
0.0
  0
LTYPE
  2
RAND1
 70
    64
  3
ランダム線1
 72
    65
 73
     4
 40
10.0
 49
1.0
 49
-2.0
 49
3.0
 49
-4.0
  0
LTYPE
  2
RAND2
 70
    64
  3
ランダム線2
 72
    65
 73
     4
 40
14.0
 49
2.0
 49
-3.0
 49
4.0
 49
-5.0
  0
LTYPE
  2
RAND3
 70
    64
  3
ランダム線3
 72
    65
 73
     4
 40
18.0
 49
3.0
 49
-4.0
 49
5.0
 49
-6.0
  0
LTYPE
  2
RAND4
 70
    64
  3
ランダム線4
 72
    65
 73
     4
 40
22.0
 49
4.0
 49
-5.0
 49
6.0
 49
-7.0
  0
LTYPE
  2
RAND5
 70
    64
  3
ランダム線5
 72
    65
 73
     4
 40
26.0
 49
5.0
 49
-6.0
 49
7.0
 49
-8.0
  0
LTYPE
  2
LONG1
 70
    64
  3
----------  --  ----------  --  
 72
    65
 73
     4
 40
40.0
 49
32.5
 49
-2.5
 49
2.5
 49
-2.5
  0
LTYPE
  2
LONG2
 70
    64
  3
--------  -  -  --------  -  -  
 72
    65
 73
     6
 40
40.0
 49
30.0
 49
-2.5
 49
1.25
 49
-2.5
 49
1.25
 49
-2.5
  0
LTYPE
  2
LONG3
 70
    64
  3
+++++++++++++++..+++++++++++++++
 72
    65
 73
     2
 40
40.0
 49
37.5
 49
-2.5
  0
LTYPE
  2
LONG4
 70
    64
  3
+++++++++++++++..+++++++++++++++
 72
    65
 73
     2
 40
80.0
 49
75.0
 49
-5.0
  0
LTYPE
  2
LONG5
 70
    64
  3
----------  --  ----------  --  
 72
    65
 73
     4
 40
60.0
 49
37.5
 49
-7.5
 49
7.5
 49
-7.5
  0
LTYPE
  2
dashed
 70
   64
  3
-------   -------------   ------
 72
   65
 73
    2
 40
7.5
 49
6
 49
-1.5
  0
LTYPE
  2
dashed_spaced
 70
   64
  3
----        --------        ----
 72
   65
 73
    2
 40
12
 49
6
 49
-6
  0
LTYPE
  2
long_dashed_dotted
 70
   64
  3
------------- --- --------------
 72
   65
 73
    4
 40
15.25
 49
12
 49
-1.5
 49
0.25
 49
-1.5
  0
LTYPE
  2
long_dashed_double-dotted
 70
   64
  3
----------- --- --- ------------
 72
   65
 73
    6
 40
17
 49
12
 49
-1.5
 49
0.25
 49
-1.5
 49
0.25
 49
-1.5
  0
LTYPE
  2
long_dashed_triplicate-dotted
 70
   64
  3
--------- --- --- --- ----------
 72
   65
 73
    8
 40
18.75
 49
12
 49
-1.5
 49
0.25
 49
-1.5
 49
0.25
 49
-1.5
 49
0.25
 49
-1.5
  0
LTYPE
  2
dotted
 70
   64
  3
   -       -       -       -    
 72
   65
 73
    2
 40
1.75
 49
0.25
 49
-1.5
  0
LTYPE
  2
chain
 70
   64
  3
-------------- -- --------------
 72
   65
 73
    4
 40
18.5
 49
12
 49
-1.5
 49
3.5
 49
-1.5
  0
LTYPE
  2
chain_double_dash
 70
   64
  3
------------ -- -- -------------
 72
   65
 73
    6
 40
23.5
 49
12
 49
-1.5
 49
3.5
 49
-1.5
 49
3.5
 49
-1.5
  0
LTYPE
  2
dashed_dotted
 70
   64
  3
-----------     -     ----------
 72
   65
 73
    4
 40
9.25
 49
6
 49
-1.5
 49
0.25
 49
-1.5
  0
LTYPE
  2
double-dashed_dotted
 70
   64
  3
------   -----------   -   -----
 72
   65
 73
    6
 40
16.75
 49
6
 49
-1.5
 49
6
 49
-1.5
 49
0.25
 49
-1.5
  0
LTYPE
  2
dashed_double-dotted
 70
   64
  3
---------    -    -    ---------
 72
   65
 73
    6
 40
11
 49
6
 49
-1.5
 49
0.25
 49
-1.5
 49
0.25
 49
-1.5
  0
LTYPE
  2
double-dashed_double-dotted
 70
   64
  3
-----   ---------   -   -   ----
 72
   65
 73
    8
 40
18.5
 49
6
 49
-1.5
 49
6
 49
-1.5
 49
0.25
 49
-1.5
 49
0.25
 49
-1.5
  0
LTYPE
  2
dashed_triplicate-dotted
 70
   64
  3
-------    -    -    -    ------
 72
   65
 73
    8
 40
12.75
 49
6
 49
-1.5
 49
0.25
 49
-1.5
 49
0.25
 49
-1.5
 49
0.25
 49
-1.5
  0
LTYPE
  2
double-dashed_triplicate-dotted
 70
   64
  3
-----  ---------  -  -  -  -----
 72
   65
 73
   10
 40
20.25
 49
6
 49
-1.5
 49
6
 49
-1.5
 49
0.25
 49
-1.5
 49
0.25
 49
-1.5
 49
0.25
 49
-1.5
  0
LTYPE
  2
undefined
 70
   64
  3
--------------------------------
 72
   65
 73
    0
 40
0
  0
ENDTAB
  0
TABLE
  2
STYLE
  5
3
100
AcDbSymbolTable
 70
     1
  0
STYLE
  5
10
100
AcDbSymbolTableRecord
100
AcDbTextStyleTableRecord
  2
STANDARD
 70
     0
 40
0.0
 41
1.0
 50
0.0
 71
     0
 42
0.2
  3
txt
  4
bigfont.shx
  0
STYLE
  5
26
100
AcDbSymbolTableRecord
100
AcDbTextStyleTableRecord
  2
TATEGAKI
 70
    68
 40
0.0
 41
1.0
 50
0.0
 71
     0
 42
1.0
  3
txt
  4
bigfont.shx
  0
ENDTAB
  0
TABLE
  2
LAYER
 70
   11
  0
LAYER
  2
_0-0_
 70
   64
 62
    7
  6
CONTINUOUS
  0
LAYER
  2
_0-1_
 70
   64
 62
    7
  6
CONTINUOUS
  0
LAYER
  2
_1-0_
 70
   64
 62
    7
  6
CONTINUOUS
  0
LAYER
  2
_1-1_
 70
   64
 62
    7
  6
CONTINUOUS
  0
LAYER
  2
_1-2_
 70
   64
 62
    7
  6
CONTINUOUS
  0
LAYER
  2
_1-3_
 70
   64
 62
    7
  6
CONTINUOUS
  0
LAYER
  2
_1-4_
 70
   64
 62
    7
  6
CONTINUOUS
  0
LAYER
  2
_1-5_
 70
   64
 62
    7
  6
CONTINUOUS
  0
LAYER
  2
_1-9_
 70
   64
 62
    7
  6
CONTINUOUS
  0
LAYER
  2
_1-a_
 70
   64
 62
    7
  6
CONTINUOUS
  0
LAYER
  2
ADD_LINE
 70
   64
 62
    7
  6
CONTINUOUS
  0
ENDTAB
  0
ENDSEC
  0
SECTION
  2
BLOCKS
  0
ENDSEC
  0
SECTION
  2
ENTITIES
  0
LINE
  8
_1-0_
  6
CONTINUOUS
 62
    7
 10
118.39502318370984
 20
123.03538817205936
 11
365.74782912795609
 21
234.34416899809966
  0
LINE
  8
_0-0_
  6
CONTINUOUS
 62
    7
 10
211.80008518517315
 20
25.173528369770253
 11
211.80008518517315
 21
10.573505100116932
  0
LINE
  8
ADD_LINE
  6
DOT
 62
    7
 10
124.20008671105205
 20
22.330720599994862
 11
203.56305515587627
 21
22.330720599994862
  0
LINE
  8
_0-0_
  6
CONTINUOUS
 62
    7
 10
5.9400998336106454
 20
25.173528369770253
 11
411.09012424767315
 21
25.173528369770253
  0
LINE
  8
_1-0_
  6
CONTINUOUS
 62
    7
 10
122.13233741554055
 20
120.11152112806167
 11
367.47137121252115
 21
230.51409747149495
  0
LINE
  8
_1-0_
  6
CONTINUOUS
 62
    7
 10
127.05671155774917
 20
109.16845785604941
 11
372.39574535472974
 21
219.57104657147383
  0
LINE
  8
_1-0_
  6
CONTINUOUS
 62
    7
 10
128.698165481155
 20
105.52077422270904
 11
374.03723639410896
 21
215.92336293813347
  0
LINE
  8
_1-0_
  6
CONTINUOUS
 62
    7
 10
129.19060784417229
 20
104.42647160710516
 11
374.5296911291174
 21
214.82906032252959
  0
LINE
  8
_1-0_
  6
CONTINUOUS
 62
    7
 10
128.698165481155
 20
105.52077422270904
 11
127.73728241791596
 21
105.08837313265414
  0
LINE
  8
_1-0_
  6
CONTINUOUS
 62
    7
 10
127.73728241791596
 20
105.08837313265414
 11
128.22972478093328
 21
103.99407051705026
  0
LINE
  8
_1-0_
  6
CONTINUOUS
 62
    7
 10
129.19060784417229
 20
104.42647160710516
 11
128.22972478093328
 21
103.99407051705026
  0
LINE
  8
_1-0_
  6
CONTINUOUS
 62
    7
 10
130.91414992873734
 20
100.59640626649599
 11
126.53692709433066
 21
98.626655372413438
  0
LINE
  8
_1-0_
  6
CONTINUOUS
 62
    7
 10
129.19062021616344
 20
104.42647160710516
 11
130.91414992873734
 21
100.59640626649599
  0
LINE
  8
_1-0_
  6
CONTINUOUS
 62
    7
 10
117.755126953125
 20
118.14177641997468
 11
126.53692709433066
 21
98.626655372413438
  0
LINE
  8
_1-0_
  6
CONTINUOUS
 62
    7
 10
122.13233741554055
 20
120.11152112806167
 11
128.69817785314612
 21
105.52077422270904
  0
LINE
  8
_1-0_
  6
CONTINUOUS
 62
    7
 10
128.69817785314612
 20
105.52077422270904
 11
127.0567239297403
 21
109.16845785604941
  0
LINE
  8
_1-0_
  6
CONTINUOUS
 62
    7
 10
127.0567239297403
 20
109.16845785604941
 11
134.35209119642104
 21
112.4513780748522
  0
LINE
  8
_1-0_
  6
CONTINUOUS
 62
    7
 10
134.35209119642104
 20
112.4513780748522
 11
135.993557491818
 21
108.80369444151184
  0
LINE
  8
_1-0_
  6
CONTINUOUS
 62
    7
 10
135.993557491818
 20
108.80369444151184
 11
128.69817785314612
 21
105.52077422270904
  0
LINE
  8
_1-0_
  6
CONTINUOUS
 62
    7
 10
183.41344472524284
 20
130.14265730574326
 11
181.77199080183701
 21
133.79034093908362
  0
LINE
  8
_1-0_
  6
CONTINUOUS
 62
    7
 10
181.77199080183701
 20
133.79034093908362
 11
189.06735806851773
 21
137.07326115788641
  0
LINE
  8
_1-0_
  6
CONTINUOUS
 62
    7
 10
189.06735806851773
 20
137.07326115788641
 11
190.70882436391472
 21
133.42557752454604
  0
LINE
  8
_1-0_
  6
CONTINUOUS
 62
    7
 10
190.70882436391472
 20
133.42557752454604
 11
183.41344472524284
 21
130.14265730574326
  0
LINE
  8
_1-0_
  6
CONTINUOUS
 62
    7
 10
238.12876108530406
 20
154.76454038877745
 11
236.48729478990711
 21
158.41222402211784
  0
LINE
  8
_1-0_
  6
CONTINUOUS
 62
    7
 10
236.48729478990711
 20
158.41222402211784
 11
243.78266205658784
 21
161.69514424092063
  0
LINE
  8
_1-0_
  6
CONTINUOUS
 62
    7
 10
243.78266205658784
 20
161.69514424092063
 11
245.42412835198482
 21
158.04746060758023
  0
LINE
  8
_1-0_
  6
CONTINUOUS
 62
    7
 10
245.42412835198482
 20
158.04746060758023
 11
238.12876108530406
 21
154.76454038877745
  0
LINE
  8
_1-0_
  6
CONTINUOUS
 62
    7
 10
292.84404032939193
 20
179.38642347181167
 11
291.20257403399495
 21
183.03410710515203
  0
LINE
  8
_1-0_
  6
CONTINUOUS
 62
    7
 10
291.20257403399495
 20
183.03410710515203
 11
298.49794130067568
 21
186.31702732395482
  0
LINE
  8
_1-0_
  6
CONTINUOUS
 62
    7
 10
298.49794130067568
 20
186.31702732395482
 11
300.13940759607266
 21
182.66934369061445
  0
LINE
  8
_1-0_
  6
CONTINUOUS
 62
    7
 10
300.13940759607266
 20
182.66934369061445
 11
292.84404032939193
 21
179.38642347181167
  0
LINE
  8
_1-0_
  6
CONTINUOUS
 62
    7
 10
134.35209119642104
 20
112.4513780748522
 11
128.698165481155
 21
105.52077422270904
  0
LINE
  8
_1-0_
  6
CONTINUOUS
 62
    7
 10
189.06735806851773
 20
137.07324878589529
 11
183.41345709723396
 21
130.14266967773437
  0
LINE
  8
_1-0_
  6
CONTINUOUS
 62
    7
 10
243.78266205658784
 20
161.69514424092063
 11
238.1287363413218
 21
154.76456513275971
  0
LINE
  8
_1-0_
  6
CONTINUOUS
 62
    7
 10
298.49794130067568
 20
186.31702732395482
 11
292.84401558540964
 21
179.38646058778505
  0
LINE
  8
_1-0_
  6
CONTINUOUS
 62
    7
 10
128.24544958166175
 20
99.395488017314193
 11
130.45862558725719
 21
101.60867639490077
  0
LINE
  8
_1-0_
  6
CONTINUOUS
 62
    7
 10
126.30188400680954
 20
99.148976094013946
 11
129.93196229676943
 21
102.77905438397383
  0
LINE
  8
_1-0_
  6
CONTINUOUS
 62
    7
 10
125.77520834433066
 20
100.31936645507812
 11
129.40528663429055
 21
103.94944474503801
  0
LINE
  8
_1-0_
  6
CONTINUOUS
 62
    7
 10
125.24853268185178
 20
101.48975063014676
 11
128.08173102301521
 21
104.32294278531462
  0
LINE
  8
_1-0_
  6
CONTINUOUS
 62
    7
 10
124.72185701937289
 20
102.66013480521538
 11
128.35193530933279
 21
106.29020072318413
  0
LINE
  8
_1-0_
  6
CONTINUOUS
 62
    7
 10
124.19519372888514
 20
103.83051279428844
 11
127.82525964685389
 21
107.46059108424832
  0
LINE
  8
_1-0_
  6
CONTINUOUS
 62
    7
 10
123.66851806640625
 20
105.0008907833615
 11
127.29859635636613
 21
108.63096907332138
  0
LINE
  8
_1-0_
  6
CONTINUOUS
 62
    7
 10
123.14184240392737
 20
106.17128114442568
 11
126.77192069388725
 21
109.80134706239443
  0
LINE
  8
_1-0_
  6
CONTINUOUS
 62
    7
 10
122.61517911343962
 20
107.34165913349874
 11
126.24524503140837
 21
110.97172505146749
  0
LINE
  8
_1-0_
  6
CONTINUOUS
 62
    7
 10
122.08850345096073
 20
108.51204949456293
 11
125.71856936892948
 21
112.14211541253168
  0
LINE
  8
_1-0_
  6
CONTINUOUS
 62
    7
 10
121.56182778848185
 20
109.68242748363599
 11
125.1918937064506
 21
113.31249340160474
  0
LINE
  8
_1-0_
  6
CONTINUOUS
 62
    7
 10
121.03515212600296
 20
110.85281784470017
 11
124.66523041596284
 21
114.48288376266892
  0
LINE
  8
_1-0_
  6
CONTINUOUS
 62
    7
 10
120.50848883551521
 20
112.02319583377323
 11
124.13855475348396
 21
115.65326175174198
  0
LINE
  8
_1-0_
  6
CONTINUOUS
 62
    7
 10
119.98181317303633
 20
113.19357382284629
 11
123.61187909100508
 21
116.82363974081504
  0
LINE
  8
_1-0_
  6
CONTINUOUS
 62
    7
 10
119.45513751055744
 20
114.36396418391048
 11
123.08520342852619
 21
117.99403010187923
  0
LINE
  8
_1-0_
  6
CONTINUOUS
 62
    7
 10
118.92847422006969
 20
115.53435454497468
 11
122.55854013803844
 21
119.16442046294343
  0
LINE
  8
_1-0_
  6
CONTINUOUS
 62
    7
 10
118.40179855759079
 20
116.70473253404772
 11
121.5436904494827
 21
119.84663679793076
  0
LINE
  8
_1-0_
  6
CONTINUOUS
 62
    7
 10
117.87512289511191
 20
117.87512289511191
 11
118.45814060520482
 21
118.45812823321369
  0
LINE
  8
_1-1_
  6
CONTINUOUS
 62
    7
 10
364.98613512193839
 20
234.0014153557855
 11
360.60889991554058
 21
232.03167064769849
  0
LINE
  8
_0-1_
  6
CONTINUOUS
 62
    7
 10
124.86486486486487
 20
107.83783783783784
 11
110.27088886982686
 21
67.741222897091433
  0
LINE
  8
_0-1_
  6
CONTINUOUS
 62
    7
 10
110.27088886982686
 20
67.741222897091433
 11
106.21621621621622
 21
67.741222897091433
  0
LINE
  8
_0-0_
  6
CONTINUOUS
 62
    5
 10
5.9400998336106454
 20
293.08350914369601
 11
411.09012424767315
 21
293.08350914369601
  0
LINE
  8
_0-0_
  6
CONTINUOUS
 62
    5
 10
5.9400998336106454
 20
8.383527454242909
 11
411.09012424767315
 21
8.383527454242909
  0
LINE
  8
_0-0_
  6
CONTINUOUS
 62
    7
 10
411.09012424767315
 20
25.173528369770253
 11
411.09012424767315
 21
10.573505100116932
  0
LINE
  8
_0-0_
  6
CONTINUOUS
 62
    7
 10
5.9400998336106454
 20
14.327831443653309
 11
5.9400998336106454
 21
10.573505100116932
  0
LINE
  8
_0-0_
  6
CONTINUOUS
 62
    7
 10
5.9400998336106454
 20
25.173528369770253
 11
5.9400998336106454
 21
19.350435909137929
  0
LINE
  8
_0-0_
  6
CONTINUOUS
 62
    7
 10
5.9400998336106454
 20
19.350435909137929
 11
5.9400998336106454
 21
18.993301090107167
  0
LINE
  8
_0-0_
  6
CONTINUOUS
 62
    7
 10
5.9400998336106454
 20
19.350435909137929
 11
5.9400998336106454
 21
14.327831443653309
  0
LINE
  8
_0-0_
  6
CONTINUOUS
 62
    7
 10
5.9400998336106454
 20
10.573505100116932
 11
411.09012424767315
 21
10.573505100116932
  0
LINE
  8
_0-0_
  6
CONTINUOUS
 62
    7
 10
406.1341305953294
 20
21.027890857563222
 11
398.35132419884502
 21
13.245039638385975
  0
LINE
  8
_0-0_
  6
CONTINUOUS
 62
    7
 10
411.09012424767315
 20
10.573505100116932
 11
411.09012424767315
 21
25.173528369770253
  0
LINE
  8
_0-0_
  6
CONTINUOUS
 62
    7
 10
288.45007908165752
 20
25.173528369770253
 11
288.45007908165752
 21
18.513324436054432
  0
LINE
  8
_0-0_
  6
CONTINUOUS
 62
    7
 10
288.45007908165752
 20
18.513324436054432
 11
288.45007908165752
 21
10.573505100116932
  0
LINE
  8
_0-0_
  6
CONTINUOUS
 62
    7
 10
211.80008518517315
 20
17.873527225361073
 11
287.20709812462627
 21
17.873527225361073
  0
LINE
  8
_0-0_
  6
CONTINUOUS
 62
    7
 10
305.24005710900127
 20
25.173528369770253
 11
305.24005710900127
 21
19.350435909137929
  0
LINE
  8
_0-0_
  6
CONTINUOUS
 62
    7
 10
305.24005710900127
 20
19.350435909137929
 11
305.24005710900127
 21
10.573505100116932
  0
LINE
  8
_0-0_
  6
CONTINUOUS
 62
    7
 10
211.80008518517315
 20
17.873527225361073
 11
288.45007908165752
 21
17.873527225361073
  0
LINE
  8
_0-0_
  6
CONTINUOUS
 62
    7
 10
392.84009373009502
 20
25.173528369770253
 11
392.84009373009502
 21
10.573505100116932
  0
LINE
  8
ADD_LINE
  6
DOT
 62
    7
 10
17.018442271354786
 20
22.330720599994862
 11
4.0299762469559823
 21
22.330720599994862
  0
LINE
  8
ADD_LINE
  6
DOT
 62
    7
 10
17.018442271354786
 20
22.330720599994862
 11
47.260263560417286
 21
22.330720599994862
  0
LINE
  8
ADD_LINE
  6
DOT
 62
    7
 10
47.260263560417286
 20
22.330720599994862
 11
125.52866947472393
 21
22.330720599994862
  0
LINE
  8
ADD_LINE
  6
DOT
 62
    7
 10
203.56305515587627
 20
22.330720599994862
 11
327.21036350548565
 21
22.330720599994862
  0
LINE
  8
_0-0_
  6
CONTINUOUS
 62
    7
 10
261.44006931603252
 20
17.873527225361073
 11
261.44006931603252
 21
10.573505100116932
  0
LINE
  8
ADD_LINE
  6
DOT
 62
    7
 10
212.97090732872783
 20
15.077792343006337
 11
271.41559421837627
 21
15.077792343006337
  0
LINE
  8
ADD_LINE
  6
DOT
 62
    7
 10
327.21036350548565
 20
22.330720599994862
 11
402.2135983687669
 21
22.330720599994862
  0
TEXT
  8
_0-0_
 62
    7
 10
7.7167752963334237
 20
22.090173419819081
 40
2
 41
1
 50
0
  1
特記
  0
TEXT
  8
_0-0_
 62
    7
 10
211.79891025841533
 20
22.076450046405995
 40
2
 41
1
 50
0
  1
図面名
  0
TEXT
  8
_0-0_
 62
    7
 10
212.12714206993877
 20
14.740292724476063
 40
2
 41
1
 50
0
  1
SCALE
  0
TEXT
  8
_0-0_
 62
    7
 10
262.29389011681377
 20
14.65577047716161
 40
2
 41
1
 50
0
  1
DATE
  0
TEXT
  8
_0-0_
 62
    7
 10
289.54117405236065
 20
22.14640301118871
 40
2
 41
1
 50
0
  1
担当
  0
TEXT
  8
_0-0_
 62
    7
 10
393.84198581993877
 20
21.865903552875722
 40
2.5
 41
1
 50
0
  1
NO
  0
LINE
  8
_0-0_
  6
CONTINUOUS
 62
    4
 10
16.481680033805958
 20
21.604752239093983
 11
211.80008518517315
 21
21.604752239093983
  0
LINE
  8
_0-0_
  6
CONTINUOUS
 62
    4
 10
16.481680033805958
 20
17.954751666889393
 11
211.80008518517315
 21
17.954751666889393
  0
LINE
  8
_0-0_
  6
CONTINUOUS
 62
    4
 10
16.481680033805958
 20
14.304773982868397
 11
211.80008518517315
 21
14.304773982868397
  0
LINE
  8
ADD_LINE
  6
DOT
 62
    4
 10
85.731645790616568
 20
143.00484223919148
 11
104.46054880470963
 21
101.38496713985111
  0
LINE
  8
ADD_LINE
  6
DOT
 62
    4
 10
138.6231124846924
 20
166.8059504266156
 11
157.35201549878548
 21
125.18607532727523
  0
LINE
  8
_1-1_
  6
CONTINUOUS
 62
    7
 10
147.21929586934039
 20
136.0063114808199
 11
145.98819614779262
 21
138.74208039182074
  0
LINE
  8
_1-1_
  6
CONTINUOUS
 62
    7
 10
145.98819614779262
 20
138.74208039182074
 11
150.36543135419043
 21
140.71183747189886
  0
LINE
  8
_1-1_
  6
CONTINUOUS
 62
    7
 10
150.36543135419043
 20
140.71183747189886
 11
151.59653107573814
 21
137.97606856089803
  0
LINE
  8
_1-1_
  6
CONTINUOUS
 62
    7
 10
151.59653107573814
 20
137.97606856089803
 11
147.21929586934039
 21
136.0063114808199
  0
LINE
  8
_1-1_
  6
CONTINUOUS
 62
    7
 10
147.21929586934039
 20
136.0063114808199
 11
150.36543135419043
 21
140.71183747189886
  0
LINE
  8
ADD_LINE
  6
DOT
 62
    4
 10
181.84820767950609
 20
186.25720091082084
 11
200.57711069359914
 21
144.63732581148045
  0
LINE
  8
ADD_LINE
  6
DOT
 62
    4
 10
225.07330287431978
 20
205.70845139502606
 11
243.80220588841286
 21
164.08857629568567
  0
LINE
  8
ADD_LINE
  6
DOT
 62
    4
 10
268.2983980691335
 20
225.15970187923128
 11
287.02730108322652
 21
183.53982677989092
  0
LINE
  8
ADD_LINE
  6
DOT
 62
    4
 10
311.52349326394716
 20
244.6109523634365
 11
330.25239627804024
 21
202.99107726409613
  0
LINE
  8
_1-1_
  6
CONTINUOUS
 62
    7
 10
190.44437420536988
 20
155.45759942906716
 11
189.21327448382218
 21
158.19336834006799
  0
LINE
  8
_1-1_
  6
CONTINUOUS
 62
    7
 10
189.21327448382218
 20
158.19336834006799
 11
193.59052206221111
 21
160.16312542014612
  0
LINE
  8
_1-1_
  6
CONTINUOUS
 62
    7
 10
193.59052206221111
 20
160.16312542014612
 11
194.8216094117677
 21
157.42735650914528
  0
LINE
  8
_1-1_
  6
CONTINUOUS
 62
    7
 10
194.8216094117677
 20
157.42735650914528
 11
190.44437420536988
 21
155.45759942906716
  0
LINE
  8
_1-1_
  6
CONTINUOUS
 62
    7
 10
190.44437420536988
 20
155.45759942906716
 11
193.59052206221111
 21
160.16312542014612
  0
LINE
  8
_1-1_
  6
CONTINUOUS
 62
    7
 10
233.6694542290229
 20
174.90888362701602
 11
232.43836687946629
 21
177.64465253801689
  0
LINE
  8
_1-1_
  6
CONTINUOUS
 62
    7
 10
232.43836687946629
 20
177.64465253801689
 11
236.8156020858641
 21
179.61440961809501
  0
LINE
  8
_1-1_
  6
CONTINUOUS
 62
    7
 10
236.8156020858641
 20
179.61440961809501
 11
238.04668943542072
 21
176.87864070709415
  0
LINE
  8
_1-1_
  6
CONTINUOUS
 62
    7
 10
238.04668943542072
 20
176.87864070709415
 11
233.6694542290229
 21
174.90888362701602
  0
LINE
  8
_1-1_
  6
CONTINUOUS
 62
    7
 10
233.6694542290229
 20
174.90888362701602
 11
236.8156020858641
 21
179.61440961809501
  0
LINE
  8
_1-1_
  6
CONTINUOUS
 62
    7
 10
276.89453012015605
 20
194.36018938039811
 11
275.66344277059949
 21
197.09595829139897
  0
LINE
  8
_1-1_
  6
CONTINUOUS
 62
    7
 10
275.66344277059949
 20
197.09595829139897
 11
280.0406779769973
 21
199.06570299948595
  0
LINE
  8
_1-1_
  6
CONTINUOUS
 62
    7
 10
280.0406779769973
 20
199.06570299948595
 11
281.27176532655386
 21
196.32993408848512
  0
LINE
  8
_1-1_
  6
CONTINUOUS
 62
    7
 10
281.27176532655386
 20
196.32993408848512
 11
276.89453012015605
 21
194.36018938039811
  0
LINE
  8
_1-1_
  6
CONTINUOUS
 62
    7
 10
276.89453012015605
 20
194.36018938039811
 11
280.0406779769973
 21
199.06570299948595
  0
LINE
  8
_1-1_
  6
CONTINUOUS
 62
    7
 10
320.11960827847452
 20
213.81147772356417
 11
318.88852092891796
 21
216.547246634565
  0
LINE
  8
_1-1_
  6
CONTINUOUS
 62
    7
 10
318.88852092891796
 20
216.547246634565
 11
323.26575613531577
 21
218.51699134265198
  0
LINE
  8
_1-1_
  6
CONTINUOUS
 62
    7
 10
323.26575613531577
 20
218.51699134265198
 11
324.49684348487233
 21
215.78122243165114
  0
LINE
  8
_1-1_
  6
CONTINUOUS
 62
    7
 10
324.49684348487233
 20
215.78122243165114
 11
320.11960827847452
 21
213.81147772356417
  0
LINE
  8
_1-1_
  6
CONTINUOUS
 62
    7
 10
320.11960827847452
 20
213.81147772356417
 11
323.26575613531577
 21
218.51699134265198
  0
LINE
  8
ADD_LINE
  6
DOT
 62
    4
 10
365.74782912795609
 20
234.34416899809966
 11
361.85982604991545
 21
242.98417496696777
  0
TEXT
  8
_0-1_
 62
    7
 10
94.692179700499167
 20
66.386855241264556
 40
3
 41
1
 50
0
  1
鼻隠　
  0
LINE
  8
_0-1_
  6
CONTINUOUS
 62
    7
 10
262.18454064289915
 20
104.20558705244906
 11
268.27259952697858
 21
104.20558705244906
  0
LINE
  8
_0-1_
  6
CONTINUOUS
 62
    7
 10
251.99338513191947
 20
132.2055804540538
 11
268.27259952697858
 21
132.2055804540538
  0
LINE
  8
_0-1_
  6
CONTINUOUS
 62
    7
 10
254.54117400966436
 20
125.2055821036526
 11
268.27259952697858
 21
125.2055821036526
  0
LINE
  8
_0-1_
  6
CONTINUOUS
 62
    7
 10
257.08896288740931
 20
118.20558375325143
 11
268.27259952697858
 21
118.20558375325143
  0
LINE
  8
_0-1_
  6
CONTINUOUS
 62
    7
 10
259.63675176515426
 20
111.20558540285023
 11
268.27259952697858
 21
111.20558540285023
  0
TEXT
  8
_0-1_
 62
    7
 10
274.75908188946801
 20
130.31719395964925
 40
3
 41
1
 50
0
  1
瓦桟
  0
TEXT
  8
_0-1_
 62
    7
 10
274.75908601346504
 20
122.81328441045159
 40
3
 41
1
 50
0
  1
流し桟
  0
TEXT
  8
_0-1_
 62
    7
 10
274.75909013746212
 20
115.53006643906224
 40
3
 41
1
 50
0
  1
下葺き材
  0
TEXT
  8
_0-1_
 62
    7
 10
274.75908601346504
 20
108.90897268906224
 40
3
 41
1
 50
0
  1
野地板
  0
TEXT
  8
_0-1_
 62
    7
 10
274.75908188946801
 20
102.28786656707109
 40
3
 41
1
 50
0
  1
垂木
  0
TEXT
  8
_0-1_
 62
    7
 10
289.14080400464962
 20
108.90897268906224
 40
3
 41
1
 50
0
  1
耐水合板　ｔ＝12
  0
TEXT
  8
_1-4_
 62
    7
 10
289.14080812864665
 20
130.31719395964925
 40
3
 41
1
 50
0
  1
18ｘ24
  0
TEXT
  8
_1-4_
 62
    7
 10
289.14080400464962
 20
115.53006643906224
 40
3
 41
1
 50
0
  1
ゴムアス系ルーフィング
  0
TEXT
  8
_1-4_
 62
    7
 10
289.14080812864665
 20
102.28786656707109
 40
3
 41
1
 50
0
  1
60ｘ60
  0
LINE
  8
_1-9_
  6
CONTINUOUS
 62
    7
 10
262.18454064289915
 20
104.20558705244906
 11
251.99338513191947
 21
132.2055804540538
  0
LINE
  8
_1-9_
  6
CONTINUOUS
 62
    7
 10
251.99338513191947
 20
132.2055804540538
 11
235.65008242510874
 21
177.10847368894258
  0
LINE
  8
_1-a_
  6
CONTINUOUS
 62
    7
 10
76.913667740955617
 20
162.60033497887801
 11
129.80511279017711
 21
186.40149031518914
  0
POINT
  8
_1-a_
 62
    7
 10
76.913667740955617
 20
162.60033497887801
  0
POINT
  8
_1-a_
 62
    7
 10
129.80511279017711
 20
186.40149031518914
  0
LINE
  8
_1-a_
  6
CONTINUOUS
 62
    7
 10
76.913667740955617
 20
162.60033497887801
 11
87.903980329031555
 21
138.17742331294045
  0
LINE
  8
_1-a_
  6
CONTINUOUS
 62
    7
 10
129.80511279017711
 20
186.40149031518914
 11
140.79542537825304
 21
161.97857864925157
  0
TEXT
  8
_1-a_
 62
    7
 10
101.44435512965821
 20
174.18743947714933
 40
2.5
 41
1
 50
24.227749880000005
  1
290
  0
LINE
  8
_1-a_
  6
CONTINUOUS
 62
    7
 10
129.80511279017711
 20
186.40149031518914
 11
173.0301908948295
 21
205.85277960092506
  0
POINT
  8
_1-a_
 62
    7
 10
173.0301908948295
 20
205.85277960092506
  0
LINE
  8
_1-a_
  6
CONTINUOUS
 62
    7
 10
173.0301908948295
 20
205.85277960092506
 11
184.02050348290541
 21
181.4298679349875
  0
TEXT
  8
_1-a_
 62
    7
 10
149.50261670659515
 20
195.81366178817285
 40
2.5
 41
1
 50
24.227749880000005
  1
237
  0
LINE
  8
_1-a_
  6
CONTINUOUS
 62
    7
 10
173.0301908948295
 20
205.85277960092506
 11
216.25526618406107
 21
225.30406761972137
  0
POINT
  8
_1-a_
 62
    7
 10
216.25526618406107
 20
225.30406761972137
  0
LINE
  8
_1-a_
  6
CONTINUOUS
 62
    7
 10
216.25526618406107
 20
225.30406761972137
 11
227.24557877213701
 21
200.8811559537838
  0
TEXT
  8
_1-a_
 62
    7
 10
192.72769340353713
 20
215.26495044043895
 40
2.5
 41
1
 50
24.227749880000079
  1
237
  0
LINE
  8
_1-a_
  6
CONTINUOUS
 62
    7
 10
216.25526618406107
 20
225.30406761972137
 11
259.48034591058268
 21
244.75535763529859
  0
POINT
  8
_1-a_
 62
    7
 10
259.48034591058268
 20
244.75535763529859
  0
LINE
  8
_1-a_
  6
CONTINUOUS
 62
    7
 10
259.48034591058268
 20
244.75535763529859
 11
270.47065849865862
 21
220.33244596936103
  0
TEXT
  8
_1-a_
 62
    7
 10
235.95277091141372
 20
234.71623945762573
 40
2.5
 41
1
 50
24.227749880000079
  1
237
  0
LINE
  8
_1-a_
  6
CONTINUOUS
 62
    7
 10
259.48034591058268
 20
244.75535763529859
 11
302.70542310713461
 21
264.20664651238928
  0
POINT
  8
_1-a_
 62
    7
 10
302.70542310713461
 20
264.20664651238928
  0
LINE
  8
_1-a_
  6
CONTINUOUS
 62
    7
 10
302.70542310713461
 20
264.20664651238928
 11
313.6957356952106
 21
239.78373484645169
  0
TEXT
  8
_1-a_
 62
    7
 10
279.1778493729505
 20
254.16752890395969
 40
2.5
 41
1
 50
24.227749880000104
  1
237
  0
LINE
  8
_1-a_
  6
CONTINUOUS
 62
    7
 10
81.745220962716587
 20
151.86355232609253
 11
96.335939002668113
 21
158.42937684107835
  0
POINT
  8
_1-a_
 62
    7
 10
81.745220962716587
 20
151.86355232609253
  0
POINT
  8
_1-a_
 62
    7
 10
96.335939002668113
 20
158.42937684107835
  0
LINE
  8
_1-a_
  6
CONTINUOUS
 62
    7
 10
81.745220962716587
 20
151.86355232609253
 11
87.589495246894032
 21
138.87627890232864
  0
LINE
  8
_1-a_
  6
CONTINUOUS
 62
    7
 10
96.335939002668113
 20
158.42937684107835
 11
102.18021328684556
 21
145.44210341731446
  0
TEXT
  8
_1-a_
 62
    7
 10
87.695495767097171
 20
155.08946938241272
 40
2.5
 41
1
 50
24.227749880000029
  1
80
  0
LINE
  8
_1-a_
  6
CONTINUOUS
 62
    7
 10
96.335939002668113
 20
158.42937684107835
 11
134.6366613915153
 21
175.66470558321296
  0
POINT
  8
_1-a_
 62
    7
 10
134.6366613915153
 20
175.66470558321296
  0
LINE
  8
_1-a_
  6
CONTINUOUS
 62
    7
 10
134.6366613915153
 20
175.66470558321296
 11
140.48093567569276
 21
162.6774321594491
  0
TEXT
  8
_1-a_
 62
    7
 10
113.57126506118355
 20
166.7335680422614
 40
2.5
 41
1
 50
24.227749880000005
  1
210
  0
TEXT
  8
_1-a_
 62
    7
 10
222.51450023671032
 20
12.047180101937698
 40
3
 41
1
 50
0
  1
1/5
  0
LINE
  8
ADD_LINE
  6
DOT
 62
    4
 10
309.61251672682226
 20
19.305157385718587
 11
343.37112763264997
 21
19.305157385718587
  0
TEXT
  8
_0-1_
 62
    7
 10
309.00428242440461
 20
19.071829365468091
 40
3
 41
1
 50
0
  1
株式会社
  0
TEXT
  8
_0-1_
 62
    3
 10
326.75029946805955
 20
18.983394372858299
 40
5
 41
1
 50
0
  1
神　清
  0
LINE
  8
_1-0_
  6
CONTINUOUS
 62
    7
 10
122.13233741554055
 20
120.11152112806167
 11
112.28359984524181
 21
115.67958408229407
  0
LINE
  8
_1-0_
  6
CONTINUOUS
 62
    7
 10
111.29872172377574
 20
117.86820320917691
 11
112.28359984524181
 21
115.67958408229407
  0
LINE
  8
_1-0_
  6
CONTINUOUS
 62
    7
 10
111.29872172377574
 20
117.86820320917691
 11
366.48648648648651
 21
232.70270270270271
  0
LINE
  8
_1-0_
  6
CONTINUOUS
 62
    3
 10
125.72686649352057
 20
124.64552637003412
 11
110.87598578534835
 21
117.96262973903485
  0
LINE
  8
_1-0_
  6
CONTINUOUS
 62
    3
 10
110.87598578534835
 20
117.96262973903485
 11
110.2387097619453
 21
109.47606351618693
  0
LINE
  8
_1-0_
  6
CONTINUOUS
 62
    3
 10
110.2387097619453
 20
109.47606351618693
 11
110.86994117415854
 21
110.73852634061342
  0
LINE
  8
_1-4_
  6
CONTINUOUS
 62
    7
 10
106.29220901345589
 20
100.74857404704431
 11
103.95671731753633
 21
100.74857404704431
  0
TEXT
  8
_1-4_
 62
    7
 10
87.795716186114646
 20
99.815260286251274
 40
3
 41
1
 50
0
  1
軒先水切
  0
LINE
  8
_1-0_
  6
CONTINUOUS
 62
    7
 10
106.29220901345589
 20
100.74857404704431
 11
110.24254855934554
 21
111.60204151081976
  0
LINE
  8
_1-0_
  6
DASHED1
 62
    3
 10
111.05250480175224
 20
118.41535219457695
 11
366.24025911898229
 21
233.24986638249578
  0
LINE
  8
_1-0_
  6
CONTINUOUS
 62
    7
 10
110.80628453792772
 20
118.96250860620515
 11
365.99405649546031
 21
233.79700531830659
  0
LINE
  8
_1-0_
  6
CONTINUOUS
 62
    7
 10
110.56006761590402
 20
119.50965759160565
 11
110.80628453792772
 21
118.96250860620515
  0
LINE
  8
_1-0_
  6
CONTINUOUS
 62
    7
 10
110.56006761590402
 20
119.50965759160565
 11
118.39502318370984
 21
123.03538817205936
  0
LINE
  8
ADD_LINE
  6
DOT
 62
    4
 10
117.755126953125
 20
118.14177641997468
 11
110.36888299705733
 21
134.55565022279637
  0
LINE
  8
_1-0_
  6
CONTINUOUS
 62
    7
 10
116.0315956454377
 20
121.97184560640494
 11
122.5974303712062
 21
124.92647153093287
  0
LINE
  8
_1-0_
  6
CONTINUOUS
 62
    7
 10
122.5974303712062
 20
124.92647153093287
 11
119.64280444667827
 21
131.49230625670137
  0
LINE
  8
_1-0_
  6
CONTINUOUS
 62
    7
 10
119.64280444667827
 20
131.49230625670137
 11
113.07696972090977
 21
128.53768033217344
  0
LINE
  8
_1-0_
  6
CONTINUOUS
 62
    7
 10
113.07696972090977
 20
128.53768033217344
 11
116.0315956454377
 21
121.97184560640494
  0
LINE
  8
ADD_LINE
  6
DOT
 62
    4
 10
150.36543135419043
 20
140.71183747189886
 11
91.506723403312833
 21
123.06053554669006
  0
LINE
  8
_1-0_
  6
CONTINUOUS
 62
    7
 10
113.07696972090977
 20
128.53768033217344
 11
122.59743030239494
 21
124.92647168384676
  0
ARC
  8
_1-3_
  6
CONTINUOUS
 62
    7
 10
96.030774468350174
 20
123.99966588279969
 40
0.2
 50
286.69360839000001
 51
312.10108722792387
  0
LINE
  8
_1-3_
  6
CONTINUOUS
 62
    7
 10
152.47271135381641
 20
141.34379554264126
 11
97.491860454484751
 21
124.85543496963507
  0
LINE
  8
_1-3_
  6
CONTINUOUS
 62
    7
 10
143.52674014211007
 20
142.62816273286444
 11
144.27380507039237
 21
142.22580220680527
  0
LINE
  8
_1-3_
  6
CONTINUOUS
 62
    7
 10
151.38114741344316
 20
144.98364281472249
 11
150.23172195910172
 21
144.63893841249933
  0
LINE
  8
_1-3_
  6
CONTINUOUS
 62
    7
 10
143.52674014211007
 20
142.62816273286444
 11
142.56888559682557
 21
142.34090906434517
  0
LINE
  8
_1-3_
  6
CONTINUOUS
 62
    7
 10
150.23172195910172
 20
144.63893841249933
 11
150.4040741602133
 21
144.06422568532861
  0
LINE
  8
_1-3_
  6
CONTINUOUS
 62
    7
 10
142.56888559682557
 20
142.34090906434517
 11
142.74123779793712
 21
141.76619633717445
  0
LINE
  8
_1-3_
  6
CONTINUOUS
 62
    7
 10
142.74123779793712
 20
141.76619633717445
 11
97.913645078621428
 21
128.32272465047254
  0
LINE
  8
_1-3_
  6
CONTINUOUS
 62
    7
 10
150.4040741602133
 20
144.06422568532861
 11
144.27380507039237
 21
142.22580220680527
  0
LINE
  8
_1-3_
  6
CONTINUOUS
 62
    7
 10
151.38114741344316
 20
144.98364281472249
 11
153.04721869085495
 21
139.42808645207222
  0
LINE
  8
_1-3_
  6
CONTINUOUS
 62
    7
 10
151.1691127685377
 20
139.20055788713344
 11
150.36543135419043
 21
140.71183747189889
  0
LINE
  8
_1-3_
  6
CONTINUOUS
 62
    7
 10
151.63718166712721
 20
139.00522652014646
 11
153.04721869085495
 21
139.42808645207222
  0
ARC
  8
_1-3_
  6
CONTINUOUS
 62
    7
 10
151.52228019971949
 20
139.38836833826028
 40
0.4
 50
208.00354086402041
 51
286.69360839000007
  0
LINE
  8
_1-3_
  6
CONTINUOUS
 62
    7
 10
96.045269376549541
 20
123.79521283154156
 11
94.215936292572067
 21
123.24660903579498
  0
ARC
  8
_1-3_
  6
CONTINUOUS
 62
    7
 10
102.58374102416006
 20
116.74763074153094
 40
9.5741180866490403
 50
122.12973073303684
 51
131.84084997423969
  0
ARC
  8
_1-3_
  6
CONTINUOUS
 62
    7
 10
95.93036790914185
 20
124.17835464965538
 40
0.4
 50
286.69360839000001
 51
311.84084997423997
  0
ARC
  8
_1-3_
  6
CONTINUOUS
 62
    7
 10
103.58031412721907
 20
109.00749527085722
 40
20.129312558890067
 50
106.35054349443655
 51
119.81686583630673
  0
ARC
  8
_1-3_
  6
CONTINUOUS
 62
    7
 10
93.770320300843437
 20
126.1250241571436
 40
0.4
 50
119.81686583630673
 51
196.69360839000001
  0
LINE
  8
ADD_LINE
  6
DOT
 62
    4
 10
193.59051708940933
 20
160.16312318239022
 11
135.58538043914606
 21
140.53810343825182
  0
ARC
  8
_1-3_
  6
CONTINUOUS
 62
    7
 10
139.87179612362468
 20
141.56606330923685
 40
0.2
 50
288.6923463
 51
314.09982513792386
  0
LINE
  8
_1-3_
  6
CONTINUOUS
 62
    7
 10
195.67447390391868
 20
160.86819338829889
 11
141.30214610717502
 21
142.47227074322726
  0
LINE
  8
_1-3_
  6
CONTINUOUS
 62
    7
 10
186.68914996690523
 20
161.8397662095191
 11
187.44979369974652
 21
161.46370622535525
  0
LINE
  8
_1-3_
  6
CONTINUOUS
 62
    7
 10
194.45662536644005
 20
164.46775515881504
 11
193.31992164943495
 21
164.0831714101376
  0
LINE
  8
_1-3_
  6
CONTINUOUS
 62
    7
 10
186.68914996690523
 20
161.8397662095191
 11
185.74189686940099
 21
161.51927975228787
  0
LINE
  8
_1-3_
  6
CONTINUOUS
 62
    7
 10
193.31992164943495
 20
164.0831714101376
 11
193.51221352377371
 21
163.51481955163501
  0
LINE
  8
_1-3_
  6
CONTINUOUS
 62
    7
 10
185.74189686940099
 20
161.51927975228787
 11
185.93418874373975
 21
160.95092789378532
  0
LINE
  8
_1-3_
  6
CONTINUOUS
 62
    7
 10
185.93418874373975
 20
160.95092789378532
 11
141.60274378054109
 21
145.95216169536454
  0
LINE
  8
_1-3_
  6
CONTINUOUS
 62
    7
 10
193.51221352377371
 20
163.51481955163501
 11
187.44979369974652
 21
161.46370622535525
  0
LINE
  8
_1-3_
  6
CONTINUOUS
 62
    7
 10
194.45662536644005
 20
164.46775515881504
 11
196.3154468183811
 21
158.9736871932904
  0
LINE
  8
_1-3_
  6
CONTINUOUS
 62
    7
 10
194.44641916764158
 20
158.68079345133384
 11
193.59051708940933
 21
160.16312318239022
  0
LINE
  8
_1-3_
  6
CONTINUOUS
 62
    7
 10
194.92101595735195
 20
158.50190598963684
 11
196.3154468183811
 21
158.9736871932904
  0
ARC
  8
_1-3_
  6
CONTINUOUS
 62
    7
 10
194.79282137445946
 20
158.88080722863856
 40
0.4
 50
210.0022787740204
 51
288.6923463
  0
LINE
  8
_1-3_
  6
CONTINUOUS
 62
    7
 10
139.8934130207717
 20
141.36224019403596
 11
138.08432683049847
 21
140.75016763869235
  0
ARC
  8
_1-3_
  6
CONTINUOUS
 62
    7
 10
146.67370855392087
 20
134.54699131485313
 40
9.5741180866490403
 50
124.12846864303683
 51
133.83958788423968
  0
ARC
  8
_1-3_
  6
CONTINUOUS
 62
    7
 10
139.76521843787921
 20
141.74114143303765
 40
0.4
 50
288.6923463
 51
313.8395878842399
  0
ARC
  8
_1-3_
  6
CONTINUOUS
 62
    7
 10
147.93963177677222
 20
126.84632293814921
 40
20.129312558890067
 50
108.34928140443654
 51
121.81560374630672
  0
ARC
  8
_1-3_
  6
CONTINUOUS
 62
    7
 10
137.53859008054692
 20
143.61128955546644
 40
0.4
 50
121.81560374630666
 51
198.6923463
  0
ARC
  8
_1-3_
  6
CONTINUOUS
 62
    7
 10
183.09687614728759
 20
161.0173475071839
 40
0.2
 50
288.6923463
 51
314.09982513792386
  0
LINE
  8
_1-3_
  6
CONTINUOUS
 62
    7
 10
238.89955392758156
 20
180.31947758624594
 11
184.52722613083793
 21
161.9235549411743
  0
LINE
  8
_1-3_
  6
CONTINUOUS
 62
    7
 10
229.91422999056817
 20
181.29105040746612
 11
230.67487372340943
 21
180.9149904233023
  0
LINE
  8
_1-3_
  6
CONTINUOUS
 62
    7
 10
237.68170539010299
 20
183.91903935676208
 11
236.54500167309789
 21
183.53445560808461
  0
LINE
  8
_1-3_
  6
CONTINUOUS
 62
    7
 10
229.91422999056817
 20
181.29105040746612
 11
228.96697689306393
 21
180.97056395023492
  0
LINE
  8
_1-3_
  6
CONTINUOUS
 62
    7
 10
236.54500167309789
 20
183.53445560808461
 11
236.73729354743659
 21
182.96610374958206
  0
LINE
  8
_1-3_
  6
CONTINUOUS
 62
    7
 10
228.96697689306393
 20
180.97056395023492
 11
229.15926876740264
 21
180.40221209173237
  0
LINE
  8
_1-3_
  6
CONTINUOUS
 62
    7
 10
229.15926876740264
 20
180.40221209173237
 11
184.827823804204
 21
165.40344589331158
  0
LINE
  8
_1-3_
  6
CONTINUOUS
 62
    7
 10
236.73729354743659
 20
182.96610374958206
 11
230.67487372340943
 21
180.9149904233023
  0
LINE
  8
_1-3_
  6
CONTINUOUS
 62
    7
 10
237.68170539010299
 20
183.91903935676208
 11
239.54052684204402
 21
178.42497139123745
  0
LINE
  8
_1-3_
  6
CONTINUOUS
 62
    7
 10
237.67149919130449
 20
178.13207764928089
 11
236.81559711307224
 21
179.61440738033727
  0
LINE
  8
_1-3_
  6
CONTINUOUS
 62
    7
 10
238.14609598101487
 20
177.95319018758391
 11
239.54052684204402
 21
178.42497139123745
  0
ARC
  8
_1-3_
  6
CONTINUOUS
 62
    7
 10
238.01790139812238
 20
178.33209142658561
 40
0.4
 50
210.0022787740204
 51
288.6923463
  0
LINE
  8
_1-3_
  6
CONTINUOUS
 62
    7
 10
183.11849304443462
 20
160.81352439198298
 11
181.30940685416138
 21
160.20145183663936
  0
ARC
  8
_1-3_
  6
CONTINUOUS
 62
    7
 10
189.89878857758379
 20
153.99827551280021
 40
9.5741180866490403
 50
124.12846864303683
 51
133.83958788423968
  0
ARC
  8
_1-3_
  6
CONTINUOUS
 62
    7
 10
182.99029846154212
 20
161.1924256309847
 40
0.4
 50
288.6923463
 51
313.8395878842399
  0
ARC
  8
_1-3_
  6
CONTINUOUS
 62
    7
 10
191.16471180043513
 20
146.29760713609625
 40
20.129312558890067
 50
108.34928140443654
 51
121.81560374630672
  0
ARC
  8
_1-3_
  6
CONTINUOUS
 62
    7
 10
180.76367010420984
 20
163.06257375341346
 40
0.4
 50
121.81560374630666
 51
198.6923463
  0
ARC
  8
_1-3_
  6
CONTINUOUS
 62
    7
 10
226.32195701121265
 20
180.46864312633258
 40
0.2
 50
288.6923463
 51
314.09982513792386
  0
LINE
  8
_1-3_
  6
CONTINUOUS
 62
    7
 10
282.12463479150665
 20
199.77077320539462
 11
227.75230699476299
 21
181.37485056032298
  0
LINE
  8
_1-3_
  6
CONTINUOUS
 62
    7
 10
273.1393108544932
 20
200.74234602661483
 11
273.89995458733449
 21
200.36628604245098
  0
LINE
  8
_1-3_
  6
CONTINUOUS
 62
    7
 10
280.90678625402802
 20
203.37033497591077
 11
279.77008253702292
 21
202.98575122723332
  0
LINE
  8
_1-3_
  6
CONTINUOUS
 62
    7
 10
273.1393108544932
 20
200.74234602661483
 11
272.19205775698896
 21
200.4218595693836
  0
LINE
  8
_1-3_
  6
CONTINUOUS
 62
    7
 10
279.77008253702292
 20
202.98575122723332
 11
279.96237441136168
 21
202.41739936873074
  0
LINE
  8
_1-3_
  6
CONTINUOUS
 62
    7
 10
272.19205775698896
 20
200.4218595693836
 11
272.38434963132772
 21
199.85350771088105
  0
LINE
  8
_1-3_
  6
CONTINUOUS
 62
    7
 10
272.38434963132772
 20
199.85350771088105
 11
228.05290466812906
 21
184.85474151246027
  0
LINE
  8
_1-3_
  6
CONTINUOUS
 62
    7
 10
279.96237441136168
 20
202.41739936873074
 11
273.89995458733449
 21
200.36628604245098
  0
LINE
  8
_1-3_
  6
CONTINUOUS
 62
    7
 10
280.90678625402802
 20
203.37033497591077
 11
282.76560770596905
 21
197.87626701038613
  0
LINE
  8
_1-3_
  6
CONTINUOUS
 62
    7
 10
280.89658005522955
 20
197.58337326842957
 11
280.0406779769973
 21
199.06570299948595
  0
LINE
  8
_1-3_
  6
CONTINUOUS
 62
    7
 10
281.3711768449399
 20
197.40448580673257
 11
282.76560770596905
 21
197.87626701038613
  0
ARC
  8
_1-3_
  6
CONTINUOUS
 62
    7
 10
281.24298226204746
 20
197.78338704573429
 40
0.4
 50
210.0022787740204
 51
288.6923463
  0
LINE
  8
_1-3_
  6
CONTINUOUS
 62
    7
 10
226.34357390835967
 20
180.26482001113169
 11
224.53448771808644
 21
179.65274745578807
  0
ARC
  8
_1-3_
  6
CONTINUOUS
 62
    7
 10
233.12386944150884
 20
173.44957113194886
 40
9.5741180866490403
 50
124.12846864303683
 51
133.83958788423968
  0
ARC
  8
_1-3_
  6
CONTINUOUS
 62
    7
 10
226.21537932546718
 20
180.64372125013338
 40
0.4
 50
288.6923463
 51
313.8395878842399
  0
ARC
  8
_1-3_
  6
CONTINUOUS
 62
    7
 10
234.38979266436019
 20
165.74890275524496
 40
20.129312558890067
 50
108.34928140443654
 51
121.81560374630672
  0
ARC
  8
_1-3_
  6
CONTINUOUS
 62
    7
 10
223.98875096813489
 20
182.51386937256217
 40
0.4
 50
121.81560374630666
 51
198.6923463
  0
ARC
  8
_1-3_
  6
CONTINUOUS
 62
    7
 10
269.54703516953111
 20
199.91993146949864
 40
0.2
 50
288.6923463
 51
314.09982513792386
  0
LINE
  8
_1-3_
  6
CONTINUOUS
 62
    7
 10
325.34971294982506
 20
219.22206154856065
 11
270.9773851530814
 21
200.82613890348904
  0
LINE
  8
_1-3_
  6
CONTINUOUS
 62
    7
 10
316.36438901281167
 20
220.19363436978085
 11
317.1250327456529
 21
219.81757438561704
  0
LINE
  8
_1-3_
  6
CONTINUOUS
 62
    7
 10
324.13186441234649
 20
222.82162331907682
 11
322.99516069534138
 21
222.43703957039935
  0
LINE
  8
_1-3_
  6
CONTINUOUS
 62
    7
 10
316.36438901281167
 20
220.19363436978085
 11
315.41713591530743
 21
219.87314791254965
  0
LINE
  8
_1-3_
  6
CONTINUOUS
 62
    7
 10
322.99516069534138
 20
222.43703957039935
 11
323.18745256968009
 21
221.86868771189677
  0
LINE
  8
_1-3_
  6
CONTINUOUS
 62
    7
 10
315.41713591530743
 20
219.87314791254965
 11
315.60942778964613
 21
219.30479605404707
  0
LINE
  8
_1-3_
  6
CONTINUOUS
 62
    7
 10
315.60942778964613
 20
219.30479605404707
 11
271.2779828264475
 21
204.30602985562632
  0
LINE
  8
_1-3_
  6
CONTINUOUS
 62
    7
 10
323.18745256968009
 20
221.86868771189677
 11
317.1250327456529
 21
219.81757438561704
  0
LINE
  8
_1-3_
  6
CONTINUOUS
 62
    7
 10
324.13186441234649
 20
222.82162331907682
 11
325.99068586428751
 21
217.32755535355216
  0
LINE
  8
_1-3_
  6
CONTINUOUS
 62
    7
 10
324.12165821354802
 20
217.0346616115956
 11
323.26575613531577
 21
218.51699134265198
  0
LINE
  8
_1-3_
  6
CONTINUOUS
 62
    7
 10
324.59625500325836
 20
216.85577414989862
 11
325.99068586428751
 21
217.32755535355216
  0
ARC
  8
_1-3_
  6
CONTINUOUS
 62
    7
 10
324.46806042036587
 20
217.23467538890031
 40
0.4
 50
210.0022787740204
 51
288.6923463
  0
LINE
  8
_1-3_
  6
CONTINUOUS
 62
    7
 10
269.56865206667811
 20
199.71610835429772
 11
267.75956587640485
 21
199.1040357989541
  0
ARC
  8
_1-3_
  6
CONTINUOUS
 62
    7
 10
276.34894759982728
 20
192.90085947511491
 40
9.5741180866490403
 50
124.12846864303683
 51
133.83958788423968
  0
ARC
  8
_1-3_
  6
CONTINUOUS
 62
    7
 10
269.44045748378562
 20
200.09500959329944
 40
0.4
 50
288.6923463
 51
313.8395878842399
  0
ARC
  8
_1-3_
  6
CONTINUOUS
 62
    7
 10
277.61487082267865
 20
185.20019109841098
 40
20.129312558890067
 50
108.34928140443654
 51
121.81560374630672
  0
ARC
  8
_1-3_
  6
CONTINUOUS
 62
    7
 10
267.21382912645333
 20
201.9651577157282
 40
0.4
 50
121.81560374630666
 51
198.6923463
  0
ARC
  8
_1-3_
  6
CONTINUOUS
 62
    7
 10
313.17997255942703
 20
219.1946987321661
 40
0.2
 50
288.6923463
 51
314.09982513792386
  0
LINE
  8
_1-3_
  6
CONTINUOUS
 62
    7
 10
359.99732640270764
 20
239.46840163244832
 11
360.75797013554893
 21
239.0923416482845
  0
LINE
  8
_1-3_
  6
CONTINUOUS
 62
    7
 10
359.99732640270764
 20
239.46840163244832
 11
359.0500733052034
 21
239.14791517521712
  0
LINE
  8
_1-3_
  6
CONTINUOUS
 62
    7
 10
359.0500733052034
 20
239.14791517521712
 11
359.24236517954211
 21
238.57956331671457
  0
LINE
  8
_1-3_
  6
CONTINUOUS
 62
    7
 10
359.24236517954211
 20
238.57956331671457
 11
314.91092021634347
 21
223.58079711829379
  0
LINE
  8
_1-3_
  6
CONTINUOUS
 62
    7
 10
313.20158945657408
 20
218.99087561696518
 11
311.39250326630088
 21
218.37880306162157
  0
ARC
  8
_1-3_
  6
CONTINUOUS
 62
    7
 10
319.98188498972326
 20
212.17562673778241
 40
9.5741180866490403
 50
124.12846864303683
 51
133.83958788423968
  0
ARC
  8
_1-3_
  6
CONTINUOUS
 62
    7
 10
313.07339487368159
 20
219.3697768559669
 40
0.4
 50
288.6923463
 51
313.8395878842399
  0
ARC
  8
_1-3_
  6
CONTINUOUS
 62
    7
 10
321.24780821257457
 20
204.47495836107845
 40
20.129312558890067
 50
108.34928140443654
 51
121.81560374630672
  0
ARC
  8
_1-3_
  6
CONTINUOUS
 62
    7
 10
310.84676651634931
 20
221.23992497839566
 40
0.4
 50
121.81560374630666
 51
198.6923463
  0
LINE
  8
_1-3_
  6
CONTINUOUS
 62
    7
 10
363.23415328622292
 20
239.9301147497988
 11
360.75797013554893
 21
239.0923416482845
  0
LINE
  8
_1-3_
  6
CONTINUOUS
 62
    7
 10
364.55347262901756
 20
236.99829428366547
 11
314.61032254297743
 21
220.10090616615651
  0
LINE
  8
_1-a_
  6
CONTINUOUS
 62
    7
 10
115.46032203545272
 20
124.42830846227416
 11
107.15605224887653
 21
124.42830846227416
  0
LINE
  8
_1-a_
  6
CONTINUOUS
 62
    7
 10
107.15605224887653
 20
124.42830846227416
 11
101.91125027840737
 21
110.22363645892017
  0
LINE
  8
_1-a_
  6
CONTINUOUS
 62
    7
 10
101.91125027840737
 20
110.22363645892017
 11
98.086915508273592
 21
110.22363645892017
  0
TEXT
  8
_1-a_
 62
    7
 10
75.68724042606155
 20
108.80316925858477
 40
3
 41
1
 50
0
  1
瓦座　36ｘ36
  0
LINE
  8
_1-a_
  6
CONTINUOUS
 62
    7
 10
116.44272428174044
 20
106.43709605158233
 11
121.91425367196454
 21
108.89928713219649
  0
POINT
  8
_1-a_
 62
    7
 10
116.44272428174044
 20
106.43709605158233
  0
POINT
  8
_1-a_
 62
    7
 10
121.91425367196454
 20
108.89928713219649
  0
LINE
  8
_1-a_
  6
CONTINUOUS
 62
    7
 10
116.44272428174044
 20
106.43709605158233
 11
113.30851617326701
 21
113.40199488320087
  0
LINE
  8
_1-a_
  6
CONTINUOUS
 62
    7
 10
121.91425367196454
 20
108.89928713219649
 11
118.78004556349111
 21
115.86418596381503
  0
TEXT
  8
_1-a_
 62
    7
 10
117.83340478145091
 20
107.6111959141509
 40
2.5
 41
1
 50
24.227770179999933
  1
30
  0
TEXT
  8
_1-a_
 62
    7
 10
222.24676841979951
 20
19.54367097544025
 40
3
 41
1
 50
0
  1
Ｎｏｖｕｍ　軒先　2
  0
TEXT
  8
_1-a_
 62
    7
 10
399.03494176372715
 20
16.420133111480851
 40
3
 41
1
 50
0
  1
9
  0
TEXT
  8
_0-1_
 62
    7
 10
309.11570045254018
 20
12.873049975803156
 40
3
 41
1
 50
0
  1
〒475－0807　半田市八軒町２８番地
  0
ARC
  8
_1-3_
  6
CONTINUOUS
 62
    7
 10
101.05248184325774
 20
117.43661527266798
 40
20.129312558890067
 50
106.35054349443655
 51
119.81686583630673
  0
ARC
  8
_1-3_
  6
CONTINUOUS
 62
    7
 10
91.242488016882106
 20
134.55414415895439
 40
0.4
 50
119.81686583630673
 51
196.69360839000001
  0
LINE
  8
_1-5_
  6
CONTINUOUS
 62
    7
 10
135.37921978124893
 20
148.74557890698688
 11
95.385812794658477
 21
136.75184465228284
  0
LINE
  8
_1-3_
  6
CONTINUOUS
 62
    7
 10
90.859346198768293
 20
134.43924269154667
 11
94.215936292572067
 21
123.24660903579498
  0
ARC
  8
_1-3_
  6
CONTINUOUS
 62
    7
 10
145.11935095171896
 20
135.1821502003796
 40
20.129312558890067
 50
108.34928140443654
 51
121.81560374630672
  0
ARC
  8
_1-3_
  6
CONTINUOUS
 62
    7
 10
134.71830925549364
 20
151.94711681769681
 40
0.4
 50
121.81560374630666
 51
198.6923463
  0
LINE
  8
_1-5_
  6
CONTINUOUS
 62
    7
 10
178.73661735314278
 20
167.80577572951475
 11
138.78246295548783
 21
154.28798895759491
  0
LINE
  8
_1-3_
  6
CONTINUOUS
 62
    7
 10
134.33940801649197
 20
151.81892223480432
 11
138.08432683049847
 21
140.75016763869235
  0
ARC
  8
_1-3_
  6
CONTINUOUS
 62
    7
 10
188.34443097538184
 20
154.63343439832664
 40
20.129312558890067
 50
108.34928140443654
 51
121.81560374630672
  0
ARC
  8
_1-3_
  6
CONTINUOUS
 62
    7
 10
177.94338927915658
 20
171.39840101564386
 40
0.4
 50
121.81560374630666
 51
198.6923463
  0
ARC
  8
_1-3_
  6
CONTINUOUS
 62
    7
 10
231.56951183930693
 20
174.08473001747529
 40
20.129312558890067
 50
108.34928140443654
 51
121.81560374630672
  0
ARC
  8
_1-3_
  6
CONTINUOUS
 62
    7
 10
221.16847014308161
 20
190.84969663479251
 40
0.4
 50
121.81560374630666
 51
198.6923463
  0
ARC
  8
_1-3_
  6
CONTINUOUS
 62
    7
 10
274.79458999762534
 20
193.53601836064135
 40
20.129312558890067
 50
108.34928140443654
 51
121.81560374630672
  0
ARC
  8
_1-3_
  6
CONTINUOUS
 62
    7
 10
264.39354830140007
 20
210.30098497795856
 40
0.4
 50
121.81560374630666
 51
198.6923463
  0
ARC
  8
_1-3_
  6
CONTINUOUS
 62
    7
 10
318.42752738752131
 20
212.81078562330885
 40
20.129312558890067
 50
108.34928140443654
 51
121.81560374630672
  0
ARC
  8
_1-3_
  6
CONTINUOUS
 62
    7
 10
308.02648569129605
 20
229.57575224062606
 40
0.4
 50
121.81560374630666
 51
198.6923463
  0
LINE
  8
_1-5_
  6
CONTINUOUS
 62
    7
 10
360.70763514224302
 20
248.36533145371641
 11
312.09063939270879
 21
231.91662437633116
  0
LINE
  8
_1-3_
  6
CONTINUOUS
 62
    7
 10
307.64758445229432
 20
229.44755765773357
 11
311.39250326630088
 21
218.37880306162157
  0
LINE
  8
_1-5_
  6
CONTINUOUS
 62
    7
 10
308.7242347684076
 20
226.26533162647434
 11
268.45770200281288
 21
212.64185711366366
  0
LINE
  8
_1-3_
  6
CONTINUOUS
 62
    7
 10
264.01464706239835
 20
210.17279039506607
 11
267.75956587640485
 21
199.1040357989541
  0
LINE
  8
_1-5_
  6
CONTINUOUS
 62
    7
 10
265.18677782569819
 20
206.70835540518212
 11
225.23262384449441
 21
193.19056877049763
  0
LINE
  8
_1-3_
  6
CONTINUOUS
 62
    7
 10
220.78956890407991
 20
190.72150205190005
 11
224.53448771808644
 21
179.65274745578807
  0
LINE
  8
_1-5_
  6
CONTINUOUS
 62
    7
 10
221.96170159833846
 20
187.25706135473393
 11
182.00754298056938
 21
173.73927315134895
  0
LINE
  8
_1-3_
  6
CONTINUOUS
 62
    7
 10
177.56448804015486
 20
171.27020643275137
 11
181.30940685416138
 21
160.20145183663936
  0
ENDSEC
  0
EOF
