  0
SECTION
  2
HEADER
  9
$ACADVER
  1
AC1009
  9
$INSBASE
 10
0
 20
0
 30
0
  9
$EXTMIN
 10
0
 20
0
  9
$EXTMAX
 10
420
 20
297
  9
$LIMMIN
 10
0
 20
0
  9
$LIMMAX
 10
420
 20
297
  9
$LTSCALE
 40
1
  0
ENDSEC
  0
SECTION
  2
TABLES
  0
TABLE
  2
LTYPE
 70
     9
  0
LTYPE
  2
CONTINUOUS
 70
    64
  3
実線
 72
    65
 73
     0
 40
0.0
  0
LTYPE
  2
DASHED1
 70
    64
  3
--  --  --  --  --  --  --  --  
 72
    65
 73
     2
 40
2.5
 49
1.25
 49
-1.25
  0
LTYPE
  2
DASHED2
 70
    64
  3
----    ----    ----    ----    
 72
    65
 73
     2
 40
5.0
 49
2.5
 49
-2.5
  0
LTYPE
  2
DASHED3
 70
    64
  3
------  ------  ------  ------  
 72
    65
 73
     2
 40
5.0
 49
3.75
 49
-1.25
  0
LTYPE
  2
CENTER1
 70
    64
  3
----- - ----- - ----- - ----- - 
 72
    65
 73
     4
 40
10.0
 49
6.25
 49
-1.25
 49
1.25
 49
-1.25
  0
LTYPE
  2
CENTER2
 70
    64
  3
----------  --  ----------  --  
 72
    65
 73
     4
 40
20.0
 49
12.5
 49
-2.5
 49
2.5
 49
-2.5
  0
LTYPE
  2
PHANTOM1
 70
    64
  3
--- - - --- - - --- - - --- - - 
 72
    65
 73
     6
 40
10.0
 49
3.25
 49
-1.25
 49
1.25
 49
-1.25
 49
1.25
 49
-1.25
  0
LTYPE
  2
PHANTOM2
 70
    64
  3
--------  -  -  --------  -  -  
 72
    65
 73
     6
 40
20.0
 49
10.0
 49
-2.5
 49
1.25
 49
-2.5
 49
1.25
 49
-2.5
  0
LTYPE
  2
DOT
 70
    64
  3
-   -   -   -   -   -   -   -   
 72
    65
 73
     2
 40
2.5
 49
0.625
 49
-1.875
  0
LTYPE
  2
DUMMY
 70
    64
  3
ダミー
 72
    65
 73
     0
 40
0.0
  0
LTYPE
  2
RAND1
 70
    64
  3
ランダム線1
 72
    65
 73
     4
 40
10.0
 49
1.0
 49
-2.0
 49
3.0
 49
-4.0
  0
LTYPE
  2
RAND2
 70
    64
  3
ランダム線2
 72
    65
 73
     4
 40
14.0
 49
2.0
 49
-3.0
 49
4.0
 49
-5.0
  0
LTYPE
  2
RAND3
 70
    64
  3
ランダム線3
 72
    65
 73
     4
 40
18.0
 49
3.0
 49
-4.0
 49
5.0
 49
-6.0
  0
LTYPE
  2
RAND4
 70
    64
  3
ランダム線4
 72
    65
 73
     4
 40
22.0
 49
4.0
 49
-5.0
 49
6.0
 49
-7.0
  0
LTYPE
  2
RAND5
 70
    64
  3
ランダム線5
 72
    65
 73
     4
 40
26.0
 49
5.0
 49
-6.0
 49
7.0
 49
-8.0
  0
LTYPE
  2
LONG1
 70
    64
  3
----------  --  ----------  --  
 72
    65
 73
     4
 40
40.0
 49
32.5
 49
-2.5
 49
2.5
 49
-2.5
  0
LTYPE
  2
LONG2
 70
    64
  3
--------  -  -  --------  -  -  
 72
    65
 73
     6
 40
40.0
 49
30.0
 49
-2.5
 49
1.25
 49
-2.5
 49
1.25
 49
-2.5
  0
LTYPE
  2
LONG3
 70
    64
  3
+++++++++++++++..+++++++++++++++
 72
    65
 73
     2
 40
40.0
 49
37.5
 49
-2.5
  0
LTYPE
  2
LONG4
 70
    64
  3
+++++++++++++++..+++++++++++++++
 72
    65
 73
     2
 40
80.0
 49
75.0
 49
-5.0
  0
LTYPE
  2
LONG5
 70
    64
  3
----------  --  ----------  --  
 72
    65
 73
     4
 40
60.0
 49
37.5
 49
-7.5
 49
7.5
 49
-7.5
  0
LTYPE
  2
dashed
 70
   64
  3
-------   -------------   ------
 72
   65
 73
    2
 40
7.5
 49
6
 49
-1.5
  0
LTYPE
  2
dashed_spaced
 70
   64
  3
----        --------        ----
 72
   65
 73
    2
 40
12
 49
6
 49
-6
  0
LTYPE
  2
long_dashed_dotted
 70
   64
  3
------------- --- --------------
 72
   65
 73
    4
 40
15.25
 49
12
 49
-1.5
 49
0.25
 49
-1.5
  0
LTYPE
  2
long_dashed_double-dotted
 70
   64
  3
----------- --- --- ------------
 72
   65
 73
    6
 40
17
 49
12
 49
-1.5
 49
0.25
 49
-1.5
 49
0.25
 49
-1.5
  0
LTYPE
  2
long_dashed_triplicate-dotted
 70
   64
  3
--------- --- --- --- ----------
 72
   65
 73
    8
 40
18.75
 49
12
 49
-1.5
 49
0.25
 49
-1.5
 49
0.25
 49
-1.5
 49
0.25
 49
-1.5
  0
LTYPE
  2
dotted
 70
   64
  3
   -       -       -       -    
 72
   65
 73
    2
 40
1.75
 49
0.25
 49
-1.5
  0
LTYPE
  2
chain
 70
   64
  3
-------------- -- --------------
 72
   65
 73
    4
 40
18.5
 49
12
 49
-1.5
 49
3.5
 49
-1.5
  0
LTYPE
  2
chain_double_dash
 70
   64
  3
------------ -- -- -------------
 72
   65
 73
    6
 40
23.5
 49
12
 49
-1.5
 49
3.5
 49
-1.5
 49
3.5
 49
-1.5
  0
LTYPE
  2
dashed_dotted
 70
   64
  3
-----------     -     ----------
 72
   65
 73
    4
 40
9.25
 49
6
 49
-1.5
 49
0.25
 49
-1.5
  0
LTYPE
  2
double-dashed_dotted
 70
   64
  3
------   -----------   -   -----
 72
   65
 73
    6
 40
16.75
 49
6
 49
-1.5
 49
6
 49
-1.5
 49
0.25
 49
-1.5
  0
LTYPE
  2
dashed_double-dotted
 70
   64
  3
---------    -    -    ---------
 72
   65
 73
    6
 40
11
 49
6
 49
-1.5
 49
0.25
 49
-1.5
 49
0.25
 49
-1.5
  0
LTYPE
  2
double-dashed_double-dotted
 70
   64
  3
-----   ---------   -   -   ----
 72
   65
 73
    8
 40
18.5
 49
6
 49
-1.5
 49
6
 49
-1.5
 49
0.25
 49
-1.5
 49
0.25
 49
-1.5
  0
LTYPE
  2
dashed_triplicate-dotted
 70
   64
  3
-------    -    -    -    ------
 72
   65
 73
    8
 40
12.75
 49
6
 49
-1.5
 49
0.25
 49
-1.5
 49
0.25
 49
-1.5
 49
0.25
 49
-1.5
  0
LTYPE
  2
double-dashed_triplicate-dotted
 70
   64
  3
-----  ---------  -  -  -  -----
 72
   65
 73
   10
 40
20.25
 49
6
 49
-1.5
 49
6
 49
-1.5
 49
0.25
 49
-1.5
 49
0.25
 49
-1.5
 49
0.25
 49
-1.5
  0
LTYPE
  2
undefined
 70
   64
  3
--------------------------------
 72
   65
 73
    0
 40
0
  0
ENDTAB
  0
TABLE
  2
STYLE
  5
3
100
AcDbSymbolTable
 70
     1
  0
STYLE
  5
10
100
AcDbSymbolTableRecord
100
AcDbTextStyleTableRecord
  2
STANDARD
 70
     0
 40
0.0
 41
1.0
 50
0.0
 71
     0
 42
0.2
  3
txt
  4
bigfont.shx
  0
STYLE
  5
26
100
AcDbSymbolTableRecord
100
AcDbTextStyleTableRecord
  2
TATEGAKI
 70
    68
 40
0.0
 41
1.0
 50
0.0
 71
     0
 42
1.0
  3
txt
  4
bigfont.shx
  0
ENDTAB
  0
TABLE
  2
LAYER
 70
    6
  0
LAYER
  2
_0-1_
 70
   64
 62
    7
  6
CONTINUOUS
  0
LAYER
  2
_1-0_
 70
   64
 62
    7
  6
CONTINUOUS
  0
LAYER
  2
_1-1_
 70
   64
 62
    7
  6
CONTINUOUS
  0
LAYER
  2
_1-2_
 70
   64
 62
    7
  6
CONTINUOUS
  0
LAYER
  2
_1-a_
 70
   64
 62
    7
  6
CONTINUOUS
  0
LAYER
  2
ADD_LINE
 70
   64
 62
    7
  6
CONTINUOUS
  0
ENDTAB
  0
ENDSEC
  0
SECTION
  2
BLOCKS
  0
ENDSEC
  0
SECTION
  2
ENTITIES
  0
LINE
  8
_0-1_
  6
CONTINUOUS
 62
    7
 10
213.43723875492589
 20
25.680406435124397
 11
213.43723875492589
 21
11.080383165471062
  0
LINE
  8
ADD_LINE
  6
DOT
 62
    7
 10
125.83724028080478
 20
22.837598665349006
 11
205.20020872562901
 21
22.837598665349006
  0
LINE
  8
_0-1_
  6
CONTINUOUS
 62
    7
 10
7.5772534033633576
 20
25.680406435124397
 11
412.72727781742583
 21
25.680406435124397
  0
LINE
  8
_0-1_
  6
CONTINUOUS
 62
    5
 10
7.5772534033633576
 20
293.59038720905016
 11
412.72727781742583
 21
293.59038720905016
  0
LINE
  8
_0-1_
  6
CONTINUOUS
 62
    5
 10
7.5772534033633576
 20
8.8904055195970386
 11
412.72727781742583
 21
8.8904055195970386
  0
LINE
  8
_0-1_
  6
CONTINUOUS
 62
    7
 10
412.72727781742583
 20
25.680406435124397
 11
412.72727781742583
 21
11.080383165471062
  0
LINE
  8
_0-1_
  6
CONTINUOUS
 62
    7
 10
7.5772534033633576
 20
14.834709509007439
 11
7.5772534033633576
 21
11.080383165471062
  0
LINE
  8
_0-1_
  6
CONTINUOUS
 62
    7
 10
7.5772534033633576
 20
25.680406435124397
 11
7.5772534033633576
 21
19.857313974492058
  0
LINE
  8
_0-1_
  6
CONTINUOUS
 62
    7
 10
7.5772534033633576
 20
19.857313974492058
 11
7.5772534033633576
 21
19.500179155461296
  0
LINE
  8
_0-1_
  6
CONTINUOUS
 62
    7
 10
7.5772534033633576
 20
19.857313974492058
 11
7.5772534033633576
 21
14.834709509007439
  0
LINE
  8
_0-1_
  6
CONTINUOUS
 62
    7
 10
7.5772534033633576
 20
11.080383165471062
 11
412.72727781742583
 21
11.080383165471062
  0
LINE
  8
_0-1_
  6
CONTINUOUS
 62
    7
 10
407.77128416508208
 20
21.534768922917365
 11
399.9884777685977
 21
13.751917703740105
  0
LINE
  8
_0-1_
  6
CONTINUOUS
 62
    7
 10
412.72727781742583
 20
11.080383165471062
 11
412.72727781742583
 21
25.680406435124397
  0
LINE
  8
_0-1_
  6
CONTINUOUS
 62
    7
 10
290.08723265141026
 20
25.680406435124397
 11
290.08723265141026
 21
19.020202501408562
  0
LINE
  8
_0-1_
  6
CONTINUOUS
 62
    7
 10
290.08723265141026
 20
19.020202501408562
 11
290.08723265141026
 21
11.080383165471062
  0
LINE
  8
_0-1_
  6
CONTINUOUS
 62
    7
 10
213.43723875492589
 20
18.380405290715203
 11
288.84425169437901
 21
18.380405290715203
  0
LINE
  8
_0-1_
  6
CONTINUOUS
 62
    7
 10
306.87721067875401
 20
25.680406435124397
 11
306.87721067875401
 21
19.857313974492058
  0
LINE
  8
_0-1_
  6
CONTINUOUS
 62
    7
 10
306.87721067875401
 20
19.857313974492058
 11
306.87721067875401
 21
11.080383165471062
  0
LINE
  8
_0-1_
  6
CONTINUOUS
 62
    7
 10
213.43723875492589
 20
18.380405290715203
 11
290.08723265141026
 21
18.380405290715203
  0
LINE
  8
_0-1_
  6
CONTINUOUS
 62
    7
 10
394.4772472998477
 20
25.680406435124397
 11
394.4772472998477
 21
11.080383165471062
  0
LINE
  8
ADD_LINE
  6
DOT
 62
    7
 10
18.655595841107498
 20
22.837598665349006
 11
48.897417130169998
 21
22.837598665349006
  0
LINE
  8
ADD_LINE
  6
DOT
 62
    7
 10
48.897417130169998
 20
22.837598665349006
 11
127.16582304447665
 21
22.837598665349006
  0
LINE
  8
ADD_LINE
  6
DOT
 62
    7
 10
205.20020872562901
 20
22.837598665349006
 11
328.84751707523839
 21
22.837598665349006
  0
LINE
  8
_0-1_
  6
CONTINUOUS
 62
    7
 10
263.07722288578526
 20
18.380405290715203
 11
263.07722288578526
 21
11.080383165471062
  0
LINE
  8
ADD_LINE
  6
DOT
 62
    7
 10
214.60806089848057
 20
15.584670408360466
 11
273.05274778812901
 21
15.584670408360466
  0
LINE
  8
ADD_LINE
  6
DOT
 62
    7
 10
328.84751707523839
 20
22.837598665349006
 11
403.85075193851958
 21
22.837598665349006
  0
TEXT
  8
_0-1_
 62
    7
 10
9.3539288660861359
 20
22.597051485173225
 40
2
 41
1
 50
0
  1
特記
  0
TEXT
  8
_0-1_
 62
    7
 10
213.43606382816807
 20
22.583328111760139
 40
2
 41
1
 50
0
  1
図面名
  0
TEXT
  8
_0-1_
 62
    7
 10
213.76429563969151
 20
15.247170789830193
 40
2
 41
1
 50
0
  1
SCALE
  0
TEXT
  8
_0-1_
 62
    7
 10
263.93104368656651
 20
15.16264854251574
 40
2
 41
1
 50
0
  1
DATE
  0
TEXT
  8
_0-1_
 62
    7
 10
291.17832762211339
 20
22.653281076542854
 40
2
 41
1
 50
0
  1
担当
  0
TEXT
  8
_0-1_
 62
    7
 10
395.47913938969145
 20
22.372781618229865
 40
2.5
 41
1
 50
0
  1
NO
  0
LINE
  8
_0-1_
  6
CONTINUOUS
 62
    4
 10
18.11883360355867
 20
22.111630304448127
 11
213.43723875492589
 21
22.111630304448127
  0
LINE
  8
_0-1_
  6
CONTINUOUS
 62
    4
 10
18.11883360355867
 20
18.461629732243523
 11
213.43723875492589
 21
18.461629732243523
  0
LINE
  8
_0-1_
  6
CONTINUOUS
 62
    4
 10
18.11883360355867
 20
14.811652048222527
 11
213.43723875492589
 21
14.811652048222527
  0
LINE
  8
ADD_LINE
  6
DOT
 62
    4
 10
311.249670296575
 20
19.812035451072745
 11
345.00828120240271
 21
19.812035451072745
  0
TEXT
  8
_0-1_
 62
    7
 10
310.64143599415735
 20
19.578707430822249
 40
3
 41
1
 50
0
  1
株式会社
  0
TEXT
  8
_0-1_
 62
    3
 10
328.38745303781229
 20
19.490272438212457
 40
5
 41
1
 50
0
  1
神　清
  0
TEXT
  8
_0-1_
 62
    7
 10
223.82205475621606
 20
12.751538617002723
 40
3
 41
1
 50
0
  1
1/5
  0
LINE
  8
_1-0_
  6
CONTINUOUS
 62
    7
 10
337.77894835686345
 20
172.99465416334471
 11
329.77894670726465
 21
172.99465416334471
  0
LINE
  8
_1-0_
  6
CONTINUOUS
 62
    7
 10
337.77894835686345
 20
132.99465828734176
 11
329.77894670726465
 21
132.99465828734176
  0
LINE
  8
_1-0_
  6
CONTINUOUS
 62
    7
 10
337.77894835686345
 20
172.99465416334471
 11
337.77894835686345
 21
132.99465828734176
  0
LINE
  8
_1-0_
  6
CONTINUOUS
 62
    7
 10
331.47494255357481
 20
149.59464129647392
 11
331.47494255357481
 21
148.39464476063145
  0
LINE
  8
_1-0_
  6
CONTINUOUS
 62
    7
 10
329.77894670726465
 20
172.99465416334471
 11
329.77894670726465
 21
149.59464129647392
  0
LINE
  8
_1-0_
  6
CONTINUOUS
 62
    7
 10
329.77894670726465
 20
148.39464476063145
 11
329.77894670726465
 21
132.99465828734176
  0
LINE
  8
_1-0_
  6
CONTINUOUS
 62
    7
 10
329.77894670726465
 20
149.59464129647392
 11
329.77894670726465
 21
161.59464377087215
  0
LINE
  8
_1-0_
  6
CONTINUOUS
 62
    7
 10
329.77894670726465
 20
161.59464377087215
 11
317.77894423286642
 21
161.59464377087215
  0
LINE
  8
_1-0_
  6
CONTINUOUS
 62
    7
 10
317.77894423286642
 20
161.59464377087215
 11
317.77894423286642
 21
149.59464129647392
  0
LINE
  8
_1-0_
  6
CONTINUOUS
 62
    7
 10
317.77894423286642
 20
149.59464129647392
 11
329.77894670726465
 21
149.59464129647392
  0
LINE
  8
_1-0_
  6
CONTINUOUS
 62
    7
 10
317.77894423286642
 20
161.59464377087215
 11
329.77894670726465
 21
149.59464129647392
  0
LINE
  8
_1-0_
  6
CONTINUOUS
 62
    7
 10
269.17895462533897
 20
149.59464129647392
 11
269.17895462533897
 21
161.59464377087215
  0
LINE
  8
_1-0_
  6
CONTINUOUS
 62
    7
 10
269.17895462533897
 20
161.59464377087215
 11
257.17895215094075
 21
161.59464377087215
  0
LINE
  8
_1-0_
  6
CONTINUOUS
 62
    7
 10
257.17895215094075
 20
161.59464377087215
 11
257.17895215094075
 21
149.59464129647392
  0
LINE
  8
_1-0_
  6
CONTINUOUS
 62
    7
 10
257.17895215094075
 20
149.59464129647392
 11
269.17895462533897
 21
149.59464129647392
  0
LINE
  8
_1-0_
  6
CONTINUOUS
 62
    7
 10
257.17895215094075
 20
161.59464377087215
 11
269.17895462533897
 21
149.59464129647392
  0
LINE
  8
_1-0_
  6
CONTINUOUS
 62
    7
 10
208.57896254341327
 20
149.59464129647392
 11
208.57896254341327
 21
161.59464377087215
  0
LINE
  8
_1-0_
  6
CONTINUOUS
 62
    7
 10
208.57896254341327
 20
161.59464377087215
 11
196.57897244100619
 21
161.59464377087215
  0
LINE
  8
_1-0_
  6
CONTINUOUS
 62
    7
 10
196.57897244100619
 20
161.59464377087215
 11
196.57897244100619
 21
149.59464129647392
  0
LINE
  8
_1-0_
  6
CONTINUOUS
 62
    7
 10
196.57897244100619
 20
149.59464129647392
 11
208.57896254341327
 21
149.59464129647392
  0
LINE
  8
_1-0_
  6
CONTINUOUS
 62
    7
 10
196.57897244100619
 20
161.59464377087215
 11
208.57896254341327
 21
149.59464129647392
  0
LINE
  8
_1-0_
  6
CONTINUOUS
 62
    7
 10
147.97897046148762
 20
149.59464129647392
 11
147.97897046148762
 21
161.59464377087215
  0
LINE
  8
_1-0_
  6
CONTINUOUS
 62
    7
 10
147.97897046148762
 20
161.59464377087215
 11
135.97898035908048
 21
161.59464377087215
  0
LINE
  8
_1-0_
  6
CONTINUOUS
 62
    7
 10
135.97898035908048
 20
161.59464377087215
 11
135.97898035908048
 21
149.59464129647392
  0
LINE
  8
_1-0_
  6
CONTINUOUS
 62
    7
 10
135.97898035908048
 20
149.59464129647392
 11
147.97897046148762
 21
149.59464129647392
  0
LINE
  8
_1-0_
  6
CONTINUOUS
 62
    7
 10
135.97898035908048
 20
161.59464377087215
 11
147.97897046148762
 21
149.59464129647392
  0
LINE
  8
_1-0_
  6
CONTINUOUS
 62
    7
 10
87.378978379561914
 20
149.59464129647392
 11
87.378978379561914
 21
161.59464377087215
  0
LINE
  8
_1-0_
  6
CONTINUOUS
 62
    7
 10
87.378978379561914
 20
161.59464377087215
 11
75.378988277154775
 21
161.59464377087215
  0
LINE
  8
_1-0_
  6
CONTINUOUS
 62
    7
 10
75.378988277154775
 20
161.59464377087215
 11
75.378988277154775
 21
149.59464129647392
  0
LINE
  8
_1-0_
  6
CONTINUOUS
 62
    7
 10
75.378988277154775
 20
149.59464129647392
 11
87.378978379561914
 21
149.59464129647392
  0
LINE
  8
_1-0_
  6
CONTINUOUS
 62
    7
 10
75.378988277154775
 20
161.59464377087215
 11
87.378978379561914
 21
149.59464129647392
  0
LINE
  8
_1-0_
  6
CONTINUOUS
 62
    7
 10
26.778986297636237
 20
149.59464129647392
 11
26.778986297636237
 21
161.59464377087215
  0
LINE
  8
_1-0_
  6
CONTINUOUS
 62
    7
 10
331.47494255357481
 20
148.39464476063145
 11
18.956646440689411
 21
148.39464476063145
  0
LINE
  8
_1-0_
  6
CONTINUOUS
 62
    7
 10
331.47494255357481
 20
149.59464129647392
 11
18.956646440689411
 21
149.59464129647392
  0
LINE
  8
_1-0_
  6
CONTINUOUS
 62
    7
 10
18.956646440689411
 20
157.41699352541187
 11
26.778986297636237
 21
149.59464129647392
  0
LINE
  8
_1-0_
  6
CONTINUOUS
 62
    7
 10
329.77894670726465
 20
161.59464377087215
 11
18.956646440689411
 21
161.59464377087215
  0
LINE
  8
_1-0_
  6
CONTINUOUS
 62
    7
 10
329.77894670726465
 20
163.99464921454828
 11
18.956646440689411
 21
163.99464921454828
  0
LINE
  8
_1-0_
  6
CONTINUOUS
 62
    7
 10
26.778986297636237
 20
161.59464377087215
 11
18.956646440689411
 21
161.59464377087215
  0
LINE
  8
_1-0_
  6
CONTINUOUS
 62
    7
 10
26.778986297636237
 20
149.59464129647392
 11
18.956646440689411
 21
149.59464129647392
  0
LINE
  8
_1-0_
  6
CONTINUOUS
 62
    7
 10
323.17894720214429
 20
165.19465812238187
 11
18.956646440689411
 21
165.19465812238187
  0
LINE
  8
_1-0_
  6
CONTINUOUS
 62
    7
 10
323.17894720214429
 20
165.79466257629869
 11
18.956621696707174
 21
165.79466257629869
  0
LINE
  8
_1-0_
  6
CONTINUOUS
 62
    7
 10
323.17894720214429
 20
165.79466257629869
 11
323.17894720214429
 21
165.19465812238187
  0
LINE
  8
_1-0_
  6
CONTINUOUS
 62
    2
 10
328.86795988426002
 20
165.01677363388947
 11
323.60864501213689
 21
165.01677363388947
  0
LINE
  8
_1-0_
  6
CONTINUOUS
 62
    2
 10
323.60864501213689
 20
165.01677363388947
 11
323.60864501213689
 21
167.27075246623744
  0
LINE
  8
_1-0_
  6
CONTINUOUS
 62
    7
 10
330.98671903953345
 20
132.99465828734176
 11
329.77894670726465
 21
134.20242443361499
  0
LINE
  8
_1-0_
  6
CONTINUOUS
 62
    7
 10
333.81513560612444
 20
132.99465828734176
 11
329.77894670726465
 21
137.03084718620156
  0
LINE
  8
_1-0_
  6
CONTINUOUS
 62
    7
 10
336.64357073070215
 20
132.99465828734176
 11
329.77894670726465
 21
139.85928231077926
  0
LINE
  8
_1-0_
  6
CONTINUOUS
 62
    7
 10
337.77894835686345
 20
134.68770341376703
 11
329.77894670726465
 21
142.68770506336583
  0
LINE
  8
_1-0_
  6
CONTINUOUS
 62
    7
 10
337.77894835686345
 20
137.51613853834471
 11
329.77894670726465
 21
145.51614018794353
  0
LINE
  8
_1-0_
  6
CONTINUOUS
 62
    7
 10
337.77894835686345
 20
140.3445612909313
 11
329.77894670726465
 21
148.3445629405301
  0
LINE
  8
_1-0_
  6
CONTINUOUS
 62
    7
 10
337.77894835686345
 20
143.17298404351786
 11
331.47494255357481
 21
149.47699603280205
  0
LINE
  8
_1-0_
  6
CONTINUOUS
 62
    7
 10
331.35729728990293
 20
149.59464129647392
 11
329.77894670726465
 21
151.17298569311669
  0
LINE
  8
_1-0_
  6
CONTINUOUS
 62
    7
 10
337.77894835686345
 20
146.00140679610442
 11
329.77894670726465
 21
154.00142081769437
  0
LINE
  8
_1-0_
  6
CONTINUOUS
 62
    7
 10
337.77894835686345
 20
148.82984192068213
 11
329.77894670726465
 21
156.82984357028096
  0
LINE
  8
_1-0_
  6
CONTINUOUS
 62
    7
 10
337.77894835686345
 20
151.65826467326869
 11
329.77894670726465
 21
159.65826632286752
  0
LINE
  8
_1-0_
  6
CONTINUOUS
 62
    7
 10
337.77894835686345
 20
154.4866997978464
 11
329.77894670726465
 21
162.48670144744523
  0
LINE
  8
_1-0_
  6
CONTINUOUS
 62
    7
 10
337.77894835686345
 20
157.31512255043299
 11
329.77894670726465
 21
165.31513657202294
  0
LINE
  8
_1-0_
  6
CONTINUOUS
 62
    7
 10
337.77894835686345
 20
160.14355767501067
 11
329.77894670726465
 21
168.14354695261835
  0
LINE
  8
_1-0_
  6
CONTINUOUS
 62
    7
 10
337.77894835686345
 20
162.97198042759726
 11
329.77894670726465
 21
170.97198207719606
  0
LINE
  8
_1-0_
  6
CONTINUOUS
 62
    7
 10
337.77894835686345
 20
165.80040318018382
 11
330.58470355969814
 21
172.99465416334471
  0
LINE
  8
_1-0_
  6
CONTINUOUS
 62
    7
 10
337.77894835686345
 20
168.62883830476153
 11
333.4131263122847
 21
172.99465416334471
  0
LINE
  8
_1-0_
  6
CONTINUOUS
 62
    7
 10
337.77894835686345
 20
171.45726105734809
 11
336.24155525086684
 21
172.99465416334471
  0
LINE
  8
_1-0_
  6
CONTINUOUS
 62
    7
 10
323.17894720214429
 20
168.79466010190046
 11
323.17894720214429
 21
165.79466257629869
  0
LINE
  8
_1-0_
  6
CONTINUOUS
 62
    2
 10
323.60864501213689
 20
167.27075246623744
 11
323.60864501213689
 21
168.64059169633668
  0
LINE
  8
_1-0_
  6
CONTINUOUS
 62
    2
 10
323.60864501213689
 20
168.64059169633668
 11
324.66469343116137
 21
168.64059169633668
  0
LINE
  8
_1-0_
  6
CONTINUOUS
 62
    7
 10
323.17894720214429
 20
165.19465812238187
 11
323.17894720214429
 21
165.79466257629869
  0
LINE
  8
_1-0_
  6
CONTINUOUS
 62
    7
 10
323.17894720214429
 20
165.79466257629869
 11
318.37894868678325
 21
165.79466257629869
  0
LINE
  8
_1-0_
  6
CONTINUOUS
 62
    7
 10
318.37894868678325
 20
165.79466257629869
 11
318.37894868678325
 21
165.19465812238187
  0
LINE
  8
_1-0_
  6
CONTINUOUS
 62
    7
 10
318.37894868678325
 20
165.19465812238187
 11
323.17894720214429
 21
165.19465812238187
  0
LINE
  8
_1-0_
  6
CONTINUOUS
 62
    7
 10
323.17894720214429
 20
165.79466257629869
 11
318.37894868678325
 21
165.19465812238187
  0
LINE
  8
_1-0_
  6
CONTINUOUS
 62
    7
 10
262.57894274822746
 20
165.19465812238187
 11
262.57894274822746
 21
165.79466257629869
  0
LINE
  8
_1-0_
  6
CONTINUOUS
 62
    7
 10
262.57894274822746
 20
165.79466257629869
 11
257.77894423286637
 21
165.79466257629869
  0
LINE
  8
_1-0_
  6
CONTINUOUS
 62
    7
 10
257.77894423286637
 20
165.79466257629869
 11
257.77894423286637
 21
165.19465812238187
  0
LINE
  8
_1-0_
  6
CONTINUOUS
 62
    7
 10
257.77894423286637
 20
165.19465812238187
 11
262.57894274822746
 21
165.19465812238187
  0
LINE
  8
_1-0_
  6
CONTINUOUS
 62
    7
 10
262.57894274822746
 20
165.79466257629869
 11
257.77894423286637
 21
165.19465812238187
  0
LINE
  8
_1-0_
  6
CONTINUOUS
 62
    7
 10
201.97895066630178
 20
165.19465812238187
 11
201.97895066630178
 21
165.79466257629869
  0
LINE
  8
_1-0_
  6
CONTINUOUS
 62
    7
 10
201.97895066630178
 20
165.79466257629869
 11
197.17896452293186
 21
165.79466257629869
  0
LINE
  8
_1-0_
  6
CONTINUOUS
 62
    7
 10
197.17896452293186
 20
165.79466257629869
 11
197.17896452293186
 21
165.19465812238187
  0
LINE
  8
_1-0_
  6
CONTINUOUS
 62
    7
 10
197.17896452293186
 20
165.19465812238187
 11
201.97895066630178
 21
165.19465812238187
  0
LINE
  8
_1-0_
  6
CONTINUOUS
 62
    7
 10
201.97895066630178
 20
165.79466257629869
 11
197.17896452293186
 21
165.19465812238187
  0
LINE
  8
_1-0_
  6
CONTINUOUS
 62
    7
 10
141.37895858437611
 20
165.19465812238187
 11
141.37895858437611
 21
165.79466257629869
  0
LINE
  8
_1-0_
  6
CONTINUOUS
 62
    7
 10
141.37895858437611
 20
165.79466257629869
 11
136.57897244100616
 21
165.79466257629869
  0
LINE
  8
_1-0_
  6
CONTINUOUS
 62
    7
 10
136.57897244100616
 20
165.79466257629869
 11
136.57897244100616
 21
165.19465812238187
  0
LINE
  8
_1-0_
  6
CONTINUOUS
 62
    7
 10
136.57897244100616
 20
165.19465812238187
 11
141.37895858437611
 21
165.19465812238187
  0
LINE
  8
_1-0_
  6
CONTINUOUS
 62
    7
 10
141.37895858437611
 20
165.79466257629869
 11
136.57897244100616
 21
165.19465812238187
  0
LINE
  8
_1-0_
  6
CONTINUOUS
 62
    7
 10
80.778966502450402
 20
165.19465812238187
 11
80.778966502450402
 21
165.79466257629869
  0
LINE
  8
_1-0_
  6
CONTINUOUS
 62
    7
 10
80.778966502450402
 20
165.79466257629869
 11
75.978980359080452
 21
165.79466257629869
  0
LINE
  8
_1-0_
  6
CONTINUOUS
 62
    7
 10
75.978980359080452
 20
165.79466257629869
 11
75.978980359080452
 21
165.19465812238187
  0
LINE
  8
_1-0_
  6
CONTINUOUS
 62
    7
 10
75.978980359080452
 20
165.19465812238187
 11
80.778966502450402
 21
165.19465812238187
  0
LINE
  8
_1-0_
  6
CONTINUOUS
 62
    7
 10
80.778966502450402
 20
165.79466257629869
 11
75.978980359080452
 21
165.19465812238187
  0
LINE
  8
_1-0_
  6
CONTINUOUS
 62
    7
 10
20.178974420524725
 20
165.19465812238187
 11
20.178974420524725
 21
165.79466257629869
  0
LINE
  8
_1-0_
  6
CONTINUOUS
 62
    7
 10
18.956621696707174
 20
165.19465812238187
 11
20.178974420524725
 21
165.19465812238187
  0
LINE
  8
_1-0_
  6
CONTINUOUS
 62
    7
 10
20.178974420524725
 20
165.79466257629869
 11
18.956646440689411
 21
165.64186848582148
  0
LINE
  8
_1-0_
  6
CONTINUOUS
 62
    7
 10
20.178974420524725
 20
165.79466257629869
 11
18.956621696707174
 21
165.79466257629869
  0
LINE
  8
_1-0_
  6
DASHED1
 62
    3
 10
329.47441014555648
 20
164.59465366846507
 11
18.956646440689411
 21
164.59465366846507
  0
LINE
  8
_1-0_
  6
CONTINUOUS
 62
    2
 10
328.86795988426002
 20
165.01677363388947
 11
329.22718064677053
 21
165.01677363388947
  0
LINE
  8
_1-0_
  6
CONTINUOUS
 62
    2
 10
329.22718064677053
 20
165.01677363388947
 11
329.22718064677053
 21
173.77691041862343
  0
LINE
  8
_1-0_
  6
CONTINUOUS
 62
    2
 10
329.22718064677053
 20
173.77691041862343
 11
328.41485426704611
 21
172.47013122732275
  0
LINE
  8
_1-0_
  6
DASHED1
 62
    3
 10
337.77894835686345
 20
173.59465861726153
 11
329.47441014555648
 21
173.59465861726153
  0
LINE
  8
_1-0_
  6
DASHED1
 62
    3
 10
329.47441014555648
 20
173.59465861726153
 11
329.47441014555648
 21
164.59465366846507
  0
LINE
  8
_1-0_
  6
CONTINUOUS
 62
    3
 10
323.17894720214429
 20
168.79466010190046
 11
148.37898167875954
 21
168.79466010190046
  0
LINE
  8
_1-0_
  6
CONTINUOUS
 62
    3
 10
206.37896270837317
 20
168.79466010190046
 11
87.178997514908161
 21
168.79466010190046
  0
LINE
  8
_1-0_
  6
CONTINUOUS
 62
    3
 10
145.17896617253069
 20
168.79466010190046
 11
25.978963863092275
 21
168.79466010190046
  0
LINE
  8
_1-0_
  6
CONTINUOUS
 62
    3
 10
83.978957264697016
 20
168.79466010190046
 11
18.956646440689411
 21
168.79466010190046
  0
LINE
  8
ADD_LINE
  6
DOT
 62
    4
 10
328.43455251231381
 20
177.93920588432104
 11
328.43455251231381
 21
191.01412669047934
  0
LINE
  8
ADD_LINE
  6
DOT
 62
    4
 10
275.43455251231381
 20
193.79783991386466
 11
275.43455251231381
 21
166.98628623599555
  0
LINE
  8
ADD_LINE
  6
DOT
 62
    4
 10
222.43455251231381
 20
193.79783991386466
 11
222.43455251231381
 21
166.98628623599555
  0
LINE
  8
ADD_LINE
  6
DOT
 62
    4
 10
169.43455251231381
 20
193.79783991386466
 11
169.43455251231381
 21
166.98628623599555
  0
LINE
  8
ADD_LINE
  6
DOT
 62
    4
 10
116.43455251231381
 20
193.79783991386466
 11
116.43455251231381
 21
166.98628623599555
  0
LINE
  8
ADD_LINE
  6
DOT
 62
    4
 10
63.434552512313786
 20
193.79783991386466
 11
63.434552512313786
 21
166.98628623599555
  0
LINE
  8
ADD_LINE
  6
DOT
 62
    4
 10
10.434552512313786
 20
193.79783991386466
 11
10.434552512313786
 21
166.98628623599555
  0
LINE
  8
_1-1_
  6
CONTINUOUS
 62
    7
 10
327.57520444157774
 20
177.32435627486902
 11
327.57520444157774
 21
175.99029063609859
  0
LINE
  8
_1-2_
  6
CONTINUOUS
 62
    7
 10
178.65135072118352
 20
171.49111321362665
 11
210.27853973881443
 21
84.596155129932598
  0
LINE
  8
_1-2_
  6
CONTINUOUS
 62
    7
 10
210.27853973881443
 20
84.596155129932598
 11
216.2037832195999
 21
84.596155129932598
  0
LINE
  8
_0-1_
  6
CONTINUOUS
 62
    7
 10
197.5395706061075
 20
119.59615306793407
 11
216.2037832195999
 21
119.59615306793407
  0
LINE
  8
_0-1_
  6
CONTINUOUS
 62
    7
 10
200.08735948385242
 20
112.5961547175329
 11
216.2037832195999
 21
112.5961547175329
  0
LINE
  8
_0-1_
  6
CONTINUOUS
 62
    7
 10
202.63517310557964
 20
105.59615636713171
 11
216.2037832195999
 21
105.59615636713171
  0
LINE
  8
_0-1_
  6
CONTINUOUS
 62
    7
 10
205.18296198332456
 20
98.596158016730527
 11
216.2037832195999
 21
98.596158016730527
  0
LINE
  8
_0-1_
  6
CONTINUOUS
 62
    7
 10
207.73075086106948
 20
91.596153480333783
 11
216.2037832195999
 21
91.596153480333783
  0
TEXT
  8
_0-1_
 62
    7
 10
220.59905266507076
 20
117.65281018892225
 40
3
 41
1
 50
0
  1
桟瓦
  0
TEXT
  8
_0-1_
 62
    7
 10
220.59905678906782
 20
103.21786376789186
 40
3
 41
1
 50
0
  1
流し桟
  0
TEXT
  8
_0-1_
 62
    7
 10
220.59905266507076
 20
89.446606625128965
 40
3
 41
1
 50
0
  1
野地板　　ｔ＝12
  0
TEXT
  8
_0-1_
 62
    7
 10
220.59905266507076
 20
82.643935347283744
 40
3
 41
1
 50
0
  1
垂木　　　60ｘ60
  0
TEXT
  8
_1-2_
 62
    7
 10
231.07810853368352
 20
110.50286330600417
 40
3
 41
1
 50
0
  1
18ｘ24
  0
TEXT
  8
_1-2_
 62
    7
 10
232.67441293745253
 20
96.441328321312454
 40
3
 41
1
 50
0
  1
ゴムアス系ルーフィング
  0
TEXT
  8
_1-2_
 62
    7
 10
220.59906091306487
 20
96.2492779029742
 40
3
 41
1
 50
0
  1
下葺き材
  0
TEXT
  8
_1-2_
 62
    7
 10
220.59905266507076
 20
110.35237040587751
 40
3
 41
1
 50
0
  1
瓦桟
  0
ARC
  8
_1-1_
  6
CONTINUOUS
 62
    7
 10
92.50068164365311
 20
217.68784159436638
 40
48.372339413148097
 50
268.90372940627856
 51
288.15780181361771
  0
LINE
  8
_1-1_
  6
CONTINUOUS
 62
    7
 10
76.575204441577711
 20
178.32435627486902
 11
83.575204441577711
 21
172.724356274869
  0
LINE
  8
ADD_LINE
  6
DOT
 62
    4
 10
51.519689645107064
 20
169.32435627486902
 11
83.610872613503375
 21
169.32435627486902
  0
LINE
  8
_1-1_
  6
CONTINUOUS
 62
    7
 10
91.575204441577711
 20
169.32435627486899
 11
83.575204441577711
 21
169.32435627486902
  0
LINE
  8
_1-1_
  6
CONTINUOUS
 62
    7
 10
83.575204441577711
 20
172.724356274869
 11
91.575204441577711
 21
172.724356274869
  0
ARC
  8
_1-1_
  6
CONTINUOUS
 62
    7
 10
65.253710414654591
 20
153.85380181140718
 40
23.979474531055075
 50
40.177537291073364
 51
116.44372435804827
  0
LINE
  8
_1-1_
  6
CONTINUOUS
 62
    7
 10
54.575204441577711
 20
177.724356274869
 11
54.575204441577711
 21
175.32435627486902
  0
ARC
  8
_1-1_
  6
CONTINUOUS
 62
    7
 10
66.030204441577723
 20
161.34102294153567
 40
19.990763770079191
 50
58.16373644885514
 51
124.96071338482965
  0
ARC
  8
_1-1_
  6
CONTINUOUS
 62
    7
 10
93.775135423016096
 20
226.15515115432089
 40
53.476065092461276
 50
267.64226592548619
 51
294.05794333410859
  0
ARC
  8
_1-1_
  6
CONTINUOUS
 62
    7
 10
99.551025338059205
 20
194.48867216204306
 40
24.13714001484826
 50
289.41701181354421
 51
297.09067179872312
  0
ARC
  8
_1-1_
  6
CONTINUOUS
 62
    7
 10
53.476259902885204
 20
325.56737108492086
 40
162.07522092457111
 50
289.49892146442789
 51
290.6158646114751
  0
ARC
  8
_1-1_
  6
CONTINUOUS
 62
    7
 10
112.45066423198682
 20
182.03795293875015
 40
6.8071264751187801
 50
279.50887795358125
 51
297.68337382442581
  0
ARC
  8
_1-1_
  6
CONTINUOUS
 62
    7
 10
108.40618874216608
 20
183.02169552251982
 40
9.7883251327472198
 50
282.80256297725663
 51
301.8757987899786
  0
LINE
  8
_1-1_
  6
CONTINUOUS
 62
    7
 10
110.57520444157771
 20
173.87111043060503
 11
110.57520444157771
 21
172.99969117713212
  0
LINE
  8
_1-1_
  6
CONTINUOUS
 62
    7
 10
113.57520444157772
 20
175.32435627486902
 11
113.57520444157772
 21
174.70950052940236
  0
LINE
  8
_1-1_
  6
CONTINUOUS
 62
    7
 10
115.57520444157772
 20
177.32435627486902
 11
115.57520444157772
 21
175.99029063609859
  0
LINE
  8
_1-1_
  6
CONTINUOUS
 62
    7
 10
107.57520444157771
 20
174.4903891510358
 11
107.57520444157771
 21
171.724356274869
  0
LINE
  8
_1-1_
  6
CONTINUOUS
 62
    7
 10
110.57520444157771
 20
175.38658589249061
 11
110.57520444157771
 21
176.01897718149198
  0
ARC
  8
_1-1_
  6
CONTINUOUS
 62
    7
 10
93.775135423016096
 20
226.15515115432089
 40
52.876065092461275
 50
288.52542245613142
 51
290.13311549840847
  0
LINE
  8
_1-1_
  6
CONTINUOUS
 62
    7
 10
113.97520444157772
 20
176.6410445843897
 11
113.97520444157772
 21
177.28966771961467
  0
LINE
  8
_1-1_
  6
CONTINUOUS
 62
    7
 10
111.97520444157772
 20
175.8714855610813
 11
111.97520444157772
 21
176.5100532353743
  0
ARC
  8
_1-1_
  6
CONTINUOUS
 62
    7
 10
145.50068164365308
 20
217.68784159436638
 40
48.372339413148097
 50
268.90372940627856
 51
288.15780181361771
  0
LINE
  8
_1-1_
  6
CONTINUOUS
 62
    7
 10
129.57520444157768
 20
178.32435627486902
 11
136.57520444157768
 21
172.724356274869
  0
LINE
  8
_1-1_
  6
CONTINUOUS
 62
    7
 10
144.57520444157768
 20
169.32435627486899
 11
136.57520444157768
 21
169.32435627486902
  0
LINE
  8
_1-1_
  6
CONTINUOUS
 62
    7
 10
136.57520444157768
 20
172.724356274869
 11
144.57520444157768
 21
172.724356274869
  0
ARC
  8
_1-1_
  6
CONTINUOUS
 62
    7
 10
118.25371041465456
 20
153.85380181140718
 40
23.979474531055075
 50
40.177537291073364
 51
116.44372435804827
  0
LINE
  8
_1-1_
  6
CONTINUOUS
 62
    7
 10
107.57520444157768
 20
177.724356274869
 11
107.57520444157768
 21
175.32435627486902
  0
ARC
  8
_1-1_
  6
CONTINUOUS
 62
    7
 10
119.03020444157769
 20
161.34102294153567
 40
19.990763770079191
 50
58.16373644885514
 51
124.96071338482965
  0
ARC
  8
_1-1_
  6
CONTINUOUS
 62
    7
 10
146.77513542301608
 20
226.15515115432089
 40
53.476065092461276
 50
267.64226592548619
 51
294.05794333410859
  0
ARC
  8
_1-1_
  6
CONTINUOUS
 62
    7
 10
152.55102533805916
 20
194.48867216204306
 40
24.13714001484826
 50
289.41701181354421
 51
297.09067179872312
  0
ARC
  8
_1-1_
  6
CONTINUOUS
 62
    7
 10
106.47625990288518
 20
325.56737108492086
 40
162.07522092457111
 50
289.49892146442789
 51
290.6158646114751
  0
ARC
  8
_1-1_
  6
CONTINUOUS
 62
    7
 10
165.45066423198679
 20
182.03795293875015
 40
6.8071264751187801
 50
279.50887795358125
 51
297.68337382442581
  0
ARC
  8
_1-1_
  6
CONTINUOUS
 62
    7
 10
161.40618874216605
 20
183.02169552251982
 40
9.7883251327472198
 50
282.80256297725663
 51
301.8757987899786
  0
LINE
  8
_1-1_
  6
CONTINUOUS
 62
    7
 10
163.57520444157768
 20
173.87111043060503
 11
163.57520444157768
 21
172.99969117713212
  0
LINE
  8
_1-1_
  6
CONTINUOUS
 62
    7
 10
166.57520444157768
 20
175.32435627486902
 11
166.57520444157768
 21
174.70950052940236
  0
LINE
  8
_1-1_
  6
CONTINUOUS
 62
    7
 10
168.57520444157768
 20
177.32435627486902
 11
168.57520444157768
 21
175.99029063609859
  0
LINE
  8
_1-1_
  6
CONTINUOUS
 62
    7
 10
160.57520444157768
 20
174.4903891510358
 11
160.57520444157768
 21
171.724356274869
  0
LINE
  8
_1-1_
  6
CONTINUOUS
 62
    7
 10
163.57520444157768
 20
175.38658589249061
 11
163.57520444157768
 21
176.01897718149198
  0
ARC
  8
_1-1_
  6
CONTINUOUS
 62
    7
 10
146.77513542301608
 20
226.15515115432089
 40
52.876065092461275
 50
288.52542245613142
 51
290.13311549840847
  0
LINE
  8
_1-1_
  6
CONTINUOUS
 62
    7
 10
166.97520444157769
 20
176.6410445843897
 11
166.97520444157769
 21
177.28966771961467
  0
LINE
  8
_1-1_
  6
CONTINUOUS
 62
    7
 10
164.97520444157769
 20
175.8714855610813
 11
164.97520444157769
 21
176.5100532353743
  0
ARC
  8
_1-1_
  6
CONTINUOUS
 62
    7
 10
198.50068164365311
 20
217.68784159436638
 40
48.372339413148097
 50
268.90372940627856
 51
288.15780181361771
  0
LINE
  8
_1-1_
  6
CONTINUOUS
 62
    7
 10
182.57520444157771
 20
178.32435627486902
 11
189.57520444157771
 21
172.724356274869
  0
LINE
  8
_1-1_
  6
CONTINUOUS
 62
    7
 10
197.57520444157771
 20
169.32435627486899
 11
189.57520444157771
 21
169.32435627486902
  0
LINE
  8
_1-1_
  6
CONTINUOUS
 62
    7
 10
189.57520444157771
 20
172.724356274869
 11
197.57520444157771
 21
172.724356274869
  0
ARC
  8
_1-1_
  6
CONTINUOUS
 62
    7
 10
171.25371041465459
 20
153.85380181140718
 40
23.979474531055075
 50
40.177537291073364
 51
116.44372435804827
  0
LINE
  8
_1-1_
  6
CONTINUOUS
 62
    7
 10
160.57520444157771
 20
177.724356274869
 11
160.57520444157771
 21
175.32435627486902
  0
ARC
  8
_1-1_
  6
CONTINUOUS
 62
    7
 10
172.03020444157772
 20
161.34102294153567
 40
19.990763770079191
 50
58.16373644885514
 51
124.96071338482965
  0
ARC
  8
_1-1_
  6
CONTINUOUS
 62
    7
 10
199.77513542301608
 20
226.15515115432089
 40
53.476065092461276
 50
267.64226592548619
 51
294.05794333410859
  0
ARC
  8
_1-1_
  6
CONTINUOUS
 62
    7
 10
205.55102533805922
 20
194.48867216204306
 40
24.13714001484826
 50
289.41701181354421
 51
297.09067179872312
  0
ARC
  8
_1-1_
  6
CONTINUOUS
 62
    7
 10
159.4762599028852
 20
325.56737108492086
 40
162.07522092457111
 50
289.49892146442789
 51
290.6158646114751
  0
ARC
  8
_1-1_
  6
CONTINUOUS
 62
    7
 10
218.45066423198682
 20
182.03795293875015
 40
6.8071264751187801
 50
279.50887795358125
 51
297.68337382442581
  0
ARC
  8
_1-1_
  6
CONTINUOUS
 62
    7
 10
214.40618874216608
 20
183.02169552251982
 40
9.7883251327472198
 50
282.80256297725663
 51
301.8757987899786
  0
LINE
  8
_1-1_
  6
CONTINUOUS
 62
    7
 10
216.57520444157771
 20
173.87111043060503
 11
216.57520444157771
 21
172.99969117713212
  0
LINE
  8
_1-1_
  6
CONTINUOUS
 62
    7
 10
219.57520444157774
 20
175.32435627486902
 11
219.57520444157774
 21
174.70950052940236
  0
LINE
  8
_1-1_
  6
CONTINUOUS
 62
    7
 10
221.57520444157774
 20
177.32435627486902
 11
221.57520444157774
 21
175.99029063609859
  0
LINE
  8
_1-1_
  6
CONTINUOUS
 62
    7
 10
213.57520444157771
 20
174.4903891510358
 11
213.57520444157771
 21
171.724356274869
  0
LINE
  8
_1-1_
  6
CONTINUOUS
 62
    7
 10
216.57520444157771
 20
175.38658589249061
 11
216.57520444157771
 21
176.01897718149198
  0
ARC
  8
_1-1_
  6
CONTINUOUS
 62
    7
 10
199.77513542301608
 20
226.15515115432089
 40
52.876065092461275
 50
288.52542245613142
 51
290.13311549840847
  0
LINE
  8
_1-1_
  6
CONTINUOUS
 62
    7
 10
219.97520444157772
 20
176.6410445843897
 11
219.97520444157772
 21
177.28966771961467
  0
LINE
  8
_1-1_
  6
CONTINUOUS
 62
    7
 10
217.97520444157772
 20
175.8714855610813
 11
217.97520444157772
 21
176.5100532353743
  0
ARC
  8
_1-1_
  6
CONTINUOUS
 62
    7
 10
251.50068164365311
 20
217.68784159436638
 40
48.372339413148097
 50
268.90372940627856
 51
288.15780181361771
  0
LINE
  8
_1-1_
  6
CONTINUOUS
 62
    7
 10
235.57520444157771
 20
178.32435627486902
 11
242.57520444157771
 21
172.724356274869
  0
LINE
  8
_1-1_
  6
CONTINUOUS
 62
    7
 10
250.57520444157771
 20
169.32435627486899
 11
242.57520444157771
 21
169.32435627486902
  0
LINE
  8
_1-1_
  6
CONTINUOUS
 62
    7
 10
242.57520444157771
 20
172.724356274869
 11
250.57520444157771
 21
172.724356274869
  0
ARC
  8
_1-1_
  6
CONTINUOUS
 62
    7
 10
224.25371041465459
 20
153.85380181140718
 40
23.979474531055075
 50
40.177537291073364
 51
116.44372435804827
  0
LINE
  8
_1-1_
  6
CONTINUOUS
 62
    7
 10
213.57520444157771
 20
177.724356274869
 11
213.57520444157771
 21
175.32435627486902
  0
ARC
  8
_1-1_
  6
CONTINUOUS
 62
    7
 10
225.03020444157772
 20
161.34102294153567
 40
19.990763770079191
 50
58.16373644885514
 51
124.96071338482965
  0
ARC
  8
_1-1_
  6
CONTINUOUS
 62
    7
 10
252.77513542301608
 20
226.15515115432089
 40
53.476065092461276
 50
267.64226592548619
 51
294.05794333410859
  0
ARC
  8
_1-1_
  6
CONTINUOUS
 62
    7
 10
258.55102533805922
 20
194.48867216204306
 40
24.13714001484826
 50
289.41701181354421
 51
297.09067179872312
  0
ARC
  8
_1-1_
  6
CONTINUOUS
 62
    7
 10
212.4762599028852
 20
325.56737108492086
 40
162.07522092457111
 50
289.49892146442789
 51
290.6158646114751
  0
ARC
  8
_1-1_
  6
CONTINUOUS
 62
    7
 10
271.45066423198682
 20
182.03795293875015
 40
6.8071264751187801
 50
279.50887795358125
 51
297.68337382442581
  0
ARC
  8
_1-1_
  6
CONTINUOUS
 62
    7
 10
267.40618874216608
 20
183.02169552251982
 40
9.7883251327472198
 50
282.80256297725663
 51
301.8757987899786
  0
LINE
  8
_1-1_
  6
CONTINUOUS
 62
    7
 10
269.57520444157774
 20
173.87111043060503
 11
269.57520444157774
 21
172.99969117713212
  0
LINE
  8
_1-1_
  6
CONTINUOUS
 62
    7
 10
272.57520444157774
 20
175.32435627486902
 11
272.57520444157774
 21
174.70950052940236
  0
LINE
  8
_1-1_
  6
CONTINUOUS
 62
    7
 10
274.57520444157774
 20
177.32435627486902
 11
274.57520444157774
 21
175.99029063609859
  0
LINE
  8
_1-1_
  6
CONTINUOUS
 62
    7
 10
266.57520444157774
 20
174.4903891510358
 11
266.57520444157774
 21
171.724356274869
  0
LINE
  8
_1-1_
  6
CONTINUOUS
 62
    7
 10
269.57520444157774
 20
175.38658589249061
 11
269.57520444157774
 21
176.01897718149198
  0
ARC
  8
_1-1_
  6
CONTINUOUS
 62
    7
 10
252.77513542301608
 20
226.15515115432089
 40
52.876065092461275
 50
288.52542245613142
 51
290.13311549840847
  0
LINE
  8
_1-1_
  6
CONTINUOUS
 62
    7
 10
272.97520444157772
 20
176.6410445843897
 11
272.97520444157772
 21
177.28966771961467
  0
LINE
  8
_1-1_
  6
CONTINUOUS
 62
    7
 10
270.97520444157772
 20
175.8714855610813
 11
270.97520444157772
 21
176.5100532353743
  0
ARC
  8
_1-1_
  6
CONTINUOUS
 62
    7
 10
304.50068164365314
 20
217.68784159436638
 40
48.372339413148097
 50
268.90372940627856
 51
288.15780181361771
  0
LINE
  8
_1-1_
  6
CONTINUOUS
 62
    7
 10
288.57520444157774
 20
178.32435627486902
 11
295.57520444157774
 21
172.724356274869
  0
LINE
  8
_1-1_
  6
CONTINUOUS
 62
    7
 10
303.57520444157774
 20
169.32435627486899
 11
295.57520444157774
 21
169.32435627486902
  0
LINE
  8
_1-1_
  6
CONTINUOUS
 62
    7
 10
295.57520444157774
 20
172.724356274869
 11
303.57520444157774
 21
172.724356274869
  0
ARC
  8
_1-1_
  6
CONTINUOUS
 62
    7
 10
277.25371041465462
 20
153.85380181140718
 40
23.979474531055075
 50
40.177537291073364
 51
116.44372435804827
  0
LINE
  8
_1-1_
  6
CONTINUOUS
 62
    7
 10
266.57520444157774
 20
177.724356274869
 11
266.57520444157774
 21
175.32435627486902
  0
ARC
  8
_1-1_
  6
CONTINUOUS
 62
    7
 10
278.03020444157772
 20
161.34102294153567
 40
19.990763770079191
 50
58.16373644885514
 51
124.96071338482965
  0
ARC
  8
_1-1_
  6
CONTINUOUS
 62
    7
 10
305.77513542301608
 20
226.15515115432089
 40
53.476065092461276
 50
267.64226592548619
 51
294.05794333410859
  0
ARC
  8
_1-1_
  6
CONTINUOUS
 62
    7
 10
311.55102533805922
 20
194.48867216204306
 40
24.13714001484826
 50
289.41701181354421
 51
297.09067179872312
  0
ARC
  8
_1-1_
  6
CONTINUOUS
 62
    7
 10
265.4762599028852
 20
325.56737108492086
 40
162.07522092457111
 50
289.49892146442789
 51
290.6158646114751
  0
ARC
  8
_1-1_
  6
CONTINUOUS
 62
    7
 10
324.45066423198682
 20
182.03795293875015
 40
6.8071264751187801
 50
279.50887795358125
 51
297.68337382442581
  0
ARC
  8
_1-1_
  6
CONTINUOUS
 62
    7
 10
320.40618874216608
 20
183.02169552251982
 40
9.7883251327472198
 50
282.80256297725663
 51
301.8757987899786
  0
LINE
  8
_1-1_
  6
CONTINUOUS
 62
    7
 10
322.57520444157774
 20
173.87111043060503
 11
322.57520444157774
 21
172.99969117713212
  0
LINE
  8
_1-1_
  6
CONTINUOUS
 62
    7
 10
325.57520444157774
 20
175.32435627486902
 11
325.57520444157774
 21
174.70950052940236
  0
LINE
  8
_1-1_
  6
CONTINUOUS
 62
    7
 10
319.57520444157774
 20
174.4903891510358
 11
319.57520444157774
 21
171.724356274869
  0
LINE
  8
_1-1_
  6
CONTINUOUS
 62
    7
 10
322.57520444157774
 20
175.38658589249061
 11
322.57520444157774
 21
176.01897718149198
  0
ARC
  8
_1-1_
  6
CONTINUOUS
 62
    7
 10
305.77513542301608
 20
226.15515115432089
 40
52.876065092461275
 50
288.52542245613142
 51
290.13311549840847
  0
LINE
  8
_1-1_
  6
CONTINUOUS
 62
    7
 10
325.97520444157772
 20
176.6410445843897
 11
325.97520444157772
 21
177.28966771961467
  0
LINE
  8
_1-1_
  6
CONTINUOUS
 62
    7
 10
323.97520444157772
 20
175.8714855610813
 11
323.97520444157772
 21
176.5100532353743
  0
ARC
  8
_1-1_
  6
CONTINUOUS
 62
    7
 10
93.775135423016096
 20
226.15515115432089
 40
52.876065092461275
 50
292.45927816972824
 51
293.19657413126652
  0
LINE
  8
_1-1_
  6
CONTINUOUS
 62
    7
 10
115.57520444157772
 20
177.32435627486899
 11
115.57520444157772
 21
177.68321230637559
  0
ARC
  8
_1-1_
  6
CONTINUOUS
 62
    7
 10
146.77513542301608
 20
226.15515115432089
 40
52.876065092461275
 50
292.45927816972824
 51
293.19657413126646
  0
LINE
  8
_1-1_
  6
CONTINUOUS
 62
    7
 10
168.57520444157768
 20
177.32435627486899
 11
168.57520444157768
 21
177.68321230637559
  0
ARC
  8
_1-1_
  6
CONTINUOUS
 62
    7
 10
199.77513542301608
 20
226.15515115432089
 40
52.876065092461275
 50
292.45927816972824
 51
293.19657413126657
  0
LINE
  8
_1-1_
  6
CONTINUOUS
 62
    7
 10
221.57520444157774
 20
177.32435627486899
 11
221.57520444157774
 21
177.68321230637559
  0
ARC
  8
_1-1_
  6
CONTINUOUS
 62
    7
 10
252.77513542301608
 20
226.15515115432089
 40
52.876065092461275
 50
292.45927816972824
 51
293.19657413126652
  0
LINE
  8
_1-1_
  6
CONTINUOUS
 62
    7
 10
274.57520444157774
 20
177.32435627486899
 11
274.57520444157774
 21
177.68321230637559
  0
LINE
  8
_1-1_
  6
CONTINUOUS
 62
    7
 10
69.956592571524709
 20
184.79769942947786
 11
70.03067605442169
 21
184.69159723353204
  0
LINE
  8
ADD_LINE
  6
DOT
 62
    4
 10
38.047742803788196
 20
186.77711903462995
 11
63.061780889725753
 21
161.76313043665692
  0
LINE
  8
_1-1_
  6
CONTINUOUS
 62
    7
 10
54.574983256187863
 20
170.24991127984936
 11
54.574990877056791
 21
170.24992044932588
  0
LINE
  8
_1-1_
  6
CONTINUOUS
 62
    7
 10
54.575204441577739
 20
219.69222034530401
 11
107.57520444157774
 21
219.69222034530401
  0
POINT
  8
_1-1_
 62
    7
 10
54.575204441577739
 20
219.69222034530401
  0
POINT
  8
_1-1_
 62
    7
 10
107.57520444157774
 20
219.69222034530401
  0
LINE
  8
_1-1_
  6
CONTINUOUS
 62
    7
 10
54.575204441577739
 20
219.69222034530401
 11
54.575204441577739
 21
191.73880936360683
  0
LINE
  8
_1-1_
  6
CONTINUOUS
 62
    7
 10
107.57520444157774
 20
219.69222034530401
 11
107.57520444157774
 21
191.73880936360683
  0
TEXT
  8
_1-1_
 62
    7
 10
78.575204441577739
 20
220.19222034530401
 40
3
 41
1
 50
0
  1
265
  0
LINE
  8
_1-1_
  6
CONTINUOUS
 62
    7
 10
107.57520444157774
 20
219.69222034530401
 11
160.57520444157774
 21
219.69222034530401
  0
POINT
  8
_1-1_
 62
    7
 10
160.57520444157774
 20
219.69222034530401
  0
LINE
  8
_1-1_
  6
CONTINUOUS
 62
    7
 10
160.57520444157774
 20
219.69222034530401
 11
160.57520444157774
 21
191.73880936360683
  0
TEXT
  8
_1-1_
 62
    7
 10
131.57520444157774
 20
220.19222034530401
 40
3
 41
1
 50
0
  1
265
  0
LINE
  8
_1-1_
  6
CONTINUOUS
 62
    7
 10
160.57520444157774
 20
219.69222034530401
 11
213.57520444157774
 21
219.69222034530401
  0
POINT
  8
_1-1_
 62
    7
 10
213.57520444157774
 20
219.69222034530401
  0
LINE
  8
_1-1_
  6
CONTINUOUS
 62
    7
 10
213.57520444157774
 20
219.69222034530401
 11
213.57520444157774
 21
191.73880936360683
  0
TEXT
  8
_1-1_
 62
    7
 10
184.57520444157774
 20
220.19222034530401
 40
3
 41
1
 50
0
  1
265
  0
LINE
  8
_1-1_
  6
CONTINUOUS
 62
    7
 10
213.57520444157774
 20
219.69222034530401
 11
266.57520444157774
 21
219.69222034530401
  0
POINT
  8
_1-1_
 62
    7
 10
266.57520444157774
 20
219.69222034530401
  0
LINE
  8
_1-1_
  6
CONTINUOUS
 62
    7
 10
266.57520444157774
 20
219.69222034530401
 11
266.57520444157774
 21
191.73880936360683
  0
TEXT
  8
_1-1_
 62
    7
 10
237.57520444157774
 20
220.19222034530401
 40
3
 41
1
 50
0
  1
265
  0
LINE
  8
_1-1_
  6
CONTINUOUS
 62
    7
 10
266.57520444157774
 20
219.69222034530401
 11
319.57520444157774
 21
219.69222034530401
  0
POINT
  8
_1-1_
 62
    7
 10
319.57520444157774
 20
219.69222034530401
  0
LINE
  8
_1-1_
  6
CONTINUOUS
 62
    7
 10
319.57520444157774
 20
219.69222034530401
 11
319.57520444157774
 21
191.73880936360683
  0
TEXT
  8
_1-1_
 62
    7
 10
290.57520444157774
 20
220.19222034530401
 40
3
 41
1
 50
0
  1
265
  0
ARC
  8
_1-1_
  6
CONTINUOUS
 62
    7
 10
305.77513542301608
 20
226.15515115432089
 40
52.876065092461275
 50
292.45927816972824
 51
294.34852796076996
  0
LINE
  8
_1-1_
  6
CONTINUOUS
 62
    7
 10
327.57520444157774
 20
177.32435627486899
 11
327.57520444157774
 21
177.98217895570988
  0
ARC
  8
_1-1_
  6
CONTINUOUS
 62
    7
 10
39.500681643653081
 20
217.68784159436638
 40
48.372339413148097
 50
268.90372940627856
 51
288.15780181361771
  0
LINE
  8
_1-1_
  6
CONTINUOUS
 62
    7
 10
23.575204441577682
 20
178.32435627486902
 11
30.575204441577682
 21
172.724356274869
  0
LINE
  8
ADD_LINE
  6
DOT
 62
    4
 10
-1.4803103548929641
 20
169.32435627486902
 11
30.610872613503346
 21
169.32435627486902
  0
LINE
  8
_1-1_
  6
CONTINUOUS
 62
    7
 10
38.575204441577682
 20
169.32435627486899
 11
30.575204441577682
 21
169.32435627486902
  0
LINE
  8
_1-1_
  6
CONTINUOUS
 62
    7
 10
30.575204441577682
 20
172.724356274869
 11
38.575204441577682
 21
172.724356274869
  0
ARC
  8
_1-1_
  6
CONTINUOUS
 62
    7
 10
40.775135423016081
 20
226.15515115432089
 40
53.476065092461276
 50
267.64226592548619
 51
294.05794333410859
  0
ARC
  8
_1-1_
  6
CONTINUOUS
 62
    7
 10
46.551025338059162
 20
194.48867216204306
 40
24.13714001484826
 50
289.41701181354421
 51
297.09067179872312
  0
ARC
  8
_1-1_
  6
CONTINUOUS
 62
    7
 10
0.4762599028851752
 20
325.56737108492086
 40
162.07522092457111
 50
289.49892146442789
 51
290.6158646114751
  0
ARC
  8
_1-1_
  6
CONTINUOUS
 62
    7
 10
59.450664231986792
 20
182.03795293875015
 40
6.8071264751187801
 50
279.50887795358125
 51
297.68337382442581
  0
ARC
  8
_1-1_
  6
CONTINUOUS
 62
    7
 10
55.406188742166051
 20
183.02169552251982
 40
9.7883251327472198
 50
282.80256297725663
 51
301.8757987899786
  0
LINE
  8
_1-1_
  6
CONTINUOUS
 62
    7
 10
57.575204441577682
 20
173.87111043060503
 11
57.575204441577682
 21
172.99969117713212
  0
LINE
  8
_1-1_
  6
CONTINUOUS
 62
    7
 10
60.575204441577682
 20
175.32435627486902
 11
60.575204441577682
 21
174.70950052940236
  0
LINE
  8
_1-1_
  6
CONTINUOUS
 62
    7
 10
62.575204441577682
 20
177.32435627486902
 11
62.575204441577682
 21
175.99029063609859
  0
LINE
  8
_1-1_
  6
CONTINUOUS
 62
    7
 10
54.575204441577682
 20
174.4903891510358
 11
54.575204441577682
 21
171.724356274869
  0
LINE
  8
_1-1_
  6
CONTINUOUS
 62
    7
 10
57.575204441577682
 20
175.38658589249061
 11
57.575204441577682
 21
176.01897718149198
  0
ARC
  8
_1-1_
  6
CONTINUOUS
 62
    7
 10
40.775135423016081
 20
226.15515115432089
 40
52.876065092461275
 50
288.52542245613142
 51
290.13311549840847
  0
LINE
  8
_1-1_
  6
CONTINUOUS
 62
    7
 10
60.975204441577688
 20
176.6410445843897
 11
60.975204441577688
 21
177.28966771961467
  0
LINE
  8
_1-1_
  6
CONTINUOUS
 62
    7
 10
58.975204441577688
 20
175.8714855610813
 11
58.975204441577688
 21
176.5100532353743
  0
LINE
  8
_1-1_
  6
CONTINUOUS
 62
    7
 10
54.575204441577654
 20
177.724356274869
 11
54.575204441577654
 21
175.32435627486902
  0
ARC
  8
_1-1_
  6
CONTINUOUS
 62
    7
 10
40.775135423016081
 20
226.15515115432089
 40
52.876065092461275
 50
292.45927816972824
 51
293.19657413126652
  0
LINE
  8
_1-1_
  6
CONTINUOUS
 62
    7
 10
62.575204441577682
 20
177.32435627486899
 11
62.575204441577682
 21
177.68321230637559
  0
LINE
  8
_1-1_
  6
CONTINUOUS
 62
    7
 10
16.956592571524681
 20
184.79769942947786
 11
17.030676054421662
 21
184.69159723353204
  0
LINE
  8
_1-1_
  6
CONTINUOUS
 62
    7
 10
1.574983256187835
 20
170.24991127984936
 11
1.5749908770567629
 21
170.24992044932588
  0
ARC
  8
_1-1_
  6
CONTINUOUS
 62
    7
 10
12.253710414654563
 20
153.85380181140718
 40
23.979474531055075
 50
40.177537291073364
 51
73.767960041682855
  0
ARC
  8
_1-1_
  6
CONTINUOUS
 62
    7
 10
13.030204441577695
 20
161.34102294153567
 40
19.990763770079191
 50
58.16373644885514
 51
72.754953475690598
  0
ARC
  8
_1-1_
  6
CONTINUOUS
 62
    7
 10
329.76083663941529
 20
101.10194748988971
 40
78.575916269663225
 50
88.668685913085938
 51
102.02443913802891
  0
ARC
  8
_1-1_
  6
CONTINUOUS
 62
    7
 10
273.07618384697446
 20
168.01462432688294
 40
67.254734018686648
 50
346.89290412663883
 51
2.5338089114190514
  0
LINE
  8
_1-1_
  6
CONTINUOUS
 62
    7
 10
313.39120288283965
 20
177.95381609627236
 11
312.06542516348622
 21
179.05568614064981
  0
LINE
  8
_1-1_
  6
CONTINUOUS
 62
    7
 10
327.13822958017442
 20
166.52849158265985
 11
327.1382219593055
 21
166.52850075213638
  0
LINE
  8
_1-1_
  6
CONTINUOUS
 62
    7
 10
339.66545683578357
 20
151.45565446835263
 11
338.57879012836406
 21
152.76313855435748
  0
ARC
  8
_1-1_
  6
CONTINUOUS
 62
    7
 10
273.07618384697446
 20
168.01462432688294
 40
70.654734018686653
 50
346.31256103515625
 51
2.4668579101562211
  0
ARC
  8
_1-1_
  6
CONTINUOUS
 62
    7
 10
329.76083663941529
 20
101.10194748988971
 40
81.97591626966323
 50
88.668685913085938
 51
102.68719482421875
  0
ARC
  8
_1-1_
  6
CONTINUOUS
 62
    7
 10
331.66543044220248
 20
171.05565974706877
 40
12.000000154649889
 50
0
 51
90
  0
LINE
  8
_1-1_
  6
CONTINUOUS
 62
    7
 10
339.66545683578357
 20
151.45565446835263
 11
341.45964298971091
 21
151.0968667255317
  0
LINE
  8
_1-1_
  6
CONTINUOUS
 62
    7
 10
341.7244035999305
 20
151.29590731885929
 11
341.45964298971091
 21
151.0968667255317
  0
LINE
  8
_1-1_
  6
CONTINUOUS
 62
    7
 10
312.06542516348622
 20
179.05568614064981
 11
311.6825367819406
 21
180.97017753634253
  0
LINE
  8
_1-1_
  6
CONTINUOUS
 62
    7
 10
311.75662026483758
 20
181.07627973228836
 11
311.6825367819406
 21
180.97017753634253
  0
ARC
  8
_1-1_
  6
CONTINUOUS
 62
    7
 10
331.66543044220248
 20
171.05565974706877
 40
8.600000154649889
 50
359.54843830075782
 51
90
  0
LINE
  8
_1-a_
  6
CONTINUOUS
 62
    7
 10
329.77894670726465
 20
105.87104825291181
 11
337.77894835686345
 21
105.87104825291181
  0
POINT
  8
_1-a_
 62
    7
 10
329.77894670726465
 20
105.87104825291181
  0
POINT
  8
_1-a_
 62
    7
 10
337.77894835686345
 20
105.87104825291181
  0
LINE
  8
_1-a_
  6
CONTINUOUS
 62
    7
 10
329.77894670726465
 20
105.87104825291181
 11
329.77894670726465
 21
122.99251247920134
  0
LINE
  8
_1-a_
  6
CONTINUOUS
 62
    7
 10
337.77894835686345
 20
105.87104825291181
 11
337.77894835686345
 21
122.99251247920134
  0
TEXT
  8
_1-a_
 62
    7
 10
332.15394753206408
 20
106.37104825291181
 40
3
 41
1
 50
0
  1
40
  0
LINE
  8
_1-a_
  6
CONTINUOUS
 62
    7
 10
337.77894835686345
 20
105.87104825291181
 11
339.66545683578357
 21
105.87104825291181
  0
POINT
  8
_1-a_
 62
    7
 10
339.66545683578357
 20
105.87104825291181
  0
LINE
  8
_1-a_
  6
CONTINUOUS
 62
    7
 10
339.66545683578357
 20
105.87104825291181
 11
339.66545683578357
 21
122.99251247920134
  0
TEXT
  8
_1-a_
 62
    7
 10
337.97220259632354
 20
106.37104825291181
 40
3
 41
1
 50
0
  1
5
  0
LINE
  8
_1-a_
  6
CONTINUOUS
 62
    7
 10
324.47220511745513
 20
168.67189199103856
 11
325.5978880343784
 21
167.12407798026911
  0
LINE
  8
_1-a_
  6
CONTINUOUS
 62
    7
 10
325.5978880343784
 20
167.12407798026911
 11
336.85471720361079
 21
223.26751346181561
  0
LINE
  8
_1-a_
  6
CONTINUOUS
 62
    7
 10
336.85471720361079
 20
223.26751346181561
 11
342.76455251745779
 21
223.26751346181561
  0
LINE
  8
_1-a_
  6
CONTINUOUS
 62
    7
 10
341.35744887130375
 20
176.83309313873204
 11
347.54870491438157
 21
207.7893733541211
  0
LINE
  8
_1-a_
  6
CONTINUOUS
 62
    7
 10
347.54870491438157
 20
207.7893733541211
 11
350.78504330053585
 21
207.7893733541211
  0
TEXT
  8
_1-a_
 62
    7
 10
343.74952506976558
 20
221.71969945104615
 40
3
 41
1
 50
0
  1
捨水切り
  0
TEXT
  8
_1-a_
 62
    7
 10
351.62930548822828
 20
206.24155934335164
 40
3
 41
1
 50
0
  1
袖瓦
  0
LINE
  8
_0-1_
  6
CONTINUOUS
 62
    7
 10
351.71805548836238
 20
123.18391658280153
 11
356.7745191938892
 21
123.18391658280153
  0
TEXT
  8
_0-1_
 62
    7
 10
360.13838728866858
 20
121.32443105968076
 40
3
 41
1
 50
0
  1
破風板　
  0
TEXT
  8
_0-1_
 62
    7
 10
370.38612403909087
 20
121.32443105968076
 40
3
 41
1
 50
0
  1
40ｘ200
  0
LINE
  8
_1-a_
  6
CONTINUOUS
 62
    7
 10
351.71805548836238
 20
123.18391658280153
 11
335.09151414309486
 21
153.74126455906821
  0
TEXT
  8
_1-1_
 62
    7
 10
397.98668885191353
 20
16.769550748752067
 40
3
 41
1
 50
0
  1
11
  0
TEXT
  8
_0-1_
 62
    7
 10
223.13368456897959
 20
20.065471856390218
 40
3
 41
1
 50
0
  1
Ｎｏｖｕｍ　袖　2
  0
TEXT
  8
_0-1_
 62
    7
 10
310.75285402229287
 20
13.379928041157285
 40
3
 41
1
 50
0
  1
〒475－0807　半田市八軒町２８番地
  0
ENDSEC
  0
EOF
