  0
SECTION
  2
HEADER
  9
$ACADVER
  1
AC1009
  9
$INSBASE
 10
0
 20
0
 30
0
  9
$EXTMIN
 10
0
 20
0
  9
$EXTMAX
 10
420
 20
297
  9
$LIMMIN
 10
0
 20
0
  9
$LIMMAX
 10
420
 20
297
  9
$LTSCALE
 40
1
  0
ENDSEC
  0
SECTION
  2
TABLES
  0
TABLE
  2
LTYPE
 70
     9
  0
LTYPE
  2
CONTINUOUS
 70
    64
  3
実線
 72
    65
 73
     0
 40
0.0
  0
LTYPE
  2
DASHED1
 70
    64
  3
--  --  --  --  --  --  --  --  
 72
    65
 73
     2
 40
2.5
 49
1.25
 49
-1.25
  0
LTYPE
  2
DASHED2
 70
    64
  3
----    ----    ----    ----    
 72
    65
 73
     2
 40
5.0
 49
2.5
 49
-2.5
  0
LTYPE
  2
DASHED3
 70
    64
  3
------  ------  ------  ------  
 72
    65
 73
     2
 40
5.0
 49
3.75
 49
-1.25
  0
LTYPE
  2
CENTER1
 70
    64
  3
----- - ----- - ----- - ----- - 
 72
    65
 73
     4
 40
10.0
 49
6.25
 49
-1.25
 49
1.25
 49
-1.25
  0
LTYPE
  2
CENTER2
 70
    64
  3
----------  --  ----------  --  
 72
    65
 73
     4
 40
20.0
 49
12.5
 49
-2.5
 49
2.5
 49
-2.5
  0
LTYPE
  2
PHANTOM1
 70
    64
  3
--- - - --- - - --- - - --- - - 
 72
    65
 73
     6
 40
10.0
 49
3.25
 49
-1.25
 49
1.25
 49
-1.25
 49
1.25
 49
-1.25
  0
LTYPE
  2
PHANTOM2
 70
    64
  3
--------  -  -  --------  -  -  
 72
    65
 73
     6
 40
20.0
 49
10.0
 49
-2.5
 49
1.25
 49
-2.5
 49
1.25
 49
-2.5
  0
LTYPE
  2
DOT
 70
    64
  3
-   -   -   -   -   -   -   -   
 72
    65
 73
     2
 40
2.5
 49
0.625
 49
-1.875
  0
LTYPE
  2
DUMMY
 70
    64
  3
ダミー
 72
    65
 73
     0
 40
0.0
  0
LTYPE
  2
RAND1
 70
    64
  3
ランダム線1
 72
    65
 73
     4
 40
10.0
 49
1.0
 49
-2.0
 49
3.0
 49
-4.0
  0
LTYPE
  2
RAND2
 70
    64
  3
ランダム線2
 72
    65
 73
     4
 40
14.0
 49
2.0
 49
-3.0
 49
4.0
 49
-5.0
  0
LTYPE
  2
RAND3
 70
    64
  3
ランダム線3
 72
    65
 73
     4
 40
18.0
 49
3.0
 49
-4.0
 49
5.0
 49
-6.0
  0
LTYPE
  2
RAND4
 70
    64
  3
ランダム線4
 72
    65
 73
     4
 40
22.0
 49
4.0
 49
-5.0
 49
6.0
 49
-7.0
  0
LTYPE
  2
RAND5
 70
    64
  3
ランダム線5
 72
    65
 73
     4
 40
26.0
 49
5.0
 49
-6.0
 49
7.0
 49
-8.0
  0
LTYPE
  2
LONG1
 70
    64
  3
----------  --  ----------  --  
 72
    65
 73
     4
 40
40.0
 49
32.5
 49
-2.5
 49
2.5
 49
-2.5
  0
LTYPE
  2
LONG2
 70
    64
  3
--------  -  -  --------  -  -  
 72
    65
 73
     6
 40
40.0
 49
30.0
 49
-2.5
 49
1.25
 49
-2.5
 49
1.25
 49
-2.5
  0
LTYPE
  2
LONG3
 70
    64
  3
+++++++++++++++..+++++++++++++++
 72
    65
 73
     2
 40
40.0
 49
37.5
 49
-2.5
  0
LTYPE
  2
LONG4
 70
    64
  3
+++++++++++++++..+++++++++++++++
 72
    65
 73
     2
 40
80.0
 49
75.0
 49
-5.0
  0
LTYPE
  2
LONG5
 70
    64
  3
----------  --  ----------  --  
 72
    65
 73
     4
 40
60.0
 49
37.5
 49
-7.5
 49
7.5
 49
-7.5
  0
LTYPE
  2
dashed
 70
   64
  3
-------   -------------   ------
 72
   65
 73
    2
 40
7.5
 49
6
 49
-1.5
  0
LTYPE
  2
dashed_spaced
 70
   64
  3
----        --------        ----
 72
   65
 73
    2
 40
12
 49
6
 49
-6
  0
LTYPE
  2
long_dashed_dotted
 70
   64
  3
------------- --- --------------
 72
   65
 73
    4
 40
15.25
 49
12
 49
-1.5
 49
0.25
 49
-1.5
  0
LTYPE
  2
long_dashed_double-dotted
 70
   64
  3
----------- --- --- ------------
 72
   65
 73
    6
 40
17
 49
12
 49
-1.5
 49
0.25
 49
-1.5
 49
0.25
 49
-1.5
  0
LTYPE
  2
long_dashed_triplicate-dotted
 70
   64
  3
--------- --- --- --- ----------
 72
   65
 73
    8
 40
18.75
 49
12
 49
-1.5
 49
0.25
 49
-1.5
 49
0.25
 49
-1.5
 49
0.25
 49
-1.5
  0
LTYPE
  2
dotted
 70
   64
  3
   -       -       -       -    
 72
   65
 73
    2
 40
1.75
 49
0.25
 49
-1.5
  0
LTYPE
  2
chain
 70
   64
  3
-------------- -- --------------
 72
   65
 73
    4
 40
18.5
 49
12
 49
-1.5
 49
3.5
 49
-1.5
  0
LTYPE
  2
chain_double_dash
 70
   64
  3
------------ -- -- -------------
 72
   65
 73
    6
 40
23.5
 49
12
 49
-1.5
 49
3.5
 49
-1.5
 49
3.5
 49
-1.5
  0
LTYPE
  2
dashed_dotted
 70
   64
  3
-----------     -     ----------
 72
   65
 73
    4
 40
9.25
 49
6
 49
-1.5
 49
0.25
 49
-1.5
  0
LTYPE
  2
double-dashed_dotted
 70
   64
  3
------   -----------   -   -----
 72
   65
 73
    6
 40
16.75
 49
6
 49
-1.5
 49
6
 49
-1.5
 49
0.25
 49
-1.5
  0
LTYPE
  2
dashed_double-dotted
 70
   64
  3
---------    -    -    ---------
 72
   65
 73
    6
 40
11
 49
6
 49
-1.5
 49
0.25
 49
-1.5
 49
0.25
 49
-1.5
  0
LTYPE
  2
double-dashed_double-dotted
 70
   64
  3
-----   ---------   -   -   ----
 72
   65
 73
    8
 40
18.5
 49
6
 49
-1.5
 49
6
 49
-1.5
 49
0.25
 49
-1.5
 49
0.25
 49
-1.5
  0
LTYPE
  2
dashed_triplicate-dotted
 70
   64
  3
-------    -    -    -    ------
 72
   65
 73
    8
 40
12.75
 49
6
 49
-1.5
 49
0.25
 49
-1.5
 49
0.25
 49
-1.5
 49
0.25
 49
-1.5
  0
LTYPE
  2
double-dashed_triplicate-dotted
 70
   64
  3
-----  ---------  -  -  -  -----
 72
   65
 73
   10
 40
20.25
 49
6
 49
-1.5
 49
6
 49
-1.5
 49
0.25
 49
-1.5
 49
0.25
 49
-1.5
 49
0.25
 49
-1.5
  0
LTYPE
  2
undefined
 70
   64
  3
--------------------------------
 72
   65
 73
    0
 40
0
  0
ENDTAB
  0
TABLE
  2
STYLE
  5
3
100
AcDbSymbolTable
 70
     1
  0
STYLE
  5
10
100
AcDbSymbolTableRecord
100
AcDbTextStyleTableRecord
  2
STANDARD
 70
     0
 40
0.0
 41
1.0
 50
0.0
 71
     0
 42
0.2
  3
txt
  4
bigfont.shx
  0
STYLE
  5
26
100
AcDbSymbolTableRecord
100
AcDbTextStyleTableRecord
  2
TATEGAKI
 70
    68
 40
0.0
 41
1.0
 50
0.0
 71
     0
 42
1.0
  3
txt
  4
bigfont.shx
  0
ENDTAB
  0
TABLE
  2
LAYER
 70
    4
  0
LAYER
  2
_0-1_
 70
   64
 62
    7
  6
CONTINUOUS
  0
LAYER
  2
_1-0_
 70
   64
 62
    7
  6
CONTINUOUS
  0
LAYER
  2
_1-1_
 70
   64
 62
    7
  6
CONTINUOUS
  0
LAYER
  2
ADD_LINE
 70
   64
 62
    7
  6
CONTINUOUS
  0
ENDTAB
  0
ENDSEC
  0
SECTION
  2
BLOCKS
  0
ENDSEC
  0
SECTION
  2
ENTITIES
  0
LINE
  8
_0-1_
  6
CONTINUOUS
 62
    7
 10
213.43723875492589
 20
25.680406435124397
 11
213.43723875492589
 21
11.080383165471062
  0
LINE
  8
ADD_LINE
  6
DOT
 62
    7
 10
125.83724028080478
 20
22.837598665349006
 11
205.20020872562901
 21
22.837598665349006
  0
LINE
  8
_0-1_
  6
CONTINUOUS
 62
    7
 10
7.5772534033633576
 20
25.680406435124397
 11
412.72727781742583
 21
25.680406435124397
  0
LINE
  8
_0-1_
  6
CONTINUOUS
 62
    5
 10
7.5772534033633576
 20
293.59038720905016
 11
412.72727781742583
 21
293.59038720905016
  0
LINE
  8
_0-1_
  6
CONTINUOUS
 62
    5
 10
7.5772534033633576
 20
8.8904055195970386
 11
412.72727781742583
 21
8.8904055195970386
  0
LINE
  8
_0-1_
  6
CONTINUOUS
 62
    7
 10
412.72727781742583
 20
25.680406435124397
 11
412.72727781742583
 21
11.080383165471062
  0
LINE
  8
_0-1_
  6
CONTINUOUS
 62
    7
 10
7.5772534033633576
 20
14.834709509007439
 11
7.5772534033633576
 21
11.080383165471062
  0
LINE
  8
_0-1_
  6
CONTINUOUS
 62
    7
 10
7.5772534033633576
 20
25.680406435124397
 11
7.5772534033633576
 21
19.857313974492058
  0
LINE
  8
_0-1_
  6
CONTINUOUS
 62
    7
 10
7.5772534033633576
 20
19.857313974492058
 11
7.5772534033633576
 21
19.500179155461296
  0
LINE
  8
_0-1_
  6
CONTINUOUS
 62
    7
 10
7.5772534033633576
 20
19.857313974492058
 11
7.5772534033633576
 21
14.834709509007439
  0
LINE
  8
_0-1_
  6
CONTINUOUS
 62
    7
 10
7.5772534033633576
 20
11.080383165471062
 11
412.72727781742583
 21
11.080383165471062
  0
LINE
  8
_0-1_
  6
CONTINUOUS
 62
    7
 10
407.77128416508208
 20
21.534768922917365
 11
399.9884777685977
 21
13.751917703740105
  0
LINE
  8
_0-1_
  6
CONTINUOUS
 62
    7
 10
412.72727781742583
 20
11.080383165471062
 11
412.72727781742583
 21
25.680406435124397
  0
LINE
  8
_0-1_
  6
CONTINUOUS
 62
    7
 10
290.08723265141026
 20
25.680406435124397
 11
290.08723265141026
 21
19.020202501408562
  0
LINE
  8
_0-1_
  6
CONTINUOUS
 62
    7
 10
290.08723265141026
 20
19.020202501408562
 11
290.08723265141026
 21
11.080383165471062
  0
LINE
  8
_0-1_
  6
CONTINUOUS
 62
    7
 10
213.43723875492589
 20
18.380405290715203
 11
288.84425169437901
 21
18.380405290715203
  0
LINE
  8
_0-1_
  6
CONTINUOUS
 62
    7
 10
306.87721067875401
 20
25.680406435124397
 11
306.87721067875401
 21
19.857313974492058
  0
LINE
  8
_0-1_
  6
CONTINUOUS
 62
    7
 10
306.87721067875401
 20
19.857313974492058
 11
306.87721067875401
 21
11.080383165471062
  0
LINE
  8
_0-1_
  6
CONTINUOUS
 62
    7
 10
213.43723875492589
 20
18.380405290715203
 11
290.08723265141026
 21
18.380405290715203
  0
LINE
  8
_0-1_
  6
CONTINUOUS
 62
    7
 10
394.4772472998477
 20
25.680406435124397
 11
394.4772472998477
 21
11.080383165471062
  0
LINE
  8
ADD_LINE
  6
DOT
 62
    7
 10
18.655595841107498
 20
22.837598665349006
 11
48.897417130169998
 21
22.837598665349006
  0
LINE
  8
ADD_LINE
  6
DOT
 62
    7
 10
48.897417130169998
 20
22.837598665349006
 11
127.16582304447665
 21
22.837598665349006
  0
LINE
  8
ADD_LINE
  6
DOT
 62
    7
 10
205.20020872562901
 20
22.837598665349006
 11
328.84751707523839
 21
22.837598665349006
  0
LINE
  8
_0-1_
  6
CONTINUOUS
 62
    7
 10
263.07722288578526
 20
18.380405290715203
 11
263.07722288578526
 21
11.080383165471062
  0
LINE
  8
ADD_LINE
  6
DOT
 62
    7
 10
214.60806089848057
 20
15.584670408360466
 11
273.05274778812901
 21
15.584670408360466
  0
LINE
  8
ADD_LINE
  6
DOT
 62
    7
 10
328.84751707523839
 20
22.837598665349006
 11
403.85075193851958
 21
22.837598665349006
  0
TEXT
  8
_0-1_
 62
    7
 10
9.3539288660861359
 20
22.597051485173225
 40
2
 41
1
 50
0
  1
特記
  0
TEXT
  8
_0-1_
 62
    7
 10
213.43606382816807
 20
22.583328111760139
 40
2
 41
1
 50
0
  1
図面名
  0
TEXT
  8
_0-1_
 62
    7
 10
213.76429563969151
 20
15.247170789830193
 40
2
 41
1
 50
0
  1
SCALE
  0
TEXT
  8
_0-1_
 62
    7
 10
263.93104368656651
 20
15.16264854251574
 40
2
 41
1
 50
0
  1
DATE
  0
TEXT
  8
_0-1_
 62
    7
 10
291.17832762211339
 20
22.653281076542854
 40
2
 41
1
 50
0
  1
担当
  0
TEXT
  8
_0-1_
 62
    7
 10
395.47913938969145
 20
22.372781618229865
 40
2.5
 41
1
 50
0
  1
NO
  0
LINE
  8
_0-1_
  6
CONTINUOUS
 62
    4
 10
18.11883360355867
 20
22.111630304448127
 11
213.43723875492589
 21
22.111630304448127
  0
LINE
  8
_0-1_
  6
CONTINUOUS
 62
    4
 10
18.11883360355867
 20
18.461629732243523
 11
213.43723875492589
 21
18.461629732243523
  0
LINE
  8
_0-1_
  6
CONTINUOUS
 62
    4
 10
18.11883360355867
 20
14.811652048222527
 11
213.43723875492589
 21
14.811652048222527
  0
LINE
  8
ADD_LINE
  6
DOT
 62
    4
 10
311.249670296575
 20
19.812035451072745
 11
345.00828120240271
 21
19.812035451072745
  0
TEXT
  8
_0-1_
 62
    7
 10
310.64143599415735
 20
19.578707430822249
 40
3
 41
1
 50
0
  1
株式会社
  0
TEXT
  8
_0-1_
 62
    3
 10
328.38745303781229
 20
19.490272438212457
 40
5
 41
1
 50
0
  1
神　清
  0
TEXT
  8
_0-1_
 62
    7
 10
223.82205475621606
 20
12.751538617002723
 40
3
 41
1
 50
0
  1
1/5
  0
LINE
  8
ADD_LINE
  6
DOT
 62
    4
 10
-1.4803103548929641
 20
169.32435627486902
 11
30.610872613503346
 21
169.32435627486902
  0
LINE
  8
_1-1_
  6
CONTINUOUS
 62
    7
 10
1.574983256187835
 20
170.24991127984936
 11
1.5749908770567629
 21
170.24992044932588
  0
TEXT
  8
_1-1_
 62
    7
 10
397.98668885191353
 20
16.769550748752067
 40
3
 41
1
 50
0
  1
13
  0
TEXT
  8
_0-1_
 62
    7
 10
223.13368456897959
 20
20.065471856390189
 40
3
 41
1
 50
0
  1
Ｎｏｖｕｍ　袖　4
  0
TEXT
  8
_0-1_
 62
    7
 10
310.75285402229287
 20
13.379928041157285
 40
3
 41
1
 50
0
  1
〒475－0807　半田市八軒町２８番地
  0
LINE
  8
_1-0_
  6
CONTINUOUS
 62
    7
 10
343.30866763191722
 20
164.35812237425353
 11
42.086370582059658
 21
164.35812237425353
  0
LINE
  8
_1-0_
  6
CONTINUOUS
 62
    7
 10
292.30867876670925
 20
149.9581144561792
 11
292.30867876670925
 21
161.95811693057743
  0
LINE
  8
_1-0_
  6
CONTINUOUS
 62
    7
 10
292.30867876670925
 20
161.95811693057743
 11
280.30867629231102
 21
161.95811693057743
  0
LINE
  8
_1-0_
  6
CONTINUOUS
 62
    7
 10
280.30867629231102
 20
161.95811693057743
 11
280.30867629231102
 21
149.9581144561792
  0
LINE
  8
_1-0_
  6
CONTINUOUS
 62
    7
 10
280.30867629231102
 20
149.9581144561792
 11
292.30867876670925
 21
149.9581144561792
  0
LINE
  8
_1-0_
  6
CONTINUOUS
 62
    7
 10
280.30867629231102
 20
161.95811693057743
 11
292.30867876670925
 21
149.9581144561792
  0
LINE
  8
_1-0_
  6
CONTINUOUS
 62
    7
 10
231.70868668478357
 20
149.9581144561792
 11
231.70868668478357
 21
161.95811693057743
  0
LINE
  8
_1-0_
  6
CONTINUOUS
 62
    7
 10
231.70868668478357
 20
161.95811693057743
 11
219.70869658237643
 21
161.95811693057743
  0
LINE
  8
_1-0_
  6
CONTINUOUS
 62
    7
 10
219.70869658237643
 20
161.95811693057743
 11
219.70869658237643
 21
149.9581144561792
  0
LINE
  8
_1-0_
  6
CONTINUOUS
 62
    7
 10
219.70869658237643
 20
149.9581144561792
 11
231.70868668478357
 21
149.9581144561792
  0
LINE
  8
_1-0_
  6
CONTINUOUS
 62
    7
 10
219.70869658237643
 20
161.95811693057743
 11
231.70868668478357
 21
149.9581144561792
  0
LINE
  8
_1-0_
  6
CONTINUOUS
 62
    7
 10
171.10869460285784
 20
149.9581144561792
 11
171.10869460285784
 21
161.95811693057743
  0
LINE
  8
_1-0_
  6
CONTINUOUS
 62
    7
 10
171.10869460285784
 20
161.95811693057743
 11
159.10870450045076
 21
161.95811693057743
  0
LINE
  8
_1-0_
  6
CONTINUOUS
 62
    7
 10
159.10870450045076
 20
161.95811693057743
 11
159.10870450045076
 21
149.9581144561792
  0
LINE
  8
_1-0_
  6
CONTINUOUS
 62
    7
 10
159.10870450045076
 20
149.9581144561792
 11
171.10869460285784
 21
149.9581144561792
  0
LINE
  8
_1-0_
  6
CONTINUOUS
 62
    7
 10
159.10870450045076
 20
161.95811693057743
 11
171.10869460285784
 21
149.9581144561792
  0
LINE
  8
_1-0_
  6
CONTINUOUS
 62
    7
 10
110.50870252093218
 20
149.9581144561792
 11
110.50870252093218
 21
161.95811693057743
  0
LINE
  8
_1-0_
  6
CONTINUOUS
 62
    7
 10
110.50870252093218
 20
161.95811693057743
 11
98.508712418525064
 21
161.95811693057743
  0
LINE
  8
_1-0_
  6
CONTINUOUS
 62
    7
 10
98.508712418525064
 20
161.95811693057743
 11
98.508712418525064
 21
149.9581144561792
  0
LINE
  8
_1-0_
  6
CONTINUOUS
 62
    7
 10
98.508712418525064
 20
149.9581144561792
 11
110.50870252093218
 21
149.9581144561792
  0
LINE
  8
_1-0_
  6
CONTINUOUS
 62
    7
 10
98.508712418525064
 20
161.95811693057743
 11
110.50870252093218
 21
149.9581144561792
  0
LINE
  8
_1-0_
  6
CONTINUOUS
 62
    7
 10
49.908710439006541
 20
149.9581144561792
 11
49.908710439006541
 21
161.95811693057743
  0
LINE
  8
_1-0_
  6
CONTINUOUS
 62
    7
 10
42.086370582059658
 20
157.78046668511712
 11
49.908710439006541
 21
149.9581144561792
  0
LINE
  8
_1-0_
  6
CONTINUOUS
 62
    7
 10
49.908710439006541
 20
161.95811693057743
 11
42.086370582059658
 21
161.95811693057743
  0
LINE
  8
_1-0_
  6
CONTINUOUS
 62
    7
 10
49.908710439006541
 20
149.9581144561792
 11
42.086370582059658
 21
149.9581144561792
  0
LINE
  8
_1-0_
  6
CONTINUOUS
 62
    7
 10
285.70866688959774
 20
165.55813128208715
 11
285.70866688959774
 21
166.15813573600394
  0
LINE
  8
_1-0_
  6
CONTINUOUS
 62
    7
 10
285.70866688959774
 20
166.15813573600394
 11
280.9086683742367
 21
166.15813573600394
  0
LINE
  8
_1-0_
  6
CONTINUOUS
 62
    7
 10
280.9086683742367
 20
166.15813573600394
 11
280.9086683742367
 21
165.55813128208715
  0
LINE
  8
_1-0_
  6
CONTINUOUS
 62
    7
 10
280.9086683742367
 20
165.55813128208715
 11
285.70866688959774
 21
165.55813128208715
  0
LINE
  8
_1-0_
  6
CONTINUOUS
 62
    7
 10
285.70866688959774
 20
166.15813573600394
 11
280.9086683742367
 21
165.55813128208715
  0
LINE
  8
_1-0_
  6
CONTINUOUS
 62
    7
 10
225.10867480767206
 20
165.55813128208715
 11
225.10867480767206
 21
166.15813573600394
  0
LINE
  8
_1-0_
  6
CONTINUOUS
 62
    7
 10
225.10867480767206
 20
166.15813573600394
 11
220.30868866430211
 21
166.15813573600394
  0
LINE
  8
_1-0_
  6
CONTINUOUS
 62
    7
 10
220.30868866430211
 20
166.15813573600394
 11
220.30868866430211
 21
165.55813128208715
  0
LINE
  8
_1-0_
  6
CONTINUOUS
 62
    7
 10
220.30868866430211
 20
165.55813128208715
 11
225.10867480767206
 21
165.55813128208715
  0
LINE
  8
_1-0_
  6
CONTINUOUS
 62
    7
 10
225.10867480767206
 20
166.15813573600394
 11
220.30868866430211
 21
165.55813128208715
  0
LINE
  8
_1-0_
  6
CONTINUOUS
 62
    7
 10
164.50868272574638
 20
165.55813128208715
 11
164.50868272574638
 21
166.15813573600394
  0
LINE
  8
_1-0_
  6
CONTINUOUS
 62
    7
 10
164.50868272574638
 20
166.15813573600394
 11
159.70869658237643
 21
166.15813573600394
  0
LINE
  8
_1-0_
  6
CONTINUOUS
 62
    7
 10
159.70869658237643
 20
166.15813573600394
 11
159.70869658237643
 21
165.55813128208715
  0
LINE
  8
_1-0_
  6
CONTINUOUS
 62
    7
 10
159.70869658237643
 20
165.55813128208715
 11
164.50868272574638
 21
165.55813128208715
  0
LINE
  8
_1-0_
  6
CONTINUOUS
 62
    7
 10
164.50868272574638
 20
166.15813573600394
 11
159.70869658237643
 21
165.55813128208715
  0
LINE
  8
_1-0_
  6
CONTINUOUS
 62
    7
 10
103.90869064382069
 20
165.55813128208715
 11
103.90869064382069
 21
166.15813573600394
  0
LINE
  8
_1-0_
  6
CONTINUOUS
 62
    7
 10
103.90869064382069
 20
166.15813573600394
 11
99.108704500450713
 21
166.15813573600394
  0
LINE
  8
_1-0_
  6
CONTINUOUS
 62
    7
 10
99.108704500450713
 20
166.15813573600394
 11
99.108704500450713
 21
165.55813128208715
  0
LINE
  8
_1-0_
  6
CONTINUOUS
 62
    7
 10
99.108704500450713
 20
165.55813128208715
 11
103.90869064382069
 21
165.55813128208715
  0
LINE
  8
_1-0_
  6
CONTINUOUS
 62
    7
 10
103.90869064382069
 20
166.15813573600394
 11
99.108704500450713
 21
165.55813128208715
  0
LINE
  8
_1-0_
  6
CONTINUOUS
 62
    7
 10
43.308698561895028
 20
165.55813128208715
 11
43.308698561895028
 21
166.15813573600394
  0
LINE
  8
_1-0_
  6
CONTINUOUS
 62
    7
 10
42.086345838077477
 20
165.55813128208715
 11
43.308698561895028
 21
165.55813128208715
  0
LINE
  8
_1-0_
  6
CONTINUOUS
 62
    7
 10
43.308698561895028
 20
166.15813573600394
 11
42.086370582059658
 21
166.00534164552676
  0
LINE
  8
_1-0_
  6
CONTINUOUS
 62
    7
 10
43.308698561895028
 20
166.15813573600394
 11
42.086345838077477
 21
166.15813573600394
  0
LINE
  8
_1-0_
  6
CONTINUOUS
 62
    7
 10
387.71718129389467
 20
164.35812237425353
 11
387.71718129389467
 21
173.35812732304998
  0
LINE
  8
_1-0_
  6
CONTINUOUS
 62
    7
 10
370.15483058258764
 20
164.35812237425353
 11
387.71718129389467
 21
164.35812237425353
  0
LINE
  8
_1-0_
  6
CONTINUOUS
 62
    7
 10
370.15483058258764
 20
173.35812732304998
 11
387.71718129389467
 21
173.35812732304998
  0
LINE
  8
_1-0_
  6
CONTINUOUS
 62
    3
 10
229.50868684974341
 20
169.15813326160574
 11
110.30872165627842
 21
169.15813326160574
  0
LINE
  8
_1-0_
  6
CONTINUOUS
 62
    3
 10
168.30869031390097
 20
169.15813326160574
 11
49.108688004462579
 21
169.15813326160574
  0
LINE
  8
_1-0_
  6
CONTINUOUS
 62
    3
 10
107.1086814060673
 20
169.15813326160574
 11
42.086370582059658
 21
169.15813326160574
  0
LINE
  8
_1-0_
  6
CONTINUOUS
 62
    7
 10
336.70866812679685
 20
166.15813573600394
 11
42.086345838077477
 21
166.15813573600394
  0
LINE
  8
_1-0_
  6
CONTINUOUS
 62
    7
 10
343.30866763191722
 20
161.95811693057743
 11
331.30866515751899
 21
161.95811693057743
  0
LINE
  8
_1-0_
  6
CONTINUOUS
 62
    7
 10
343.30866763191722
 20
161.95811693057743
 11
42.086370582059658
 21
161.95811693057743
  0
LINE
  8
_1-0_
  6
CONTINUOUS
 62
    7
 10
336.70866812679685
 20
165.55813128208715
 11
42.086370582059658
 21
165.55813128208715
  0
LINE
  8
_1-0_
  6
CONTINUOUS
 62
    7
 10
336.70866812679685
 20
166.15813573600394
 11
336.70866812679685
 21
165.55813128208715
  0
LINE
  8
_1-0_
  6
CONTINUOUS
 62
    2
 10
342.39768080891258
 20
165.38024679359475
 11
337.13836593678946
 21
165.38024679359475
  0
LINE
  8
_1-0_
  6
CONTINUOUS
 62
    2
 10
337.13836593678946
 20
165.38024679359475
 11
337.13836593678946
 21
167.63422562594272
  0
LINE
  8
_1-0_
  6
CONTINUOUS
 62
    7
 10
336.70866812679685
 20
169.15813326160574
 11
336.70866812679685
 21
166.15813573600394
  0
LINE
  8
_1-0_
  6
CONTINUOUS
 62
    2
 10
337.13836593678946
 20
167.63422562594272
 11
337.13836593678946
 21
169.00406485604196
  0
LINE
  8
_1-0_
  6
CONTINUOUS
 62
    2
 10
337.13836593678946
 20
169.00406485604196
 11
338.19441435581399
 21
169.00406485604196
  0
LINE
  8
_1-0_
  6
CONTINUOUS
 62
    7
 10
336.70866812679685
 20
165.55813128208715
 11
336.70866812679685
 21
166.15813573600394
  0
LINE
  8
_1-0_
  6
CONTINUOUS
 62
    7
 10
336.70866812679685
 20
166.15813573600394
 11
331.90866961143581
 21
166.15813573600394
  0
LINE
  8
_1-0_
  6
CONTINUOUS
 62
    7
 10
331.90866961143581
 20
166.15813573600394
 11
331.90866961143581
 21
165.55813128208715
  0
LINE
  8
_1-0_
  6
CONTINUOUS
 62
    7
 10
331.90866961143581
 20
165.55813128208715
 11
336.70866812679685
 21
165.55813128208715
  0
LINE
  8
_1-0_
  6
CONTINUOUS
 62
    7
 10
336.70866812679685
 20
166.15813573600394
 11
331.90866961143581
 21
165.55813128208715
  0
LINE
  8
_1-0_
  6
DASHED1
 62
    3
 10
343.00413107020904
 20
164.95812682817035
 11
42.086370582059658
 21
164.95812682817035
  0
LINE
  8
_1-0_
  6
CONTINUOUS
 62
    2
 10
342.39768080891258
 20
165.38024679359475
 11
342.7569015714231
 21
165.38024679359475
  0
LINE
  8
_1-0_
  6
CONTINUOUS
 62
    2
 10
342.7569015714231
 20
165.38024679359475
 11
342.7569015714231
 21
174.14038357832871
  0
LINE
  8
_1-0_
  6
CONTINUOUS
 62
    2
 10
342.7569015714231
 20
174.14038357832871
 11
341.94457519169868
 21
172.83360438702803
  0
LINE
  8
_1-0_
  6
DASHED1
 62
    3
 10
351.30866928151602
 20
173.95813177696678
 11
343.00413107020904
 21
173.95813177696678
  0
LINE
  8
_1-0_
  6
DASHED1
 62
    3
 10
343.00413107020904
 20
173.95813177696678
 11
343.00413107020904
 21
164.95812682817035
  0
LINE
  8
_1-0_
  6
CONTINUOUS
 62
    7
 10
343.30866763191722
 20
161.95811693057743
 11
351.30867546751159
 21
161.95811693057743
  0
LINE
  8
_1-0_
  6
CONTINUOUS
 62
    7
 10
343.30866763191722
 20
164.35812237425353
 11
351.30867546751159
 21
164.35812237425353
  0
LINE
  8
_1-0_
  6
CONTINUOUS
 62
    7
 10
351.30867546751159
 20
173.35812732304998
 11
351.30867546751159
 21
161.95811693057743
  0
LINE
  8
_1-0_
  6
CONTINUOUS
 62
    7
 10
343.30866763191722
 20
173.35812732304998
 11
351.30867546751159
 21
173.35812732304998
  0
LINE
  8
_1-0_
  6
CONTINUOUS
 62
    7
 10
343.30866763191722
 20
173.35812732304998
 11
343.30866763191722
 21
164.35812237425353
  0
LINE
  8
_1-0_
  6
CONTINUOUS
 62
    7
 10
339.32557931899493
 20
149.9581144561792
 11
42.086370582059658
 21
149.9581144561792
  0
LINE
  8
_1-0_
  6
CONTINUOUS
 62
    7
 10
339.32557931899493
 20
149.9581144561792
 11
339.32557931899493
 21
148.75811792033673
  0
LINE
  8
_1-0_
  6
CONTINUOUS
 62
    7
 10
339.32557931899493
 20
148.75811792033673
 11
42.086370582059658
 21
148.75811792033673
  0
LINE
  8
_1-0_
  6
CONTINUOUS
 62
    7
 10
345.30867423031248
 20
144.7581170955373
 11
337.30867258071368
 21
144.7581170955373
  0
LINE
  8
_1-0_
  6
CONTINUOUS
 62
    7
 10
337.30867258071368
 20
148.75811792033673
 11
337.30867258071368
 21
144.7581170955373
  0
LINE
  8
_1-0_
  6
CONTINUOUS
 62
    7
 10
345.30867423031248
 20
161.95811693057743
 11
345.30867423031248
 21
144.7581170955373
  0
LINE
  8
_1-0_
  6
CONTINUOUS
 62
    7
 10
337.30867258071368
 20
161.95811693057743
 11
337.30867258071368
 21
149.9581144561792
  0
LINE
  8
_1-0_
  6
CONTINUOUS
 62
    7
 10
331.30866515751899
 20
149.9581144561792
 11
339.32557931899493
 21
149.9581144561792
  0
LINE
  8
_1-0_
  6
CONTINUOUS
 62
    7
 10
333.30867794190982
 20
164.35812237425353
 11
333.30867794190982
 21
161.95811693057743
  0
LINE
  8
_1-0_
  6
CONTINUOUS
 62
    7
 10
351.30867546751159
 20
173.35812732304998
 11
343.30866763191722
 21
164.35812237425353
  0
LINE
  8
_1-0_
  6
CONTINUOUS
 62
    7
 10
338.77330600686446
 20
144.7581170955373
 11
337.30867258071368
 21
146.22275052168808
  0
LINE
  8
_1-0_
  6
CONTINUOUS
 62
    7
 10
341.60174113144217
 20
144.7581170955373
 11
337.60174030664274
 21
148.75811792033673
  0
LINE
  8
_1-0_
  6
CONTINUOUS
 62
    7
 10
344.43015769803316
 20
144.7581170955373
 11
339.32557931899493
 21
149.8627016605711
  0
LINE
  8
_1-0_
  6
CONTINUOUS
 62
    7
 10
339.2301665233868
 20
149.9581144561792
 11
337.30867258071368
 21
151.87960839885235
  0
LINE
  8
_1-0_
  6
CONTINUOUS
 62
    7
 10
345.30867423031248
 20
146.70802950184012
 11
337.30867258071368
 21
154.70803115143892
  0
LINE
  8
_1-0_
  6
CONTINUOUS
 62
    7
 10
345.30867423031248
 20
149.53645225442668
 11
337.30867258071368
 21
157.53645390402548
  0
LINE
  8
_1-0_
  6
CONTINUOUS
 62
    7
 10
345.30867423031248
 20
152.36488737900439
 11
337.30867258071368
 21
160.36488902860319
  0
LINE
  8
_1-0_
  6
CONTINUOUS
 62
    7
 10
345.30867423031248
 20
155.19331013159095
 11
338.54386124533045
 21
161.95811693057743
  0
LINE
  8
_1-0_
  6
CONTINUOUS
 62
    7
 10
345.30867423031248
 20
158.02174525616866
 11
341.37229636990816
 21
161.95811693057743
  0
LINE
  8
_1-0_
  6
CONTINUOUS
 62
    7
 10
345.30867423031248
 20
160.85016800875522
 11
344.20072530849029
 21
161.95811693057743
  0
LINE
  8
_1-0_
  6
CONTINUOUS
 62
    7
 10
351.30867546751159
 20
163.04462519176832
 11
350.22216102032519
 21
161.95811693057743
  0
LINE
  8
_1-0_
  6
CONTINUOUS
 62
    7
 10
349.79373752541915
 20
164.35812237425353
 11
347.393732081743
 21
161.95811693057743
  0
LINE
  8
_1-0_
  6
CONTINUOUS
 62
    7
 10
346.9653209588281
 20
164.35812237425353
 11
344.56531551515201
 21
161.95811693057743
  0
LINE
  8
_1-0_
  6
CONTINUOUS
 62
    7
 10
344.13691057823269
 20
164.35812237425353
 11
341.73690513455659
 21
161.95811693057743
  0
LINE
  8
_1-0_
  6
CONTINUOUS
 62
    7
 10
341.30848163965055
 20
164.35812237425353
 11
338.90847619597446
 21
161.95811693057743
  0
LINE
  8
_1-0_
  6
CONTINUOUS
 62
    7
 10
338.48006507305956
 20
164.35812237425353
 11
336.08005962938341
 21
161.95811693057743
  0
LINE
  8
_1-0_
  6
CONTINUOUS
 62
    7
 10
335.65164850646852
 20
164.35812237425353
 11
333.30867794190982
 21
162.01515180969483
  0
LINE
  8
_1-0_
  6
CONTINUOUS
 62
    3
 10
336.70866812679685
 20
169.15813326160574
 11
171.50870582012982
 21
169.15813326160574
  0
LINE
  8
_1-0_
  6
CONTINUOUS
 62
    7
 10
345.30867423031248
 20
127.84805487266991
 11
351.30867546751159
 21
127.84805487266991
  0
LINE
  8
_1-0_
  6
CONTINUOUS
 62
    7
 10
345.30867423031248
 20
138.99987075104829
 11
345.30867423031248
 21
127.84805487266991
  0
LINE
  8
_1-0_
  6
CONTINUOUS
 62
    7
 10
351.30867546751159
 20
138.99987075104829
 11
351.30867546751159
 21
127.84805487266991
  0
LINE
  8
_1-0_
  6
CONTINUOUS
 62
    7
 10
351.30867546751159
 20
127.84805487266991
 11
352.30867258071368
 21
127.84805487266991
  0
LINE
  8
_1-0_
  6
CONTINUOUS
 62
    7
 10
352.30867258071368
 20
138.99987075104829
 11
352.30867258071368
 21
127.84805487266991
  0
TEXT
  8
_1-0_
 62
    7
 10
346.30867051871519
 20
128.34805652226873
 40
3
 41
1
 50
0
  1
30
  0
TEXT
  8
_1-0_
 62
    7
 10
352.90943110748992
 20
128.24406993680631
 40
3
 41
1
 50
0
  1
5
  0
POINT
  8
_1-0_
 62
    7
 10
387.71718129389467
 20
164.35812237425353
  0
POINT
  8
_1-0_
 62
    7
 10
387.71718129389467
 20
173.35812732304998
  0
POINT
  8
_1-0_
 62
    7
 10
345.30867423031248
 20
127.84805487266991
  0
POINT
  8
_1-0_
 62
    7
 10
351.30867546751159
 20
127.84805487266991
  0
POINT
  8
_1-0_
 62
    7
 10
352.30867258071368
 20
127.84805487266991
  0
TEXT
  8
_1-0_
 62
    7
 10
387.27383494700439
 20
166.89060882780669
 40
3
 41
1
 50
90
  1
45
  0
LINE
  8
_1-1_
  6
CONTINUOUS
 62
    7
 10
341.83715465871472
 20
177.20643580789144
 11
341.83715465871472
 21
175.87236400415409
  0
LINE
  8
_1-1_
  6
CONTINUOUS
 62
    7
 10
224.54048420896808
 20
84.478232369467648
 11
230.46572768975358
 21
84.478232369467648
  0
LINE
  8
_1-1_
  6
CONTINUOUS
 62
    7
 10
90.837143111522963
 20
178.20643910708907
 11
97.837147647919736
 21
172.60643052917521
  0
LINE
  8
ADD_LINE
  6
DOT
 62
    4
 10
65.781631018314044
 20
169.20643415829261
 11
97.872816098352601
 21
169.20643415829261
  0
LINE
  8
_1-1_
  6
CONTINUOUS
 62
    7
 10
105.83714311152296
 20
169.20643415829261
 11
97.837147647919736
 21
169.20643415829261
  0
LINE
  8
_1-1_
  6
CONTINUOUS
 62
    7
 10
97.837147647919736
 20
172.60643052917521
 11
105.83714311152296
 21
172.60643052917521
  0
LINE
  8
_1-1_
  6
CONTINUOUS
 62
    7
 10
68.837144761121806
 20
177.60643465317227
 11
68.837144761121806
 21
175.20642920949618
  0
LINE
  8
_1-1_
  6
CONTINUOUS
 62
    7
 10
124.83714393632236
 20
173.75319038717774
 11
124.83714393632236
 21
172.88176919181245
  0
LINE
  8
_1-1_
  6
CONTINUOUS
 62
    7
 10
127.83714146192416
 20
175.20642920949618
 11
127.83714146192416
 21
174.59157836622126
  0
LINE
  8
_1-1_
  6
CONTINUOUS
 62
    7
 10
129.83714806031941
 20
177.20643580789144
 11
129.83714806031941
 21
175.87236400415409
  0
LINE
  8
_1-1_
  6
CONTINUOUS
 62
    7
 10
121.83714641072062
 20
174.37247040327784
 11
121.83714641072062
 21
171.60642722997758
  0
LINE
  8
_1-1_
  6
CONTINUOUS
 62
    7
 10
124.83714393632236
 20
175.26866032488891
 11
124.83714393632236
 21
175.90105465158865
  0
LINE
  8
_1-1_
  6
CONTINUOUS
 62
    7
 10
128.23714030720498
 20
176.52311836569336
 11
128.23714030720498
 21
177.171744744758
  0
LINE
  8
_1-1_
  6
CONTINUOUS
 62
    7
 10
126.23714608080085
 20
175.75356814530699
 11
126.23714608080085
 21
176.39213609558146
  0
LINE
  8
_1-1_
  6
CONTINUOUS
 62
    7
 10
143.83714476112181
 20
178.20643910708907
 11
150.83714311152295
 21
172.60643052917521
  0
LINE
  8
_1-1_
  6
CONTINUOUS
 62
    7
 10
158.83714476112181
 20
169.20643415829261
 11
150.83714311152295
 21
169.20643415829261
  0
LINE
  8
_1-1_
  6
CONTINUOUS
 62
    7
 10
150.83714311152295
 20
172.60643052917521
 11
158.83714476112181
 21
172.60643052917521
  0
LINE
  8
_1-1_
  6
CONTINUOUS
 62
    7
 10
121.83714641072062
 20
177.60643465317227
 11
121.83714641072062
 21
175.20642920949618
  0
LINE
  8
_1-1_
  6
CONTINUOUS
 62
    7
 10
177.83714558592123
 20
173.75319038717774
 11
177.83714558592123
 21
172.88176919181245
  0
LINE
  8
_1-1_
  6
CONTINUOUS
 62
    7
 10
180.83714311152301
 20
175.20642920949618
 11
180.83714311152301
 21
174.59157836622126
  0
LINE
  8
_1-1_
  6
CONTINUOUS
 62
    7
 10
182.83714970991826
 20
177.20643580789144
 11
182.83714970991826
 21
175.87236400415409
  0
LINE
  8
_1-1_
  6
CONTINUOUS
 62
    7
 10
174.83714806031941
 20
174.37247040327784
 11
174.83714806031941
 21
171.60642722997758
  0
LINE
  8
_1-1_
  6
CONTINUOUS
 62
    7
 10
177.83714558592123
 20
175.26866032488891
 11
177.83714558592123
 21
175.90105465158865
  0
LINE
  8
_1-1_
  6
CONTINUOUS
 62
    7
 10
181.23714195680378
 20
176.52311836569336
 11
181.23714195680378
 21
177.171744744758
  0
LINE
  8
_1-1_
  6
CONTINUOUS
 62
    7
 10
179.23714773039967
 20
175.75356814530699
 11
179.23714773039967
 21
176.39213609558146
  0
LINE
  8
_1-1_
  6
CONTINUOUS
 62
    7
 10
196.83714641072061
 20
178.20643910708907
 11
203.83714476112181
 21
172.60643052917521
  0
LINE
  8
_1-1_
  6
CONTINUOUS
 62
    7
 10
211.83714641072061
 20
169.20643415829261
 11
203.83714476112181
 21
169.20643415829261
  0
LINE
  8
_1-1_
  6
CONTINUOUS
 62
    7
 10
203.83714476112181
 20
172.60643052917521
 11
211.83714641072061
 21
172.60643052917521
  0
LINE
  8
_1-1_
  6
CONTINUOUS
 62
    7
 10
174.83714806031941
 20
177.60643465317227
 11
174.83714806031941
 21
175.20642920949618
  0
LINE
  8
_1-1_
  6
CONTINUOUS
 62
    7
 10
230.83713486352889
 20
173.75319038717774
 11
230.83713486352889
 21
172.88176919181245
  0
LINE
  8
_1-1_
  6
CONTINUOUS
 62
    7
 10
233.83714476112181
 20
175.20642920949618
 11
233.83714476112181
 21
174.59157836622126
  0
LINE
  8
_1-1_
  6
CONTINUOUS
 62
    7
 10
235.83715135951707
 20
177.20643580789144
 11
235.83715135951707
 21
175.87236400415409
  0
LINE
  8
_1-1_
  6
CONTINUOUS
 62
    7
 10
227.83714970991826
 20
174.37247040327784
 11
227.83714970991826
 21
171.60642722997758
  0
LINE
  8
_1-1_
  6
CONTINUOUS
 62
    7
 10
230.83713486352889
 20
175.26866032488891
 11
230.83713486352889
 21
175.90105465158865
  0
LINE
  8
_1-1_
  6
CONTINUOUS
 62
    7
 10
234.23715597839379
 20
176.52311836569336
 11
234.23715597839379
 21
177.171744744758
  0
LINE
  8
_1-1_
  6
CONTINUOUS
 62
    7
 10
232.23714937999847
 20
175.75356814530699
 11
232.23714937999847
 21
176.39213609558146
  0
LINE
  8
_1-1_
  6
CONTINUOUS
 62
    7
 10
249.83714806031944
 20
178.20643910708907
 11
256.83714641072061
 21
172.60643052917521
  0
LINE
  8
_1-1_
  6
CONTINUOUS
 62
    7
 10
264.83714806031946
 20
169.20643415829261
 11
256.83714641072061
 21
169.20643415829261
  0
LINE
  8
_1-1_
  6
CONTINUOUS
 62
    7
 10
256.83714641072061
 20
172.60643052917521
 11
264.83714806031946
 21
172.60643052917521
  0
LINE
  8
_1-1_
  6
CONTINUOUS
 62
    7
 10
227.83714970991826
 20
177.60643465317227
 11
227.83714970991826
 21
175.20642920949618
  0
LINE
  8
_1-1_
  6
CONTINUOUS
 62
    7
 10
283.83713651312769
 20
173.75319038717774
 11
283.83713651312769
 21
172.88176919181245
  0
LINE
  8
_1-1_
  6
CONTINUOUS
 62
    7
 10
286.83714641072061
 20
175.20642920949618
 11
286.83714641072061
 21
174.59157836622126
  0
LINE
  8
_1-1_
  6
CONTINUOUS
 62
    7
 10
288.83715300911587
 20
177.20643580789144
 11
288.83715300911587
 21
175.87236400415409
  0
LINE
  8
_1-1_
  6
CONTINUOUS
 62
    7
 10
280.83715135951707
 20
174.37247040327784
 11
280.83715135951707
 21
171.60642722997758
  0
LINE
  8
_1-1_
  6
CONTINUOUS
 62
    7
 10
283.83713651312769
 20
175.26866032488891
 11
283.83713651312769
 21
175.90105465158865
  0
LINE
  8
_1-1_
  6
CONTINUOUS
 62
    7
 10
287.23715762799259
 20
176.52311836569336
 11
287.23715762799259
 21
177.171744744758
  0
LINE
  8
_1-1_
  6
CONTINUOUS
 62
    7
 10
285.23715102959727
 20
175.75356814530699
 11
285.23715102959727
 21
176.39213609558146
  0
LINE
  8
_1-1_
  6
CONTINUOUS
 62
    7
 10
302.83714970991826
 20
178.20643910708907
 11
309.83714806031941
 21
172.60643052917521
  0
LINE
  8
_1-1_
  6
CONTINUOUS
 62
    7
 10
317.83714970991826
 20
169.20643415829261
 11
309.83714806031941
 21
169.20643415829261
  0
LINE
  8
_1-1_
  6
CONTINUOUS
 62
    7
 10
309.83714806031941
 20
172.60643052917521
 11
317.83714970991826
 21
172.60643052917521
  0
LINE
  8
_1-1_
  6
CONTINUOUS
 62
    7
 10
280.83715135951707
 20
177.60643465317227
 11
280.83715135951707
 21
175.20642920949618
  0
LINE
  8
_1-1_
  6
CONTINUOUS
 62
    7
 10
336.83713816272655
 20
173.75319038717774
 11
336.83713816272655
 21
172.88176919181245
  0
LINE
  8
_1-1_
  6
CONTINUOUS
 62
    7
 10
339.83714806031941
 20
175.20642920949618
 11
339.83714806031941
 21
174.59157836622126
  0
LINE
  8
_1-1_
  6
CONTINUOUS
 62
    7
 10
333.83715300911587
 20
174.37247040327784
 11
333.83715300911587
 21
171.60642722997758
  0
LINE
  8
_1-1_
  6
CONTINUOUS
 62
    7
 10
336.83713816272655
 20
175.26866032488891
 11
336.83713816272655
 21
175.90105465158865
  0
LINE
  8
_1-1_
  6
CONTINUOUS
 62
    7
 10
340.23713453360915
 20
176.52311836569336
 11
340.23713453360915
 21
177.171744744758
  0
LINE
  8
_1-1_
  6
CONTINUOUS
 62
    7
 10
338.23715267919613
 20
175.75356814530699
 11
338.23715267919613
 21
176.39213609558146
  0
LINE
  8
_1-1_
  6
CONTINUOUS
 62
    7
 10
129.83714806031941
 20
177.20643580789144
 11
129.83714806031941
 21
177.56528541066805
  0
LINE
  8
_1-1_
  6
CONTINUOUS
 62
    7
 10
182.83714970991826
 20
177.20643580789144
 11
182.83714970991826
 21
177.56528541066805
  0
LINE
  8
_1-1_
  6
CONTINUOUS
 62
    7
 10
235.83715135951707
 20
177.20643580789144
 11
235.83715135951707
 21
177.56528541066805
  0
LINE
  8
_1-1_
  6
CONTINUOUS
 62
    7
 10
288.83715300911587
 20
177.20643580789144
 11
288.83715300911587
 21
177.56528541066805
  0
LINE
  8
ADD_LINE
  6
DOT
 62
    4
 10
52.309683271006179
 20
186.65919377215454
 11
77.323724449941437
 21
161.64520517418154
  0
LINE
  8
_1-1_
  6
CONTINUOUS
 62
    7
 10
68.836922065281385
 20
170.13198281485933
 11
68.836934437272532
 21
170.13199518685047
  0
LINE
  8
_1-1_
  6
CONTINUOUS
 62
    7
 10
68.837144761121806
 20
219.57429469461019
 11
121.83714641072062
 21
219.57429469461019
  0
LINE
  8
_1-1_
  6
CONTINUOUS
 62
    7
 10
68.837144761121806
 20
219.57429469461019
 11
68.837144761121806
 21
191.62088183961652
  0
LINE
  8
_1-1_
  6
CONTINUOUS
 62
    7
 10
121.83714641072062
 20
219.57429469461019
 11
121.83714641072062
 21
191.62088183961652
  0
LINE
  8
_1-1_
  6
CONTINUOUS
 62
    7
 10
121.83714641072062
 20
219.57429469461019
 11
174.83714806031941
 21
219.57429469461019
  0
LINE
  8
_1-1_
  6
CONTINUOUS
 62
    7
 10
174.83714806031941
 20
219.57429469461019
 11
174.83714806031941
 21
191.62088183961652
  0
LINE
  8
_1-1_
  6
CONTINUOUS
 62
    7
 10
174.83714806031941
 20
219.57429469461019
 11
227.83714970991826
 21
219.57429469461019
  0
LINE
  8
_1-1_
  6
CONTINUOUS
 62
    7
 10
227.83714970991826
 20
219.57429469461019
 11
227.83714970991826
 21
191.62088183961652
  0
LINE
  8
_1-1_
  6
CONTINUOUS
 62
    7
 10
227.83714970991826
 20
219.57429469461019
 11
280.83715135951707
 21
219.57429469461019
  0
LINE
  8
_1-1_
  6
CONTINUOUS
 62
    7
 10
280.83715135951707
 20
219.57429469461019
 11
280.83715135951707
 21
191.62088183961652
  0
LINE
  8
_1-1_
  6
CONTINUOUS
 62
    7
 10
280.83715135951707
 20
219.57429469461019
 11
333.83715300911587
 21
219.57429469461019
  0
LINE
  8
_1-1_
  6
CONTINUOUS
 62
    7
 10
333.83715300911587
 20
219.57429469461019
 11
333.83715300911587
 21
191.62088183961652
  0
LINE
  8
_1-1_
  6
CONTINUOUS
 62
    7
 10
341.83715465871472
 20
177.20643580789144
 11
341.83715465871472
 21
177.86425457636693
  0
LINE
  8
_1-1_
  6
CONTINUOUS
 62
    7
 10
52.837144554921963
 20
169.20643415829261
 11
44.837145998320807
 21
169.20643415829261
  0
LINE
  8
_1-1_
  6
CONTINUOUS
 62
    7
 10
44.837145998320807
 20
172.60643052917521
 11
52.837144554921963
 21
172.60643052917521
  0
LINE
  8
_1-1_
  6
CONTINUOUS
 62
    7
 10
71.83714847271915
 20
173.75319038717774
 11
71.83714847271915
 21
172.88176919181245
  0
LINE
  8
_1-1_
  6
CONTINUOUS
 62
    7
 10
74.837145998320864
 20
175.20642920949618
 11
74.837145998320864
 21
174.59157836622126
  0
LINE
  8
_1-1_
  6
CONTINUOUS
 62
    7
 10
76.837146410720607
 20
177.20643580789144
 11
76.837146410720607
 21
175.87236400415409
  0
LINE
  8
_1-1_
  6
CONTINUOUS
 62
    7
 10
68.837144761121806
 20
174.37247040327784
 11
68.837144761121806
 21
171.60642722997758
  0
LINE
  8
_1-1_
  6
CONTINUOUS
 62
    7
 10
71.83714847271915
 20
175.26866032488891
 11
71.83714847271915
 21
175.90105465158865
  0
LINE
  8
_1-1_
  6
CONTINUOUS
 62
    7
 10
75.237144843601698
 20
176.52311836569336
 11
75.237144843601698
 21
177.171744744758
  0
LINE
  8
_1-1_
  6
CONTINUOUS
 62
    7
 10
73.237144431202012
 20
175.75356814530699
 11
73.237144431202012
 21
176.39213609558146
  0
LINE
  8
_1-1_
  6
CONTINUOUS
 62
    7
 10
68.837144761121806
 20
177.60643465317227
 11
68.837144761121806
 21
175.20642920949618
  0
LINE
  8
_1-1_
  6
CONTINUOUS
 62
    7
 10
76.837146410720607
 20
177.20643580789144
 11
76.837146410720607
 21
177.56528541066805
  0
LINE
  8
_1-1_
  6
CONTINUOUS
 62
    7
 10
327.65313696181857
 20
177.83589797269295
 11
326.32735439213951
 21
178.93775987487834
  0
LINE
  8
_1-1_
  6
CONTINUOUS
 62
    7
 10
353.9273860644368
 20
151.33772820258105
 11
352.84072933935238
 21
152.64521259737623
  0
LINE
  8
_1-1_
  6
CONTINUOUS
 62
    7
 10
353.9273860644368
 20
151.33772820258105
 11
355.7215722183642
 21
150.97894045976011
  0
LINE
  8
_1-1_
  6
CONTINUOUS
 62
    7
 10
355.98633282858378
 20
151.17798105308779
 11
355.7215722183642
 21
150.97894045976011
  0
LINE
  8
_1-1_
  6
CONTINUOUS
 62
    7
 10
326.32735439213951
 20
178.93775987487834
 11
325.94446601059394
 21
180.85225127057092
  0
LINE
  8
_1-1_
  6
CONTINUOUS
 62
    7
 10
326.01854949349087
 20
180.95835346651685
 11
325.94446601059394
 21
180.85225127057092
  0
LINE
  8
_1-1_
  6
CONTINUOUS
 62
    7
 10
351.11666763115983
 20
223.14960217982977
 11
357.02649561099508
 21
223.14960217982977
  0
LINE
  8
_1-1_
  6
CONTINUOUS
 62
    7
 10
355.61937957161587
 20
176.71516878403165
 11
361.81064560571639
 21
207.67144946656964
  0
LINE
  8
_1-1_
  6
CONTINUOUS
 62
    7
 10
361.81064560571639
 20
207.67144946656964
 11
365.04698527790811
 21
207.67144946656964
  0
ARC
  8
_1-1_
  6
CONTINUOUS
 62
    7
 10
106.76262372213849
 20
217.56990841135428
 40
48.372338784707559
 50
268.90371704101562
 51
288.15779113769531
  0
ARC
  8
_1-1_
  6
CONTINUOUS
 62
    7
 10
79.515651560768106
 20
153.73587784758737
 40
23.979475176012194
 50
40.177536010742188
 51
116.44371032714844
  0
ARC
  8
_1-1_
  6
CONTINUOUS
 62
    7
 10
80.29214865417498
 20
161.22309758074829
 40
19.990763793120518
 50
58.163726806640632
 51
124.96070861816408
  0
ARC
  8
_1-1_
  6
CONTINUOUS
 62
    7
 10
108.03707490061184
 20
226.0372249099818
 40
53.476063496357689
 50
267.64225769042969
 51
294.05793762207031
  0
ARC
  8
_1-1_
  6
CONTINUOUS
 62
    7
 10
113.81296370445476
 20
194.37075482050756
 40
24.137140737997523
 50
289.41700744628906
 51
297.09066772460937
  0
ARC
  8
_1-1_
  6
CONTINUOUS
 62
    7
 10
67.738202648843469
 20
325.44943985930615
 40
162.07522418047935
 50
289.49891662597656
 51
290.61585998535156
  0
ARC
  8
_1-1_
  6
CONTINUOUS
 62
    7
 10
126.71260169999424
 20
181.92002833718831
 40
6.8071267411515528
 50
279.50886535644531
 51
297.68336486816406
  0
ARC
  8
_1-1_
  6
CONTINUOUS
 62
    7
 10
122.66813593906734
 20
182.90377484003881
 40
9.7883250262286214
 50
282.80255126953125
 51
301.87579345703125
  0
ARC
  8
_1-1_
  6
CONTINUOUS
 62
    7
 10
108.03707490061184
 20
226.0372249099818
 40
52.876065228436453
 50
288.52542114257812
 51
290.13310241699219
  0
ARC
  8
_1-1_
  6
CONTINUOUS
 62
    7
 10
159.76261918574176
 20
217.56990841135428
 40
48.372338784707559
 50
268.90371704101562
 51
288.15779113769531
  0
ARC
  8
_1-1_
  6
CONTINUOUS
 62
    7
 10
132.51564702437139
 20
153.73587784758737
 40
23.979475176012194
 50
40.177536010742188
 51
116.44371032714844
  0
ARC
  8
_1-1_
  6
CONTINUOUS
 62
    7
 10
133.29215030377378
 20
161.22309758074829
 40
19.990763793120518
 50
58.163726806640632
 51
124.96070861816408
  0
ARC
  8
_1-1_
  6
CONTINUOUS
 62
    7
 10
161.03708273620629
 20
226.0372249099818
 40
53.476063496357689
 50
267.64225769042969
 51
294.05793762207031
  0
ARC
  8
_1-1_
  6
CONTINUOUS
 62
    7
 10
166.81297154004915
 20
194.37075482050756
 40
24.137140737997523
 50
289.41700744628906
 51
297.09066772460937
  0
ARC
  8
_1-1_
  6
CONTINUOUS
 62
    7
 10
120.73820429844234
 20
325.44943985930615
 40
162.07522418047935
 50
289.49891662597656
 51
290.61585998535156
  0
ARC
  8
_1-1_
  6
CONTINUOUS
 62
    7
 10
179.71260334959311
 20
181.92002833718831
 40
6.8071267411515528
 50
279.50886535644531
 51
297.68336486816406
  0
ARC
  8
_1-1_
  6
CONTINUOUS
 62
    7
 10
175.66812521667504
 20
182.90377484003881
 40
9.7883250262286214
 50
282.80255126953125
 51
301.87579345703125
  0
ARC
  8
_1-1_
  6
CONTINUOUS
 62
    7
 10
161.03708273620629
 20
226.0372249099818
 40
52.876065228436453
 50
288.52542114257812
 51
290.13310241699219
  0
ARC
  8
_1-1_
  6
CONTINUOUS
 62
    7
 10
212.76262083534056
 20
217.56990841135428
 40
48.372338784707559
 50
268.90371704101562
 51
288.15779113769531
  0
ARC
  8
_1-1_
  6
CONTINUOUS
 62
    7
 10
185.51564867397019
 20
153.73587784758737
 40
23.979475176012194
 50
40.177536010742188
 51
116.44371032714844
  0
ARC
  8
_1-1_
  6
CONTINUOUS
 62
    7
 10
186.29213958138149
 20
161.22309758074829
 40
19.990763793120518
 50
58.163726806640632
 51
124.96070861816408
  0
ARC
  8
_1-1_
  6
CONTINUOUS
 62
    7
 10
214.03707201381394
 20
226.0372249099818
 40
53.476063496357689
 50
267.64225769042969
 51
294.05793762207031
  0
ARC
  8
_1-1_
  6
CONTINUOUS
 62
    7
 10
219.81296081765683
 20
194.37075482050756
 40
24.137140737997523
 50
289.41700744628906
 51
297.09066772460937
  0
ARC
  8
_1-1_
  6
CONTINUOUS
 62
    7
 10
173.73820594804113
 20
325.44943985930615
 40
162.07522418047935
 50
289.49891662597656
 51
290.61585998535156
  0
ARC
  8
_1-1_
  6
CONTINUOUS
 62
    7
 10
232.71260499919191
 20
181.92002833718831
 40
6.8071267411515528
 50
279.50886535644531
 51
297.68336486816406
  0
ARC
  8
_1-1_
  6
CONTINUOUS
 62
    7
 10
228.66812686627381
 20
182.90377484003881
 40
9.7883250262286214
 50
282.80255126953125
 51
301.87579345703125
  0
ARC
  8
_1-1_
  6
CONTINUOUS
 62
    7
 10
214.03707201381394
 20
226.0372249099818
 40
52.876065228436453
 50
288.52542114257812
 51
290.13310241699219
  0
ARC
  8
_1-1_
  6
CONTINUOUS
 62
    7
 10
265.76262248493936
 20
217.56990841135428
 40
48.372338784707559
 50
268.90371704101562
 51
288.15779113769531
  0
ARC
  8
_1-1_
  6
CONTINUOUS
 62
    7
 10
238.51566269556014
 20
153.73587784758737
 40
23.979475176012194
 50
40.177536010742188
 51
116.44371032714844
  0
ARC
  8
_1-1_
  6
CONTINUOUS
 62
    7
 10
239.29215360297144
 20
161.22309758074829
 40
19.990763793120518
 50
58.163726806640632
 51
124.96070861816408
  0
ARC
  8
_1-1_
  6
CONTINUOUS
 62
    7
 10
267.03708603540389
 20
226.0372249099818
 40
53.476063496357689
 50
267.64225769042969
 51
294.05793762207031
  0
ARC
  8
_1-1_
  6
CONTINUOUS
 62
    7
 10
272.81297483924681
 20
194.37075482050756
 40
24.137140737997523
 50
289.41700744628906
 51
297.09066772460937
  0
ARC
  8
_1-1_
  6
CONTINUOUS
 62
    7
 10
226.73819522564881
 20
325.44943985930615
 40
162.07522418047935
 50
289.49891662597656
 51
290.61585998535156
  0
ARC
  8
_1-1_
  6
CONTINUOUS
 62
    7
 10
285.71260664879071
 20
181.92002833718831
 40
6.8071267411515528
 50
279.50886535644531
 51
297.68336486816406
  0
ARC
  8
_1-1_
  6
CONTINUOUS
 62
    7
 10
281.66812851587264
 20
182.90377484003881
 40
9.7883250262286214
 50
282.80255126953125
 51
301.87579345703125
  0
ARC
  8
_1-1_
  6
CONTINUOUS
 62
    7
 10
267.03708603540389
 20
226.0372249099818
 40
52.876065228436453
 50
288.52542114257812
 51
290.13310241699219
  0
ARC
  8
_1-1_
  6
CONTINUOUS
 62
    7
 10
318.76262413453816
 20
217.56990841135428
 40
48.372338784707559
 50
268.90371704101562
 51
288.15779113769531
  0
ARC
  8
_1-1_
  6
CONTINUOUS
 62
    7
 10
291.5156396011767
 20
153.73587784758737
 40
23.979475176012194
 50
40.177536010742188
 51
116.44371032714844
  0
ARC
  8
_1-1_
  6
CONTINUOUS
 62
    7
 10
292.2921552525703
 20
161.22309758074829
 40
19.990763793120518
 50
58.163726806640632
 51
124.96070861816408
  0
ARC
  8
_1-1_
  6
CONTINUOUS
 62
    7
 10
320.03708768500269
 20
226.0372249099818
 40
53.476063496357689
 50
267.64225769042969
 51
294.05793762207031
  0
ARC
  8
_1-1_
  6
CONTINUOUS
 62
    7
 10
325.81297648884561
 20
194.37075482050756
 40
24.137140737997523
 50
289.41700744628906
 51
297.09066772460937
  0
ARC
  8
_1-1_
  6
CONTINUOUS
 62
    7
 10
279.73819687524764
 20
325.44943985930615
 40
162.07522418047935
 50
289.49891662597656
 51
290.61585998535156
  0
ARC
  8
_1-1_
  6
CONTINUOUS
 62
    7
 10
338.71260829838951
 20
181.92002833718831
 40
6.8071267411515528
 50
279.50886535644531
 51
297.68336486816406
  0
ARC
  8
_1-1_
  6
CONTINUOUS
 62
    7
 10
334.66813016547144
 20
182.90377484003881
 40
9.7883250262286214
 50
282.80255126953125
 51
301.87579345703125
  0
ARC
  8
_1-1_
  6
CONTINUOUS
 62
    7
 10
320.03708768500269
 20
226.0372249099818
 40
52.876065228436453
 50
288.52542114257812
 51
290.13310241699219
  0
ARC
  8
_1-1_
  6
CONTINUOUS
 62
    7
 10
108.03707490061184
 20
226.0372249099818
 40
52.876065228436453
 50
292.45927429199219
 51
293.19656372070313
  0
ARC
  8
_1-1_
  6
CONTINUOUS
 62
    7
 10
161.03708273620629
 20
226.0372249099818
 40
52.876065228436453
 50
292.45927429199219
 51
293.19656372070313
  0
ARC
  8
_1-1_
  6
CONTINUOUS
 62
    7
 10
214.03707201381394
 20
226.0372249099818
 40
52.876065228436453
 50
292.45927429199219
 51
293.19656372070313
  0
ARC
  8
_1-1_
  6
CONTINUOUS
 62
    7
 10
267.03708603540389
 20
226.0372249099818
 40
52.876065228436453
 50
292.45927429199219
 51
293.19656372070313
  0
ARC
  8
_1-1_
  6
CONTINUOUS
 62
    7
 10
320.03708768500269
 20
226.0372249099818
 40
52.876065228436453
 50
292.45927429199219
 51
294.34852600097656
  0
ARC
  8
_1-1_
  6
CONTINUOUS
 62
    7
 10
53.762622072539557
 20
217.56990841135428
 40
48.372338784707559
 50
268.90371704101562
 51
288.15779113769531
  0
ARC
  8
_1-1_
  6
CONTINUOUS
 62
    7
 10
55.037076344010814
 20
226.0372249099818
 40
53.476063496357689
 50
267.64225769042969
 51
294.05793762207031
  0
ARC
  8
_1-1_
  6
CONTINUOUS
 62
    7
 10
60.812965147853731
 20
194.37075482050756
 40
24.137140737997523
 50
289.41700744628906
 51
297.09066772460937
  0
ARC
  8
_1-1_
  6
CONTINUOUS
 62
    7
 10
14.738201095900763
 20
325.44943985930615
 40
162.07522418047935
 50
289.49891662597656
 51
290.61585998535156
  0
ARC
  8
_1-1_
  6
CONTINUOUS
 62
    7
 10
73.712606236391025
 20
181.92002833718831
 40
6.8071267411515528
 50
279.50886535644531
 51
297.68336486816406
  0
ARC
  8
_1-1_
  6
CONTINUOUS
 62
    7
 10
69.668128103472952
 20
182.90377484003881
 40
9.7883250262286214
 50
282.80255126953125
 51
301.87579345703125
  0
ARC
  8
_1-1_
  6
CONTINUOUS
 62
    7
 10
55.037076344010814
 20
226.0372249099818
 40
52.876065228436453
 50
288.52542114257812
 51
290.13310241699219
  0
ARC
  8
_1-1_
  6
CONTINUOUS
 62
    7
 10
55.037076344010814
 20
226.0372249099818
 40
52.876065228436453
 50
292.45927429199219
 51
293.19656372070313
  0
ARC
  8
_1-1_
  6
CONTINUOUS
 62
    7
 10
344.02276586806857
 20
100.98402741011377
 40
78.575913712785052
 50
88.668685913085952
 51
102.02442932128908
  0
ARC
  8
_1-1_
  6
CONTINUOUS
 62
    7
 10
287.33811307562769
 20
167.89669806111146
 40
67.25473146180849
 50
346.89289855957031
 51
2.5337982177734384
  0
ARC
  8
_1-1_
  6
CONTINUOUS
 62
    7
 10
287.33811307562769
 20
167.89669806111146
 40
70.654734018686653
 50
346.31256103515625
 51
2.466857910156234
  0
ARC
  8
_1-1_
  6
CONTINUOUS
 62
    7
 10
344.02276586806857
 20
100.98402741011377
 40
81.97591626966323
 50
88.668685913085952
 51
102.68719482421876
  0
ARC
  8
_1-1_
  6
CONTINUOUS
 62
    7
 10
345.92735967085576
 20
170.93773348129727
 40
12.000000154649889
 50
0
 51
90
  0
ARC
  8
_1-1_
  6
CONTINUOUS
 62
    7
 10
345.92735967085576
 20
170.93773348129727
 40
8.5999999175200603
 50
359.54843139648438
 51
90.000000000000014
  0
TEXT
  8
_1-1_
 62
    7
 10
245.34005135423837
 20
110.38494054553922
 40
3
 41
1
 50
0
  1
18ｘ24
  0
TEXT
  8
_1-1_
 62
    7
 10
234.86099878482321
 20
96.13135514250925
 40
3
 41
1
 50
0
  1
下葺き材
  0
TEXT
  8
_1-1_
 62
    7
 10
234.86099960962264
 20
110.23444764541254
 40
3
 41
1
 50
0
  1
瓦桟
  0
TEXT
  8
_1-1_
 62
    7
 10
92.837145585921192
 20
220.07429634420902
 40
3
 41
1
 50
0
  1
265
  0
TEXT
  8
_1-1_
 62
    7
 10
145.83714723552004
 20
220.07429634420902
 40
3
 41
1
 50
0
  1
265
  0
TEXT
  8
_1-1_
 62
    7
 10
198.83714269912326
 20
220.07429634420902
 40
3
 41
1
 50
0
  1
265
  0
TEXT
  8
_1-1_
 62
    7
 10
251.83715053471767
 20
220.07429634420902
 40
3
 41
1
 50
0
  1
265
  0
TEXT
  8
_1-1_
 62
    7
 10
304.83715218431649
 20
220.07429634420902
 40
3
 41
1
 50
0
  1
265
  0
TEXT
  8
_1-1_
 62
    7
 10
358.01146446656946
 20
221.60176711331795
 40
3
 41
1
 50
0
  1
捨水切り
  0
TEXT
  8
_1-1_
 62
    7
 10
365.8912483031404
 20
206.12363914404008
 40
3
 41
1
 50
0
  1
袖瓦
  0
POINT
  8
_1-1_
 62
    7
 10
68.837144761121806
 20
219.57429469461019
  0
POINT
  8
_1-1_
 62
    7
 10
121.83714641072062
 20
219.57429469461019
  0
POINT
  8
_1-1_
 62
    7
 10
174.83714806031941
 20
219.57429469461019
  0
POINT
  8
_1-1_
 62
    7
 10
227.83714970991826
 20
219.57429469461019
  0
POINT
  8
_1-1_
 62
    7
 10
280.83715135951707
 20
219.57429469461019
  0
POINT
  8
_1-1_
 62
    7
 10
333.83715300911587
 20
219.57429469461019
  0
ARC
  8
_1-1_
  6
CONTINUOUS
 62
    7
 10
26.515651457668184
 20
153.73587784758737
 40
23.979475176012194
 50
40.177536010742188
 51
49.508496760021636
  0
LINE
  8
_1-1_
  6
CONTINUOUS
 62
    7
 10
42.086370582059658
 20
174.80705426544114
 11
44.837145998320807
 21
172.60643052917521
  0
LINE
  8
ADD_LINE
  6
DOT
 62
    4
 10
234.05539197323833
 20
121.53858751992752
 11
234.05539197323833
 21
80.549703373957882
  0
LINE
  8
ADD_LINE
  6
DOT
 62
    4
 10
230.46572768975358
 20
84.478232369467648
 11
234.58089048793022
 21
84.478232369467648
  0
LINE
  8
ADD_LINE
  6
DOT
 62
    4
 10
230.46572768975358
 20
91.478232369467648
 11
234.58089048793022
 21
91.478232369467648
  0
LINE
  8
ADD_LINE
  6
DOT
 62
    4
 10
230.46572768975358
 20
98.478232369467648
 11
234.58089048793022
 21
98.478232369467648
  0
LINE
  8
ADD_LINE
  6
DOT
 62
    4
 10
230.46572768975358
 20
105.47823236946765
 11
234.58089048793022
 21
105.47823236946765
  0
LINE
  8
ADD_LINE
  6
DOT
 62
    4
 10
230.46572768975358
 20
112.47823236946765
 11
234.58089048793022
 21
112.47823236946765
  0
LINE
  8
ADD_LINE
  6
DOT
 62
    4
 10
230.46572768975358
 20
119.47823236946765
 11
234.58089048793022
 21
119.47823236946765
  0
TEXT
  8
_1-1_
 62
    7
 10
234.05539197323833
 20
82.826863604289528
 40
3
 41
1
 50
0
  1
垂木　　　60ｘ60
  0
TEXT
  8
_1-1_
 62
    7
 10
234.40572431636627
 20
90.183842809976397
 40
3
 41
1
 50
0
  1
野地板　　ｔ＝12
  0
TEXT
  8
_1-1_
 62
    7
 10
234.58089048793022
 20
103.6716380204023
 40
3
 41
1
 50
0
  1
流し桟
  0
TEXT
  8
_1-1_
 62
    7
 10
234.05539197323833
 20
118.38559643177601
 40
3
 41
1
 50
0
  1
桟瓦
  0
LINE
  8
_0-1_
  6
CONTINUOUS
 62
    7
 10
230.46572768975358
 20
112.47823236946765
 11
213.73611607181746
 21
112.47823236946765
  0
LINE
  8
_0-1_
  6
CONTINUOUS
 62
    7
 10
230.46572768975358
 20
119.47823236946765
 11
211.80152167271936
 21
119.47823236946765
  0
LINE
  8
_0-1_
  6
CONTINUOUS
 62
    7
 10
230.46572768975358
 20
105.47823236946765
 11
216.89710668721884
 21
105.47823236946765
  0
LINE
  8
_0-1_
  6
CONTINUOUS
 62
    7
 10
230.46572768975358
 20
98.478232369467648
 11
219.4448991944686
 21
98.478232369467648
  0
LINE
  8
_0-1_
  6
CONTINUOUS
 62
    7
 10
230.46572768975358
 20
91.478232369467648
 11
221.99269170171834
 21
91.478232369467648
  0
LINE
  8
_1-1_
  6
CONTINUOUS
 62
    7
 10
339.53384280171235
 20
165.38024679359475
 11
351.11666763115983
 21
223.14960217982977
  0
LINE
  8
_1-1_
  6
CONTINUOUS
 62
    7
 10
190.82124805241332
 20
177.12104077095503
 11
224.54048420896808
 21
84.478232369467648
  0
TEXT
  8
_1-1_
 62
    7
 10
250.86820080786043
 20
96.013517404436868
 40
3
 41
1
 50
0
  1
ゴムアス系ルーフィング
  0
ENDSEC
  0
EOF
