  0
SECTION
  2
HEADER
  9
$ACADVER
  1
AC1009
  9
$INSBASE
 10
0
 20
0
 30
0
  9
$EXTMIN
 10
0
 20
0
  9
$EXTMAX
 10
420
 20
297
  9
$LIMMIN
 10
0
 20
0
  9
$LIMMAX
 10
420
 20
297
  9
$LTSCALE
 40
1
  0
ENDSEC
  0
SECTION
  2
TABLES
  0
TABLE
  2
LTYPE
 70
     9
  0
LTYPE
  2
CONTINUOUS
 70
    64
  3
実線
 72
    65
 73
     0
 40
0.0
  0
LTYPE
  2
DASHED1
 70
    64
  3
--  --  --  --  --  --  --  --  
 72
    65
 73
     2
 40
2.5
 49
1.25
 49
-1.25
  0
LTYPE
  2
DASHED2
 70
    64
  3
----    ----    ----    ----    
 72
    65
 73
     2
 40
5.0
 49
2.5
 49
-2.5
  0
LTYPE
  2
DASHED3
 70
    64
  3
------  ------  ------  ------  
 72
    65
 73
     2
 40
5.0
 49
3.75
 49
-1.25
  0
LTYPE
  2
CENTER1
 70
    64
  3
----- - ----- - ----- - ----- - 
 72
    65
 73
     4
 40
10.0
 49
6.25
 49
-1.25
 49
1.25
 49
-1.25
  0
LTYPE
  2
CENTER2
 70
    64
  3
----------  --  ----------  --  
 72
    65
 73
     4
 40
20.0
 49
12.5
 49
-2.5
 49
2.5
 49
-2.5
  0
LTYPE
  2
PHANTOM1
 70
    64
  3
--- - - --- - - --- - - --- - - 
 72
    65
 73
     6
 40
10.0
 49
3.25
 49
-1.25
 49
1.25
 49
-1.25
 49
1.25
 49
-1.25
  0
LTYPE
  2
PHANTOM2
 70
    64
  3
--------  -  -  --------  -  -  
 72
    65
 73
     6
 40
20.0
 49
10.0
 49
-2.5
 49
1.25
 49
-2.5
 49
1.25
 49
-2.5
  0
LTYPE
  2
DOT
 70
    64
  3
-   -   -   -   -   -   -   -   
 72
    65
 73
     2
 40
2.5
 49
0.625
 49
-1.875
  0
LTYPE
  2
DUMMY
 70
    64
  3
ダミー
 72
    65
 73
     0
 40
0.0
  0
LTYPE
  2
RAND1
 70
    64
  3
ランダム線1
 72
    65
 73
     4
 40
10.0
 49
1.0
 49
-2.0
 49
3.0
 49
-4.0
  0
LTYPE
  2
RAND2
 70
    64
  3
ランダム線2
 72
    65
 73
     4
 40
14.0
 49
2.0
 49
-3.0
 49
4.0
 49
-5.0
  0
LTYPE
  2
RAND3
 70
    64
  3
ランダム線3
 72
    65
 73
     4
 40
18.0
 49
3.0
 49
-4.0
 49
5.0
 49
-6.0
  0
LTYPE
  2
RAND4
 70
    64
  3
ランダム線4
 72
    65
 73
     4
 40
22.0
 49
4.0
 49
-5.0
 49
6.0
 49
-7.0
  0
LTYPE
  2
RAND5
 70
    64
  3
ランダム線5
 72
    65
 73
     4
 40
26.0
 49
5.0
 49
-6.0
 49
7.0
 49
-8.0
  0
LTYPE
  2
LONG1
 70
    64
  3
----------  --  ----------  --  
 72
    65
 73
     4
 40
40.0
 49
32.5
 49
-2.5
 49
2.5
 49
-2.5
  0
LTYPE
  2
LONG2
 70
    64
  3
--------  -  -  --------  -  -  
 72
    65
 73
     6
 40
40.0
 49
30.0
 49
-2.5
 49
1.25
 49
-2.5
 49
1.25
 49
-2.5
  0
LTYPE
  2
LONG3
 70
    64
  3
+++++++++++++++..+++++++++++++++
 72
    65
 73
     2
 40
40.0
 49
37.5
 49
-2.5
  0
LTYPE
  2
LONG4
 70
    64
  3
+++++++++++++++..+++++++++++++++
 72
    65
 73
     2
 40
80.0
 49
75.0
 49
-5.0
  0
LTYPE
  2
LONG5
 70
    64
  3
----------  --  ----------  --  
 72
    65
 73
     4
 40
60.0
 49
37.5
 49
-7.5
 49
7.5
 49
-7.5
  0
LTYPE
  2
dashed
 70
   64
  3
-------   -------------   ------
 72
   65
 73
    2
 40
7.5
 49
6
 49
-1.5
  0
LTYPE
  2
dashed_spaced
 70
   64
  3
----        --------        ----
 72
   65
 73
    2
 40
12
 49
6
 49
-6
  0
LTYPE
  2
long_dashed_dotted
 70
   64
  3
------------- --- --------------
 72
   65
 73
    4
 40
15.25
 49
12
 49
-1.5
 49
0.25
 49
-1.5
  0
LTYPE
  2
long_dashed_double-dotted
 70
   64
  3
----------- --- --- ------------
 72
   65
 73
    6
 40
17
 49
12
 49
-1.5
 49
0.25
 49
-1.5
 49
0.25
 49
-1.5
  0
LTYPE
  2
long_dashed_triplicate-dotted
 70
   64
  3
--------- --- --- --- ----------
 72
   65
 73
    8
 40
18.75
 49
12
 49
-1.5
 49
0.25
 49
-1.5
 49
0.25
 49
-1.5
 49
0.25
 49
-1.5
  0
LTYPE
  2
dotted
 70
   64
  3
   -       -       -       -    
 72
   65
 73
    2
 40
1.75
 49
0.25
 49
-1.5
  0
LTYPE
  2
chain
 70
   64
  3
-------------- -- --------------
 72
   65
 73
    4
 40
18.5
 49
12
 49
-1.5
 49
3.5
 49
-1.5
  0
LTYPE
  2
chain_double_dash
 70
   64
  3
------------ -- -- -------------
 72
   65
 73
    6
 40
23.5
 49
12
 49
-1.5
 49
3.5
 49
-1.5
 49
3.5
 49
-1.5
  0
LTYPE
  2
dashed_dotted
 70
   64
  3
-----------     -     ----------
 72
   65
 73
    4
 40
9.25
 49
6
 49
-1.5
 49
0.25
 49
-1.5
  0
LTYPE
  2
double-dashed_dotted
 70
   64
  3
------   -----------   -   -----
 72
   65
 73
    6
 40
16.75
 49
6
 49
-1.5
 49
6
 49
-1.5
 49
0.25
 49
-1.5
  0
LTYPE
  2
dashed_double-dotted
 70
   64
  3
---------    -    -    ---------
 72
   65
 73
    6
 40
11
 49
6
 49
-1.5
 49
0.25
 49
-1.5
 49
0.25
 49
-1.5
  0
LTYPE
  2
double-dashed_double-dotted
 70
   64
  3
-----   ---------   -   -   ----
 72
   65
 73
    8
 40
18.5
 49
6
 49
-1.5
 49
6
 49
-1.5
 49
0.25
 49
-1.5
 49
0.25
 49
-1.5
  0
LTYPE
  2
dashed_triplicate-dotted
 70
   64
  3
-------    -    -    -    ------
 72
   65
 73
    8
 40
12.75
 49
6
 49
-1.5
 49
0.25
 49
-1.5
 49
0.25
 49
-1.5
 49
0.25
 49
-1.5
  0
LTYPE
  2
double-dashed_triplicate-dotted
 70
   64
  3
-----  ---------  -  -  -  -----
 72
   65
 73
   10
 40
20.25
 49
6
 49
-1.5
 49
6
 49
-1.5
 49
0.25
 49
-1.5
 49
0.25
 49
-1.5
 49
0.25
 49
-1.5
  0
LTYPE
  2
undefined
 70
   64
  3
--------------------------------
 72
   65
 73
    0
 40
0
  0
ENDTAB
  0
TABLE
  2
STYLE
  5
3
100
AcDbSymbolTable
 70
     1
  0
STYLE
  5
10
100
AcDbSymbolTableRecord
100
AcDbTextStyleTableRecord
  2
STANDARD
 70
     0
 40
0.0
 41
1.0
 50
0.0
 71
     0
 42
0.2
  3
txt
  4
bigfont.shx
  0
STYLE
  5
26
100
AcDbSymbolTableRecord
100
AcDbTextStyleTableRecord
  2
TATEGAKI
 70
    68
 40
0.0
 41
1.0
 50
0.0
 71
     0
 42
1.0
  3
txt
  4
bigfont.shx
  0
ENDTAB
  0
TABLE
  2
LAYER
 70
    4
  0
LAYER
  2
_0-1_
 70
   64
 62
    7
  6
CONTINUOUS
  0
LAYER
  2
_1-0_
 70
   64
 62
    7
  6
CONTINUOUS
  0
LAYER
  2
_1-1_
 70
   64
 62
    7
  6
CONTINUOUS
  0
LAYER
  2
ADD_LINE
 70
   64
 62
    7
  6
CONTINUOUS
  0
ENDTAB
  0
ENDSEC
  0
SECTION
  2
BLOCKS
  0
ENDSEC
  0
SECTION
  2
ENTITIES
  0
LINE
  8
_0-1_
  6
CONTINUOUS
 62
    7
 10
213.43723875492589
 20
25.680406435124397
 11
213.43723875492589
 21
11.080383165471062
  0
LINE
  8
ADD_LINE
  6
DOT
 62
    7
 10
125.83724028080478
 20
22.837598665349006
 11
205.20020872562901
 21
22.837598665349006
  0
LINE
  8
_0-1_
  6
CONTINUOUS
 62
    7
 10
7.5772534033633576
 20
25.680406435124397
 11
412.72727781742583
 21
25.680406435124397
  0
LINE
  8
_0-1_
  6
CONTINUOUS
 62
    5
 10
7.5772534033633576
 20
293.59038720905016
 11
412.72727781742583
 21
293.59038720905016
  0
LINE
  8
_0-1_
  6
CONTINUOUS
 62
    5
 10
7.5772534033633576
 20
8.8904055195970386
 11
412.72727781742583
 21
8.8904055195970386
  0
LINE
  8
_0-1_
  6
CONTINUOUS
 62
    7
 10
412.72727781742583
 20
25.680406435124397
 11
412.72727781742583
 21
11.080383165471062
  0
LINE
  8
_0-1_
  6
CONTINUOUS
 62
    7
 10
7.5772534033633576
 20
14.834709509007439
 11
7.5772534033633576
 21
11.080383165471062
  0
LINE
  8
_0-1_
  6
CONTINUOUS
 62
    7
 10
7.5772534033633576
 20
25.680406435124397
 11
7.5772534033633576
 21
19.857313974492058
  0
LINE
  8
_0-1_
  6
CONTINUOUS
 62
    7
 10
7.5772534033633576
 20
19.857313974492058
 11
7.5772534033633576
 21
19.500179155461296
  0
LINE
  8
_0-1_
  6
CONTINUOUS
 62
    7
 10
7.5772534033633576
 20
19.857313974492058
 11
7.5772534033633576
 21
14.834709509007439
  0
LINE
  8
_0-1_
  6
CONTINUOUS
 62
    7
 10
7.5772534033633576
 20
11.080383165471062
 11
412.72727781742583
 21
11.080383165471062
  0
LINE
  8
_0-1_
  6
CONTINUOUS
 62
    7
 10
407.77128416508208
 20
21.534768922917365
 11
399.9884777685977
 21
13.751917703740105
  0
LINE
  8
_0-1_
  6
CONTINUOUS
 62
    7
 10
412.72727781742583
 20
11.080383165471062
 11
412.72727781742583
 21
25.680406435124397
  0
LINE
  8
_0-1_
  6
CONTINUOUS
 62
    7
 10
290.08723265141026
 20
25.680406435124397
 11
290.08723265141026
 21
19.020202501408562
  0
LINE
  8
_0-1_
  6
CONTINUOUS
 62
    7
 10
290.08723265141026
 20
19.020202501408562
 11
290.08723265141026
 21
11.080383165471062
  0
LINE
  8
_0-1_
  6
CONTINUOUS
 62
    7
 10
213.43723875492589
 20
18.380405290715203
 11
288.84425169437901
 21
18.380405290715203
  0
LINE
  8
_0-1_
  6
CONTINUOUS
 62
    7
 10
306.87721067875401
 20
25.680406435124397
 11
306.87721067875401
 21
19.857313974492058
  0
LINE
  8
_0-1_
  6
CONTINUOUS
 62
    7
 10
306.87721067875401
 20
19.857313974492058
 11
306.87721067875401
 21
11.080383165471062
  0
LINE
  8
_0-1_
  6
CONTINUOUS
 62
    7
 10
213.43723875492589
 20
18.380405290715203
 11
290.08723265141026
 21
18.380405290715203
  0
LINE
  8
_0-1_
  6
CONTINUOUS
 62
    7
 10
394.4772472998477
 20
25.680406435124397
 11
394.4772472998477
 21
11.080383165471062
  0
LINE
  8
ADD_LINE
  6
DOT
 62
    7
 10
18.655595841107498
 20
22.837598665349006
 11
48.897417130169998
 21
22.837598665349006
  0
LINE
  8
ADD_LINE
  6
DOT
 62
    7
 10
48.897417130169998
 20
22.837598665349006
 11
127.16582304447665
 21
22.837598665349006
  0
LINE
  8
ADD_LINE
  6
DOT
 62
    7
 10
205.20020872562901
 20
22.837598665349006
 11
328.84751707523839
 21
22.837598665349006
  0
LINE
  8
_0-1_
  6
CONTINUOUS
 62
    7
 10
263.07722288578526
 20
18.380405290715203
 11
263.07722288578526
 21
11.080383165471062
  0
LINE
  8
ADD_LINE
  6
DOT
 62
    7
 10
214.60806089848057
 20
15.584670408360466
 11
273.05274778812901
 21
15.584670408360466
  0
LINE
  8
ADD_LINE
  6
DOT
 62
    7
 10
328.84751707523839
 20
22.837598665349006
 11
403.85075193851958
 21
22.837598665349006
  0
TEXT
  8
_0-1_
 62
    7
 10
9.3539288660861359
 20
22.597051485173225
 40
2
 41
1
 50
0
  1
特記
  0
TEXT
  8
_0-1_
 62
    7
 10
213.43606382816807
 20
22.583328111760139
 40
2
 41
1
 50
0
  1
図面名
  0
TEXT
  8
_0-1_
 62
    7
 10
213.76429563969151
 20
15.247170789830193
 40
2
 41
1
 50
0
  1
SCALE
  0
TEXT
  8
_0-1_
 62
    7
 10
263.93104368656651
 20
15.16264854251574
 40
2
 41
1
 50
0
  1
DATE
  0
TEXT
  8
_0-1_
 62
    7
 10
291.17832762211339
 20
22.653281076542854
 40
2
 41
1
 50
0
  1
担当
  0
TEXT
  8
_0-1_
 62
    7
 10
395.47913938969145
 20
22.372781618229865
 40
2.5
 41
1
 50
0
  1
NO
  0
LINE
  8
_0-1_
  6
CONTINUOUS
 62
    4
 10
18.11883360355867
 20
22.111630304448127
 11
213.43723875492589
 21
22.111630304448127
  0
LINE
  8
_0-1_
  6
CONTINUOUS
 62
    4
 10
18.11883360355867
 20
18.461629732243523
 11
213.43723875492589
 21
18.461629732243523
  0
LINE
  8
_0-1_
  6
CONTINUOUS
 62
    4
 10
18.11883360355867
 20
14.811652048222527
 11
213.43723875492589
 21
14.811652048222527
  0
LINE
  8
ADD_LINE
  6
DOT
 62
    4
 10
311.249670296575
 20
19.812035451072745
 11
345.00828120240271
 21
19.812035451072745
  0
TEXT
  8
_0-1_
 62
    7
 10
310.64143599415735
 20
19.578707430822249
 40
3
 41
1
 50
0
  1
株式会社
  0
TEXT
  8
_0-1_
 62
    3
 10
328.38745303781229
 20
19.490272438212457
 40
5
 41
1
 50
0
  1
神　清
  0
TEXT
  8
_0-1_
 62
    7
 10
223.82205475621606
 20
12.751538617002723
 40
3
 41
1
 50
0
  1
1/5
  0
LINE
  8
_1-1_
  6
CONTINUOUS
 62
    7
 10
1.574983256187835
 20
170.24991127984936
 11
1.5749908770567629
 21
170.24992044932588
  0
TEXT
  8
_1-1_
 62
    7
 10
398.33610648918471
 20
17.817803660565716
 40
3
 41
1
 50
0
  1
15
  0
TEXT
  8
_0-1_
 62
    7
 10
223.13368456897959
 20
20.065471856390189
 40
3
 41
1
 50
0
  1
Ｎｏｖｕｍ　壁際　2
  0
LINE
  8
_1-1_
  6
CONTINUOUS
 62
    7
 10
274.59920649199876
 20
177.10462246808851
 11
274.59920649199876
 21
175.77055066435116
  0
LINE
  8
_1-1_
  6
CONTINUOUS
 62
    7
 10
76.599202780401384
 20
178.10462576728614
 11
83.599207316798129
 21
172.50461718937228
  0
LINE
  8
ADD_LINE
  6
DOT
 62
    4
 10
51.543687594194637
 20
169.10462081848968
 11
83.634875767230966
 21
169.10462081848968
  0
LINE
  8
_1-1_
  6
CONTINUOUS
 62
    7
 10
91.599196594405811
 20
169.10462081848968
 11
83.599207316798129
 21
169.10462081848968
  0
LINE
  8
_1-1_
  6
CONTINUOUS
 62
    7
 10
83.599207316798129
 20
172.50461718937228
 11
91.599196594405811
 21
172.50461718937228
  0
LINE
  8
_1-1_
  6
CONTINUOUS
 62
    7
 10
54.599204430000157
 20
177.50462131336931
 11
54.599204430000157
 21
175.10461586969322
  0
LINE
  8
_1-1_
  6
CONTINUOUS
 62
    7
 10
110.5991974192052
 20
173.65137704737481
 11
110.5991974192052
 21
172.77995585200952
  0
LINE
  8
_1-1_
  6
CONTINUOUS
 62
    7
 10
113.59920731679811
 20
175.10461586969322
 11
113.59920731679811
 21
174.4897650264183
  0
LINE
  8
_1-1_
  6
CONTINUOUS
 62
    7
 10
115.59920154320226
 20
177.10462246808851
 11
115.59920154320226
 21
175.77055066435116
  0
LINE
  8
_1-1_
  6
CONTINUOUS
 62
    7
 10
107.59919989360343
 20
174.27065706347489
 11
107.59919989360343
 21
171.50462626216577
  0
LINE
  8
_1-1_
  6
CONTINUOUS
 62
    7
 10
110.5991974192052
 20
175.16684698508595
 11
110.5991974192052
 21
175.79924131178572
  0
LINE
  8
_1-1_
  6
CONTINUOUS
 62
    7
 10
113.99920616207895
 20
176.42130502589043
 11
113.99920616207895
 21
177.06993140495504
  0
LINE
  8
_1-1_
  6
CONTINUOUS
 62
    7
 10
111.99919956368366
 20
175.65175480550403
 11
111.99919956368366
 21
176.29032275577853
  0
LINE
  8
_1-1_
  6
CONTINUOUS
 62
    7
 10
129.59919824400461
 20
178.10462576728614
 11
136.59919659440578
 21
172.50461718937228
  0
LINE
  8
_1-1_
  6
CONTINUOUS
 62
    7
 10
144.59919824400464
 20
169.10462081848968
 11
136.59919659440578
 21
169.10462081848968
  0
LINE
  8
_1-1_
  6
CONTINUOUS
 62
    7
 10
136.59919659440578
 20
172.50461718937228
 11
144.59919824400464
 21
172.50461718937228
  0
LINE
  8
_1-1_
  6
CONTINUOUS
 62
    7
 10
107.59919989360343
 20
177.50462131336931
 11
107.59919989360343
 21
175.10461586969322
  0
LINE
  8
_1-1_
  6
CONTINUOUS
 62
    7
 10
163.59919906880401
 20
173.65137704737481
 11
163.59919906880401
 21
172.77995585200952
  0
LINE
  8
_1-1_
  6
CONTINUOUS
 62
    7
 10
166.59919659440581
 20
175.10461586969322
 11
166.59919659440581
 21
174.4897650264183
  0
LINE
  8
_1-1_
  6
CONTINUOUS
 62
    7
 10
168.5992031928011
 20
177.10462246808851
 11
168.5992031928011
 21
175.77055066435116
  0
LINE
  8
_1-1_
  6
CONTINUOUS
 62
    7
 10
160.59920154320224
 20
174.27065706347489
 11
160.59920154320224
 21
171.50462626216577
  0
LINE
  8
_1-1_
  6
CONTINUOUS
 62
    7
 10
163.59919906880401
 20
175.16684698508595
 11
163.59919906880401
 21
175.79924131178572
  0
LINE
  8
_1-1_
  6
CONTINUOUS
 62
    7
 10
166.99920781167779
 20
176.42130502589043
 11
166.99920781167779
 21
177.06993140495504
  0
LINE
  8
_1-1_
  6
CONTINUOUS
 62
    7
 10
164.9992012132825
 20
175.65175480550403
 11
164.9992012132825
 21
176.29032275577853
  0
LINE
  8
_1-1_
  6
CONTINUOUS
 62
    7
 10
182.59919989360344
 20
178.10462576728614
 11
189.59919824400464
 21
172.50461718937228
  0
LINE
  8
_1-1_
  6
CONTINUOUS
 62
    7
 10
197.59919989360347
 20
169.10462081848968
 11
189.59919824400464
 21
169.10462081848968
  0
LINE
  8
_1-1_
  6
CONTINUOUS
 62
    7
 10
189.59919824400464
 20
172.50461718937228
 11
197.59919989360347
 21
172.50461718937228
  0
LINE
  8
_1-1_
  6
CONTINUOUS
 62
    7
 10
160.59920154320224
 20
177.50462131336931
 11
160.59920154320224
 21
175.10461586969322
  0
LINE
  8
_1-1_
  6
CONTINUOUS
 62
    7
 10
216.59921309039399
 20
173.65137704737481
 11
216.59921309039399
 21
172.77995585200952
  0
LINE
  8
_1-1_
  6
CONTINUOUS
 62
    7
 10
219.59919824400464
 20
175.10461586969322
 11
219.59919824400464
 21
174.4897650264183
  0
LINE
  8
_1-1_
  6
CONTINUOUS
 62
    7
 10
221.5992048423999
 20
177.10462246808851
 11
221.5992048423999
 21
175.77055066435116
  0
LINE
  8
_1-1_
  6
CONTINUOUS
 62
    7
 10
213.5992031928011
 20
174.27065706347489
 11
213.5992031928011
 21
171.50462626216577
  0
LINE
  8
_1-1_
  6
CONTINUOUS
 62
    7
 10
216.59921309039399
 20
175.16684698508595
 11
216.59921309039399
 21
175.79924131178572
  0
LINE
  8
_1-1_
  6
CONTINUOUS
 62
    7
 10
219.99920946127659
 20
176.42130502589043
 11
219.99920946127659
 21
177.06993140495504
  0
LINE
  8
_1-1_
  6
CONTINUOUS
 62
    7
 10
217.99920286288133
 20
175.65175480550403
 11
217.99920286288133
 21
176.29032275577853
  0
LINE
  8
_1-1_
  6
CONTINUOUS
 62
    7
 10
235.59920154320227
 20
178.10462576728614
 11
242.59919989360347
 21
172.50461718937228
  0
LINE
  8
_1-1_
  6
CONTINUOUS
 62
    7
 10
250.59920154320227
 20
169.10462081848968
 11
242.59919989360347
 21
169.10462081848968
  0
LINE
  8
_1-1_
  6
CONTINUOUS
 62
    7
 10
242.59919989360347
 20
172.50461718937228
 11
250.59920154320227
 21
172.50461718937228
  0
LINE
  8
_1-1_
  6
CONTINUOUS
 62
    7
 10
213.5992031928011
 20
177.50462131336931
 11
213.5992031928011
 21
175.10461586969322
  0
LINE
  8
_1-1_
  6
CONTINUOUS
 62
    7
 10
269.59921473999276
 20
173.65137704737481
 11
269.59921473999276
 21
172.77995585200952
  0
LINE
  8
_1-1_
  6
CONTINUOUS
 62
    7
 10
272.59919989360344
 20
175.10461586969322
 11
272.59919989360344
 21
174.4897650264183
  0
LINE
  8
_1-1_
  6
CONTINUOUS
 62
    7
 10
266.5992048423999
 20
174.27065706347489
 11
266.5992048423999
 21
171.50462626216577
  0
LINE
  8
_1-1_
  6
CONTINUOUS
 62
    7
 10
269.59921473999276
 20
175.16684698508595
 11
269.59921473999276
 21
175.79924131178572
  0
LINE
  8
_1-1_
  6
CONTINUOUS
 62
    7
 10
272.99921111087536
 20
176.42130502589043
 11
272.99921111087536
 21
177.06993140495504
  0
LINE
  8
_1-1_
  6
CONTINUOUS
 62
    7
 10
270.99920451248011
 20
175.65175480550403
 11
270.99920451248011
 21
176.29032275577853
  0
LINE
  8
_1-1_
  6
CONTINUOUS
 62
    7
 10
115.59920154320226
 20
177.10462246808851
 11
115.59920154320226
 21
177.46347207086509
  0
LINE
  8
_1-1_
  6
CONTINUOUS
 62
    7
 10
168.5992031928011
 20
177.10462246808851
 11
168.5992031928011
 21
177.46347207086509
  0
LINE
  8
_1-1_
  6
CONTINUOUS
 62
    7
 10
221.5992048423999
 20
177.10462246808851
 11
221.5992048423999
 21
177.46347207086509
  0
LINE
  8
_1-1_
  6
CONTINUOUS
 62
    7
 10
54.598981734159821
 20
170.0301694750564
 11
54.598987920155395
 21
170.03018184704754
  0
ARC
  8
_1-1_
  6
CONTINUOUS
 62
    7
 10
92.524683391016879
 20
217.46809507155135
 40
48.372338784707559
 50
268.90371704101562
 51
288.15779113769531
  0
ARC
  8
_1-1_
  6
CONTINUOUS
 62
    7
 10
65.277711229646513
 20
153.63406450778444
 40
23.979475176012194
 50
40.177536010742188
 51
116.44371032714844
  0
ARC
  8
_1-1_
  6
CONTINUOUS
 62
    7
 10
66.054202137057842
 20
161.12128424094533
 40
19.990763793120518
 50
58.163726806640632
 51
124.96070861816408
  0
ARC
  8
_1-1_
  6
CONTINUOUS
 62
    7
 10
93.799134569490263
 20
225.93541157017887
 40
53.476063496357689
 50
267.64225769042969
 51
294.05793762207031
  0
ARC
  8
_1-1_
  6
CONTINUOUS
 62
    7
 10
99.575023373333153
 20
194.26894148070463
 40
24.137140737997523
 50
289.41700744628906
 51
297.09066772460937
  0
ARC
  8
_1-1_
  6
CONTINUOUS
 62
    7
 10
53.500256131726303
 20
325.34762651950325
 40
162.07522418047935
 50
289.49891662597656
 51
290.61585998535156
  0
ARC
  8
_1-1_
  6
CONTINUOUS
 62
    7
 10
112.47466755486822
 20
181.81821499738538
 40
6.8071267411515528
 50
279.50886535644531
 51
297.68336486816406
  0
ARC
  8
_1-1_
  6
CONTINUOUS
 62
    7
 10
108.43018942195013
 20
182.80196150023588
 40
9.7883250262286214
 50
282.80255126953125
 51
301.87579345703125
  0
ARC
  8
_1-1_
  6
CONTINUOUS
 62
    7
 10
93.799134569490263
 20
225.93541157017887
 40
52.876065228436453
 50
288.52542114257812
 51
290.13310241699219
  0
ARC
  8
_1-1_
  6
CONTINUOUS
 62
    7
 10
145.52468504061571
 20
217.46809507155135
 40
48.372338784707559
 50
268.90371704101562
 51
288.15779113769531
  0
ARC
  8
_1-1_
  6
CONTINUOUS
 62
    7
 10
118.27771287924533
 20
153.63406450778444
 40
23.979475176012194
 50
40.177536010742188
 51
116.44371032714844
  0
ARC
  8
_1-1_
  6
CONTINUOUS
 62
    7
 10
119.05420378665666
 20
161.12128424094533
 40
19.990763793120518
 50
58.163726806640632
 51
124.96070861816408
  0
ARC
  8
_1-1_
  6
CONTINUOUS
 62
    7
 10
146.79913621908909
 20
225.93541157017887
 40
53.476063496357689
 50
267.64225769042969
 51
294.05793762207031
  0
ARC
  8
_1-1_
  6
CONTINUOUS
 62
    7
 10
152.57502502293201
 20
194.26894148070463
 40
24.137140737997523
 50
289.41700744628906
 51
297.09066772460937
  0
ARC
  8
_1-1_
  6
CONTINUOUS
 62
    7
 10
106.50025778132513
 20
325.34762651950325
 40
162.07522418047935
 50
289.49891662597656
 51
290.61585998535156
  0
ARC
  8
_1-1_
  6
CONTINUOUS
 62
    7
 10
165.47465683247589
 20
181.81821499738538
 40
6.8071267411515528
 50
279.50886535644531
 51
297.68336486816406
  0
ARC
  8
_1-1_
  6
CONTINUOUS
 62
    7
 10
161.43019107154896
 20
182.80196150023588
 40
9.7883250262286214
 50
282.80255126953125
 51
301.87579345703125
  0
ARC
  8
_1-1_
  6
CONTINUOUS
 62
    7
 10
146.79913621908909
 20
225.93541157017887
 40
52.876065228436453
 50
288.52542114257812
 51
290.13310241699219
  0
ARC
  8
_1-1_
  6
CONTINUOUS
 62
    7
 10
198.52467431822339
 20
217.46809507155135
 40
48.372338784707559
 50
268.90371704101562
 51
288.15779113769531
  0
ARC
  8
_1-1_
  6
CONTINUOUS
 62
    7
 10
171.27771452884417
 20
153.63406450778444
 40
23.979475176012194
 50
40.177536010742188
 51
116.44371032714844
  0
ARC
  8
_1-1_
  6
CONTINUOUS
 62
    7
 10
172.05420543625547
 20
161.12128424094533
 40
19.990763793120518
 50
58.163726806640632
 51
124.96070861816408
  0
ARC
  8
_1-1_
  6
CONTINUOUS
 62
    7
 10
199.79913786868792
 20
225.93541157017887
 40
53.476063496357689
 50
267.64225769042969
 51
294.05793762207031
  0
ARC
  8
_1-1_
  6
CONTINUOUS
 62
    7
 10
205.57502667253081
 20
194.26894148070463
 40
24.137140737997523
 50
289.41700744628906
 51
297.09066772460937
  0
ARC
  8
_1-1_
  6
CONTINUOUS
 62
    7
 10
159.50025943092396
 20
325.34762651950325
 40
162.07522418047935
 50
289.49891662597656
 51
290.61585998535156
  0
ARC
  8
_1-1_
  6
CONTINUOUS
 62
    7
 10
218.47465848207474
 20
181.81821499738538
 40
6.8071267411515528
 50
279.50886535644531
 51
297.68336486816406
  0
ARC
  8
_1-1_
  6
CONTINUOUS
 62
    7
 10
214.43018034915667
 20
182.80196150023588
 40
9.7883250262286214
 50
282.80255126953125
 51
301.87579345703125
  0
ARC
  8
_1-1_
  6
CONTINUOUS
 62
    7
 10
199.79913786868792
 20
225.93541157017887
 40
52.876065228436453
 50
288.52542114257812
 51
290.13310241699219
  0
ARC
  8
_1-1_
  6
CONTINUOUS
 62
    7
 10
251.52467596782222
 20
217.46809507155135
 40
48.372338784707559
 50
268.90371704101562
 51
288.15779113769531
  0
ARC
  8
_1-1_
  6
CONTINUOUS
 62
    7
 10
224.27771617844297
 20
153.63406450778444
 40
23.979475176012194
 50
40.177536010742188
 51
116.44371032714844
  0
ARC
  8
_1-1_
  6
CONTINUOUS
 62
    7
 10
225.0542070858543
 20
161.12128424094533
 40
19.990763793120518
 50
58.163726806640632
 51
124.96070861816408
  0
ARC
  8
_1-1_
  6
CONTINUOUS
 62
    7
 10
252.79913951828675
 20
225.93541157017887
 40
53.476063496357689
 50
267.64225769042969
 51
294.05793762207031
  0
ARC
  8
_1-1_
  6
CONTINUOUS
 62
    7
 10
258.57502832212964
 20
194.26894148070463
 40
24.137140737997523
 50
289.41700744628906
 51
297.09066772460937
  0
ARC
  8
_1-1_
  6
CONTINUOUS
 62
    7
 10
212.50024870853167
 20
325.34762651950325
 40
162.07522418047935
 50
289.49891662597656
 51
290.61585998535156
  0
ARC
  8
_1-1_
  6
CONTINUOUS
 62
    7
 10
271.47466013167355
 20
181.81821499738538
 40
6.8071267411515528
 50
279.50886535644531
 51
297.68336486816406
  0
ARC
  8
_1-1_
  6
CONTINUOUS
 62
    7
 10
267.43018199875547
 20
182.80196150023588
 40
9.7883250262286214
 50
282.80255126953125
 51
301.87579345703125
  0
ARC
  8
_1-1_
  6
CONTINUOUS
 62
    7
 10
252.79913951828675
 20
225.93541157017887
 40
52.876065228436453
 50
288.52542114257812
 51
290.13310241699219
  0
ARC
  8
_1-1_
  6
CONTINUOUS
 62
    7
 10
93.799134569490263
 20
225.93541157017887
 40
52.876065228436453
 50
292.45927429199219
 51
293.19656372070313
  0
ARC
  8
_1-1_
  6
CONTINUOUS
 62
    7
 10
146.79913621908909
 20
225.93541157017887
 40
52.876065228436453
 50
292.45927429199219
 51
293.19656372070313
  0
ARC
  8
_1-1_
  6
CONTINUOUS
 62
    7
 10
199.79913786868792
 20
225.93541157017887
 40
52.876065228436453
 50
292.45927429199219
 51
293.19656372070313
  0
LINE
  8
_1-0_
  6
CONTINUOUS
 62
    7
 10
43.250347349763359
 20
161.43602896737579
 11
43.250347349763359
 21
149.43602649297756
  0
LINE
  8
_1-0_
  6
CONTINUOUS
 62
    7
 10
91.850349329281954
 20
149.43602649297756
 11
91.850349329281954
 21
161.43602896737579
  0
LINE
  8
_1-0_
  6
CONTINUOUS
 62
    7
 10
91.850349329281954
 20
161.43602896737579
 11
103.85033943168906
 21
161.43602896737579
  0
LINE
  8
_1-0_
  6
CONTINUOUS
 62
    7
 10
103.85033943168906
 20
161.43602896737579
 11
103.85033943168906
 21
149.43602649297756
  0
LINE
  8
_1-0_
  6
CONTINUOUS
 62
    7
 10
103.85033943168906
 20
149.43602649297756
 11
91.850349329281954
 21
149.43602649297756
  0
LINE
  8
_1-0_
  6
CONTINUOUS
 62
    7
 10
103.85033943168906
 20
161.43602896737579
 11
91.850349329281954
 21
149.43602649297756
  0
LINE
  8
_1-0_
  6
CONTINUOUS
 62
    7
 10
152.45034141120763
 20
149.43602649297756
 11
152.45034141120763
 21
161.43602896737579
  0
LINE
  8
_1-0_
  6
CONTINUOUS
 62
    7
 10
152.45034141120763
 20
161.43602896737579
 11
164.45033151361474
 21
161.43602896737579
  0
LINE
  8
_1-0_
  6
CONTINUOUS
 62
    7
 10
164.45033151361474
 20
161.43602896737579
 11
164.45033151361474
 21
149.43602649297756
  0
LINE
  8
_1-0_
  6
CONTINUOUS
 62
    7
 10
164.45033151361474
 20
149.43602649297756
 11
152.45034141120763
 21
149.43602649297756
  0
LINE
  8
_1-0_
  6
CONTINUOUS
 62
    7
 10
164.45033151361474
 20
161.43602896737579
 11
152.45034141120763
 21
149.43602649297756
  0
LINE
  8
_1-0_
  6
CONTINUOUS
 62
    7
 10
213.05033349313334
 20
149.43602649297756
 11
213.05033349313334
 21
161.43602896737579
  0
LINE
  8
_1-0_
  6
CONTINUOUS
 62
    7
 10
213.05033349313334
 20
161.43602896737579
 11
225.05032359554042
 21
161.43602896737579
  0
LINE
  8
_1-0_
  6
CONTINUOUS
 62
    7
 10
225.05032359554042
 20
161.43602896737579
 11
225.05032359554042
 21
149.43602649297756
  0
LINE
  8
_1-0_
  6
CONTINUOUS
 62
    7
 10
225.05032359554042
 20
149.43602649297756
 11
213.05033349313334
 21
149.43602649297756
  0
LINE
  8
_1-0_
  6
CONTINUOUS
 62
    7
 10
225.05032359554042
 20
161.43602896737579
 11
213.05033349313334
 21
149.43602649297756
  0
LINE
  8
_1-0_
  6
CONTINUOUS
 62
    7
 10
37.85036912446779
 20
165.63604777280233
 11
37.85036912446779
 21
165.0360433188855
  0
LINE
  8
_1-0_
  6
CONTINUOUS
 62
    7
 10
37.85036912446779
 20
165.0360433188855
 11
37.85036912446779
 21
165.63604777280233
  0
LINE
  8
_1-0_
  6
CONTINUOUS
 62
    7
 10
37.85036912446779
 20
165.63604777280233
 11
42.650355267837654
 21
165.63604777280233
  0
LINE
  8
_1-0_
  6
CONTINUOUS
 62
    7
 10
42.650355267837654
 20
165.63604777280233
 11
42.650355267837654
 21
165.0360433188855
  0
LINE
  8
_1-0_
  6
CONTINUOUS
 62
    7
 10
42.650355267837654
 20
165.0360433188855
 11
37.85036912446779
 21
165.0360433188855
  0
LINE
  8
_1-0_
  6
CONTINUOUS
 62
    7
 10
37.85036912446779
 20
165.63604777280233
 11
42.650355267837654
 21
165.0360433188855
  0
LINE
  8
_1-0_
  6
CONTINUOUS
 62
    7
 10
98.450361206393467
 20
165.0360433188855
 11
98.450361206393467
 21
165.63604777280233
  0
LINE
  8
_1-0_
  6
CONTINUOUS
 62
    7
 10
98.450361206393467
 20
165.63604777280233
 11
103.25034734976339
 21
165.63604777280233
  0
LINE
  8
_1-0_
  6
CONTINUOUS
 62
    7
 10
103.25034734976339
 20
165.63604777280233
 11
103.25034734976339
 21
165.0360433188855
  0
LINE
  8
_1-0_
  6
CONTINUOUS
 62
    7
 10
103.25034734976339
 20
165.0360433188855
 11
98.450361206393467
 21
165.0360433188855
  0
LINE
  8
_1-0_
  6
CONTINUOUS
 62
    7
 10
98.450361206393467
 20
165.63604777280233
 11
103.25034734976339
 21
165.0360433188855
  0
LINE
  8
_1-0_
  6
CONTINUOUS
 62
    7
 10
159.05035328831914
 20
165.0360433188855
 11
159.05035328831914
 21
165.63604777280233
  0
LINE
  8
_1-0_
  6
CONTINUOUS
 62
    7
 10
159.05035328831914
 20
165.63604777280233
 11
163.85033943168906
 21
165.63604777280233
  0
LINE
  8
_1-0_
  6
CONTINUOUS
 62
    7
 10
163.85033943168906
 20
165.63604777280233
 11
163.85033943168906
 21
165.0360433188855
  0
LINE
  8
_1-0_
  6
CONTINUOUS
 62
    7
 10
163.85033943168906
 20
165.0360433188855
 11
159.05035328831914
 21
165.0360433188855
  0
LINE
  8
_1-0_
  6
CONTINUOUS
 62
    7
 10
159.05035328831914
 20
165.63604777280233
 11
163.85033943168906
 21
165.0360433188855
  0
LINE
  8
_1-0_
  6
CONTINUOUS
 62
    7
 10
219.65034537024482
 20
165.0360433188855
 11
219.65034537024482
 21
165.63604777280233
  0
LINE
  8
_1-0_
  6
CONTINUOUS
 62
    7
 10
219.65034537024482
 20
165.63604777280233
 11
224.45033151361477
 21
165.63604777280233
  0
LINE
  8
_1-0_
  6
CONTINUOUS
 62
    7
 10
224.45033151361477
 20
165.63604777280233
 11
224.45033151361477
 21
165.0360433188855
  0
LINE
  8
_1-0_
  6
CONTINUOUS
 62
    7
 10
224.45033151361477
 20
165.0360433188855
 11
219.65034537024482
 21
165.0360433188855
  0
LINE
  8
_1-0_
  6
CONTINUOUS
 62
    7
 10
219.65034537024482
 20
165.63604777280233
 11
224.45033151361477
 21
165.0360433188855
  0
LINE
  8
_1-0_
  6
CONTINUOUS
 62
    7
 10
156.67089772191289
 20
171.5473480195823
 11
188.29808673954381
 21
84.652389935888237
  0
LINE
  8
_1-0_
  6
CONTINUOUS
 62
    7
 10
188.29808673954381
 20
84.652389935888237
 11
194.22333022032927
 21
84.652389935888237
  0
LINE
  8
_1-0_
  6
CONTINUOUS
 62
    7
 10
43.250347349763359
 20
161.43602896737579
 11
36.794543401283676
 21
154.98022501889608
  0
LINE
  8
_1-0_
  6
CONTINUOUS
 62
    7
 10
43.250347349763359
 20
149.43602649297756
 11
36.794543401283676
 21
149.43602649297756
  0
LINE
  8
_1-0_
  6
CONTINUOUS
 62
    7
 10
36.794543401283676
 20
161.43602896737579
 11
43.250347349763359
 21
161.43602896737579
  0
LINE
  8
_1-0_
  6
CONTINUOUS
 62
    7
 10
36.794543401283676
 20
148.23602995713509
 11
286.05035163872037
 21
148.23602995713509
  0
LINE
  8
_1-0_
  6
CONTINUOUS
 62
    7
 10
36.794543401283676
 20
149.43602649297756
 11
286.05035163872037
 21
149.43602649297756
  0
LINE
  8
_1-0_
  6
CONTINUOUS
 62
    7
 10
36.794543401283676
 20
161.43602896737579
 11
286.05035163872037
 21
161.43602896737579
  0
LINE
  8
_1-0_
  6
CONTINUOUS
 62
    7
 10
36.794543401283676
 20
163.83603441105191
 11
286.05035163872037
 21
163.83603441105191
  0
LINE
  8
_1-0_
  6
DASHED1
 62
    3
 10
36.794543401283676
 20
164.43603886496871
 11
285.62911008466631
 21
164.43603886496871
  0
LINE
  8
_1-0_
  6
CONTINUOUS
 62
    2
 10
267.17969998120344
 20
164.71888732622293
 11
285.1797098787963
 21
164.71888732622293
  0
LINE
  8
_1-0_
  6
CONTINUOUS
 62
    2
 10
267.17969998120344
 20
168.24810914447673
 11
267.17969998120344
 21
164.71888732622293
  0
LINE
  8
_1-0_
  6
CONTINUOUS
 62
    2
 10
267.17969998120344
 20
168.24810914447673
 11
269.35840761950578
 21
168.24810914447673
  0
LINE
  8
_1-0_
  6
CONTINUOUS
 62
    7
 10
37.85036912446779
 20
165.63604777280233
 11
266.79688583160458
 21
165.63604777280233
  0
LINE
  8
_1-0_
  6
CONTINUOUS
 62
    7
 10
37.85036912446779
 20
165.0360433188855
 11
266.79688583160458
 21
165.0360433188855
  0
LINE
  8
_1-0_
  6
CONTINUOUS
 62
    7
 10
266.79688583160458
 20
165.0360433188855
 11
266.79688583160458
 21
168.6360452984041
  0
LINE
  8
_1-0_
  6
CONTINUOUS
 62
    7
 10
261.99689968823469
 20
165.0360433188855
 11
261.99689968823469
 21
165.63604777280233
  0
LINE
  8
_1-0_
  6
CONTINUOUS
 62
    7
 10
261.99689968823469
 20
165.63604777280233
 11
266.79688583160458
 21
165.63604777280233
  0
LINE
  8
_1-0_
  6
CONTINUOUS
 62
    7
 10
266.79688583160458
 20
165.63604777280233
 11
266.79688583160458
 21
165.0360433188855
  0
LINE
  8
_1-0_
  6
CONTINUOUS
 62
    7
 10
266.79688583160458
 20
165.0360433188855
 11
261.99689968823469
 21
165.0360433188855
  0
LINE
  8
_1-0_
  6
CONTINUOUS
 62
    7
 10
261.99689968823469
 20
165.63604777280233
 11
266.79688583160458
 21
165.0360433188855
  0
LINE
  8
_1-0_
  6
DASHED1
 62
    3
 10
285.62911008466631
 20
164.43603886496871
 11
285.62911008466631
 21
224.43602649297759
  0
LINE
  8
_1-0_
  6
CONTINUOUS
 62
    2
 10
285.1797098787963
 20
164.71888732622293
 11
285.1797098787963
 21
194.71888732622293
  0
LINE
  8
_1-0_
  6
CONTINUOUS
 62
    2
 10
285.1797098787963
 20
194.71888732622293
 11
284.95117445861058
 21
193.57884545940493
  0
LINE
  8
_1-0_
  6
CONTINUOUS
 62
    7
 10
286.05035163872037
 20
89.241439816457287
 11
286.05035163872037
 21
242.65338753077319
  0
LINE
  8
_1-0_
  6
CONTINUOUS
 62
    7
 10
274.05036153631329
 20
161.43602896737579
 11
274.05036153631329
 21
149.43602649297756
  0
LINE
  8
_1-0_
  6
CONTINUOUS
 62
    7
 10
286.05035163872037
 20
161.43602896737579
 11
274.05036153631329
 21
149.43602649297756
  0
LINE
  8
_1-0_
  6
CONTINUOUS
 62
    7
 10
359.9699551411486
 20
224.43602649297759
 11
359.9699551411486
 21
164.43603886496871
  0
LINE
  8
_1-0_
  6
CONTINUOUS
 62
    7
 10
297.22448658910037
 20
224.43602649297759
 11
359.9699551411486
 21
224.43602649297759
  0
LINE
  8
_1-0_
  6
CONTINUOUS
 62
    7
 10
297.22448658910037
 20
164.43603886496871
 11
359.9699551411486
 21
164.43603886496871
  0
LINE
  8
_1-0_
  6
CONTINUOUS
 62
    7
 10
341.79089778789688
 20
164.43603886496871
 11
341.79089778789688
 21
194.71888732622293
  0
LINE
  8
_1-0_
  6
CONTINUOUS
 62
    7
 10
297.22448658910037
 20
164.43603886496871
 11
341.79089778789688
 21
164.43603886496871
  0
LINE
  8
_1-0_
  6
CONTINUOUS
 62
    7
 10
297.22448658910037
 20
194.71888732622293
 11
341.79089778789688
 21
194.71888732622293
  0
LINE
  8
_1-0_
  6
CONTINUOUS
 62
    7
 10
246.05034339072625
 20
128.16035873537624
 11
286.05035163872037
 21
128.16035873537624
  0
LINE
  8
_1-0_
  6
CONTINUOUS
 62
    7
 10
246.05034339072625
 20
140.3225208975384
 11
246.05034339072625
 21
128.16035873537624
  0
LINE
  8
_1-0_
  6
CONTINUOUS
 62
    7
 10
286.05035163872037
 20
140.3225208975384
 11
286.05035163872037
 21
128.16035873537624
  0
LINE
  8
_1-0_
  6
CONTINUOUS
 62
    7
 10
308.5476545446536
 20
224.43602649297759
 11
306.59532960008016
 21
221.05451387684582
  0
LINE
  8
_1-0_
  6
CONTINUOUS
 62
    7
 10
308.5476545446536
 20
224.43602649297759
 11
310.49997948922714
 21
221.05451387684582
  0
LINE
  8
_1-0_
  6
CONTINUOUS
 62
    7
 10
246.05034339072625
 20
114.37657495159243
 11
248.98807268496191
 21
116.07267595982724
  0
LINE
  8
_1-0_
  6
CONTINUOUS
 62
    7
 10
246.05034339072625
 20
114.37657495159243
 11
248.98807268496191
 21
112.68047394335764
  0
LINE
  8
_1-0_
  6
CONTINUOUS
 62
    7
 10
246.05034339072625
 20
128.16035873537624
 11
246.05034339072625
 21
114.37657495159243
  0
LINE
  8
_1-0_
  6
CONTINUOUS
 62
    7
 10
298.54764629665954
 20
114.37657495159243
 11
246.05034339072625
 21
114.37657495159243
  0
LINE
  8
_1-0_
  6
CONTINUOUS
 62
    7
 10
308.5476545446536
 20
124.3765708275954
 11
308.5476545446536
 21
224.43602649297759
  0
LINE
  8
_1-0_
  6
CONTINUOUS
 62
    7
 10
308.5476545446536
 20
128.97116954618704
 11
315.84495184195094
 21
133.02522360024108
  0
LINE
  8
_1-0_
  6
CONTINUOUS
 62
    7
 10
308.5476545446536
 20
128.97116954618704
 11
323.95305995005907
 21
128.97116954618704
  0
LINE
  8
_1-0_
  6
CONTINUOUS
 62
    7
 10
279.93136277681151
 20
214.75902618945139
 11
270.00214706207333
 21
242.03931612293957
  0
LINE
  8
_1-0_
  6
CONTINUOUS
 62
    7
 10
276.54725204254214
 20
177.23603902992858
 11
259.02007490202266
 21
225.39156485604769
  0
LINE
  8
_1-0_
  6
CONTINUOUS
 62
    7
 10
268.63563589758854
 20
174.53982337457597
 11
255.06935171790107
 21
211.81290868522842
  0
LINE
  8
_1-0_
  6
CONTINUOUS
 62
    7
 10
269.97762577565021
 20
164.71888732622293
 11
255.62371589653284
 21
204.15593286174868
  0
LINE
  8
_1-0_
  6
CONTINUOUS
 62
    7
 10
270.00214706207333
 20
242.03931612293957
 11
266.00215860926505
 21
242.03931612293957
  0
LINE
  8
_1-0_
  6
CONTINUOUS
 62
    7
 10
259.02007490202266
 20
225.39156485604769
 11
255.0200864492144
 21
225.39156485604769
  0
LINE
  8
_1-0_
  6
CONTINUOUS
 62
    7
 10
255.06935171790107
 20
211.81290868522842
 11
251.06936326509279
 21
211.81290868522842
  0
LINE
  8
_1-0_
  6
CONTINUOUS
 62
    7
 10
255.62371589653284
 20
204.15593286174868
 11
251.62372744372456
 21
204.15593286174868
  0
ARC
  8
_1-0_
  6
CONTINUOUS
 62
    7
 10
298.54764629665954
 20
124.3765708275954
 40
9.9999997422501856
 50
270
 51
0
  0
POINT
  8
_1-0_
 62
    7
 10
359.9699551411486
 20
224.43602649297759
  0
POINT
  8
_1-0_
 62
    7
 10
359.9699551411486
 20
164.43603886496871
  0
POINT
  8
_1-0_
 62
    7
 10
341.79089778789688
 20
164.43603886496871
  0
POINT
  8
_1-0_
 62
    7
 10
341.79089778789688
 20
194.71888732622293
  0
POINT
  8
_1-0_
 62
    7
 10
246.05034339072625
 20
128.16035873537624
  0
POINT
  8
_1-0_
 62
    7
 10
286.05035163872037
 20
128.16035873537624
  0
LINE
  8
_1-0_
  6
CONTINUOUS
 62
    7
 10
175.55911760683688
 20
119.65238787388974
 11
194.22333022032927
 21
119.65238787388974
  0
LINE
  8
_1-0_
  6
CONTINUOUS
 62
    7
 10
178.10690648458183
 20
112.65238952348855
 11
194.22333022032927
 21
112.65238952348855
  0
LINE
  8
_1-0_
  6
CONTINUOUS
 62
    7
 10
180.65472010630901
 20
105.65239117308737
 11
194.22333022032927
 21
105.65239117308737
  0
LINE
  8
_1-0_
  6
CONTINUOUS
 62
    7
 10
183.20250898405394
 20
98.652392822686181
 11
194.22333022032927
 21
98.652392822686181
  0
LINE
  8
_1-0_
  6
CONTINUOUS
 62
    7
 10
185.75029786179888
 20
91.652388286289437
 11
194.22333022032927
 21
91.652388286289437
  0
LINE
  8
_1-0_
  6
CONTINUOUS
 62
    7
 10
266.79688583160458
 20
168.6360452984041
 11
37.182362463887301
 21
168.6360452984041
  0
TEXT
  8
_1-0_
 62
    7
 10
359.46995349154975
 20
192.56102649297759
 40
3
 41
1
 50
90
  1
300
  0
TEXT
  8
_1-0_
 62
    7
 10
341.29089613829808
 20
177.70246309559582
 40
3
 41
1
 50
90
  1
150
  0
TEXT
  8
_1-0_
 62
    7
 10
264.17535988671438
 20
128.66036038497504
 40
3
 41
1
 50
0
  1
200
  0
TEXT
  8
_1-0_
 62
    7
 10
341.28533286628578
 20
123.84725993100545
 40
3
 41
1
 50
0
  1
２重貼り
  0
TEXT
  8
_1-0_
 62
    7
 10
253.35085328172076
 20
240.7614873908872
 40
3
 41
1
 50
0
  1
外壁
  0
TEXT
  8
_1-0_
 62
    7
 10
233.85148590286727
 20
224.20969328721321
 40
3
 41
1
 50
0
  1
壁際水切鉄板
  0
TEXT
  8
_1-0_
 62
    7
 10
225.23547869082125
 20
202.669710311073
 40
3
 41
1
 50
0
  1
捨谷
  0
TEXT
  8
_1-0_
 62
    7
 10
342.86357003900537
 20
183.85272835108569
 40
3
 41
1
 50
0
  1
水切り鉄板立上がり寸法
  0
TEXT
  8
_1-0_
 62
    7
 10
362.16162037816287
 20
206.66096413814228
 40
3
 41
1
 50
0
  1
下葺き材立上がり寸法
  0
TEXT
  8
_1-0_
 62
    7
 10
198.80022461961138
 20
96.344608200906208
 40
3
 41
1
 50
0
  1
下葺き材　　　ゴムアス系ルーフィング
  0
TEXT
  8
_1-0_
 62
    7
 10
198.61860791379422
 20
110.40860521183315
 40
3
 41
1
 50
0
  1
瓦桟　　18ｘ24
  0
TEXT
  8
_1-0_
 62
    7
 10
331.46010786100709
 20
127.63912674899532
 40
3
 41
1
 50
0
  1
ゴムアス系ルーフィング
  0
TEXT
  8
_1-0_
 62
    7
 10
198.61859966580013
 20
117.70904499487791
 40
3
 41
1
 50
0
  1
桟瓦
  0
TEXT
  8
_1-0_
 62
    7
 10
198.61860378979719
 20
103.27409857384751
 40
3
 41
1
 50
0
  1
流し桟
  0
TEXT
  8
_1-0_
 62
    7
 10
198.61859966580013
 20
89.502841431084619
 40
3
 41
1
 50
0
  1
野地板　　ｔ＝12
  0
TEXT
  8
_1-0_
 62
    7
 10
198.61859966580013
 20
82.700170153239384
 40
3
 41
1
 50
0
  1
垂木　　　60ｘ60
  0
ARC
  8
_1-1_
  6
CONTINUOUS
 62
    7
 10
252.79913951828675
 20
225.93541157017887
 40
52.876065228436453
 50
292.45927429199219
 51
294.3485254619975
  0
LINE
  8
_1-1_
  6
CONTINUOUS
 62
    7
 10
274.59920649199876
 20
177.10462246808851
 11
274.59920649199876
 21
177.76243829694673
  0
LINE
  8
_1-1_
  6
CONTINUOUS
 62
    7
 10
57.599201955601927
 20
173.65137704737481
 11
57.599201955601927
 21
172.77995585200952
  0
LINE
  8
_1-1_
  6
CONTINUOUS
 62
    7
 10
60.599211853194845
 20
175.10461586969322
 11
60.599211853194845
 21
174.4897650264183
  0
LINE
  8
_1-1_
  6
CONTINUOUS
 62
    7
 10
62.599206079598986
 20
177.10462246808851
 11
62.599206079598986
 21
175.77055066435116
  0
LINE
  8
_1-1_
  6
CONTINUOUS
 62
    7
 10
54.599204430000157
 20
174.27065706347489
 11
54.599204430000157
 21
171.50462626216577
  0
LINE
  8
_1-1_
  6
CONTINUOUS
 62
    7
 10
57.599201955601927
 20
175.16684698508595
 11
57.599201955601927
 21
175.79924131178572
  0
LINE
  8
_1-1_
  6
CONTINUOUS
 62
    7
 10
60.999210698475679
 20
176.42130502589043
 11
60.999210698475679
 21
177.06993140495504
  0
LINE
  8
_1-1_
  6
CONTINUOUS
 62
    7
 10
58.999204100080391
 20
175.65175480550403
 11
58.999204100080391
 21
176.29032275577853
  0
LINE
  8
_1-1_
  6
CONTINUOUS
 62
    7
 10
54.599204430000157
 20
177.50462131336931
 11
54.599204430000157
 21
175.10461586969322
  0
LINE
  8
_1-1_
  6
CONTINUOUS
 62
    7
 10
62.599206079598986
 20
177.10462246808851
 11
62.599206079598986
 21
177.46347207086509
  0
ARC
  8
_1-1_
  6
CONTINUOUS
 62
    7
 10
39.524687927413595
 20
217.46809507155135
 40
48.372338784707559
 50
268.90371704101562
 51
288.15779113769531
  0
ARC
  8
_1-1_
  6
CONTINUOUS
 62
    7
 10
40.799139105886979
 20
225.93541157017887
 40
53.476063496357689
 50
267.64225769042969
 51
294.05793762207031
  0
ARC
  8
_1-1_
  6
CONTINUOUS
 62
    7
 10
46.575027909729869
 20
194.26894148070463
 40
24.137140737997523
 50
289.41700744628906
 51
297.09066772460937
  0
ARC
  8
_1-1_
  6
CONTINUOUS
 62
    7
 10
0.500260668123019
 20
325.34762651950325
 40
162.07522418047935
 50
289.49891662597656
 51
290.61585998535156
  0
ARC
  8
_1-1_
  6
CONTINUOUS
 62
    7
 10
59.474672091264949
 20
181.81821499738538
 40
6.8071267411515528
 50
279.50886535644531
 51
297.68336486816406
  0
ARC
  8
_1-1_
  6
CONTINUOUS
 62
    7
 10
55.430193958346848
 20
182.80196150023588
 40
9.7883250262286214
 50
282.80255126953125
 51
301.87579345703125
  0
ARC
  8
_1-1_
  6
CONTINUOUS
 62
    7
 10
40.799139105886979
 20
225.93541157017887
 40
52.876065228436453
 50
288.52542114257812
 51
290.13310241699219
  0
ARC
  8
_1-1_
  6
CONTINUOUS
 62
    7
 10
40.799139105886979
 20
225.93541157017887
 40
52.876065228436453
 50
292.45927429199219
 51
293.19656372070313
  0
LINE
  8
_1-1_
  6
CONTINUOUS
 62
    7
 10
38.599201130802527
 20
169.10462081848968
 11
36.761054320558628
 21
169.10462081848968
  0
LINE
  8
_1-1_
  6
CONTINUOUS
 62
    7
 10
36.761054320558628
 20
172.50461718937228
 11
38.599201130802527
 21
172.50461718937228
  0
LINE
  8
_1-0_
  6
CONTINUOUS
 62
    2
 10
263.63891035124141
 20
180.71364012361363
 11
263.63891035124141
 21
177.41667769487631
  0
LINE
  8
_1-0_
  6
CONTINUOUS
 62
    2
 10
263.63891035124141
 20
180.71364012361363
 11
284.63890540244495
 21
180.71364012361363
  0
LINE
  8
_1-0_
  6
CONTINUOUS
 62
    7
 10
266.23544487404547
 20
175.79905222639024
 11
271.15002039927776
 21
180.71364012361363
  0
LINE
  8
_1-0_
  6
CONTINUOUS
 62
    7
 10
266.23544487404547
 20
176.64757286617066
 11
270.30152450347958
 21
180.71364012361363
  0
LINE
  8
_1-0_
  6
CONTINUOUS
 62
    7
 10
266.23544487404547
 20
177.4961058779422
 11
269.45297911971693
 21
180.71364012361363
  0
LINE
  8
_1-0_
  6
CONTINUOUS
 62
    7
 10
266.23544487404547
 20
178.34462651772259
 11
268.60445847993651
 21
180.71364012361363
  0
LINE
  8
_1-0_
  6
CONTINUOUS
 62
    7
 10
266.23544487404547
 20
179.19314715750301
 11
267.75593784015609
 21
180.71364012361363
  0
LINE
  8
_1-0_
  6
CONTINUOUS
 62
    7
 10
266.23544487404547
 20
180.04169254126566
 11
266.90739245639344
 21
180.71364012361363
  0
LINE
  8
_1-0_
  6
CONTINUOUS
 62
    7
 10
266.90387881091203
 20
180.71364012361363
 11
271.23543662605141
 21
176.38208230847428
  0
LINE
  8
_1-0_
  6
CONTINUOUS
 62
    7
 10
267.75239945069245
 20
180.71364012361363
 11
271.23543662605141
 21
177.2306029482547
  0
LINE
  8
_1-0_
  6
CONTINUOUS
 62
    7
 10
268.60092009047281
 20
180.71364012361363
 11
271.23543662605141
 21
178.07912358803509
  0
LINE
  8
_1-0_
  6
CONTINUOUS
 62
    7
 10
269.44944073025323
 20
180.71364012361363
 11
271.23543662605141
 21
178.92764422781551
  0
LINE
  8
_1-0_
  6
CONTINUOUS
 62
    7
 10
270.29796137003365
 20
180.71364012361363
 11
271.23543662605141
 21
179.7761648675959
  0
LINE
  8
_1-0_
  6
CONTINUOUS
 62
    7
 10
271.14648200981406
 20
180.71364012361363
 11
271.23543662605141
 21
180.62468550737634
  0
LINE
  8
_1-0_
  6
CONTINUOUS
 62
    7
 10
279.22912856017308
 20
185.71364424761069
 11
279.22912856017308
 21
242.65338753077319
  0
LINE
  8
_1-0_
  6
CONTINUOUS
 62
    7
 10
279.22912856017308
 20
185.71364424761069
 11
281.62912163185797
 21
185.71364424761069
  0
LINE
  8
_1-0_
  6
CONTINUOUS
 62
    7
 10
281.62912163185797
 20
185.71364424761069
 11
281.62912163185797
 21
242.65338753077319
  0
LINE
  8
_1-0_
  6
CONTINUOUS
 62
    7
 10
266.23544487404547
 20
180.71364012361363
 11
266.23544487404547
 21
174.17485645865318
  0
LINE
  8
_1-0_
  6
CONTINUOUS
 62
    7
 10
266.23544487404547
 20
175.44246669799077
 11
267.23361773704289
 21
174.44429383499337
  0
LINE
  8
_1-0_
  6
CONTINUOUS
 62
    7
 10
266.33396108317856
 20
174.20052998847407
 11
271.23543662605141
 21
179.10199032684423
  0
LINE
  8
_1-0_
  6
CONTINUOUS
 62
    7
 10
266.23544487404547
 20
176.29098733777116
 11
267.89278655777269
 21
174.63364565404402
  0
LINE
  8
_1-0_
  6
CONTINUOUS
 62
    7
 10
266.23544487404547
 20
177.13950797755157
 11
268.54492022526534
 21
174.83003262633167
  0
LINE
  8
_1-0_
  6
CONTINUOUS
 62
    7
 10
267.50233195958435
 20
174.52037973025244
 11
271.23543662605141
 21
178.25346968706381
  0
LINE
  8
_1-0_
  6
CONTINUOUS
 62
    7
 10
266.23544487404547
 20
177.98801624534084
 11
269.19014269931313
 21
175.03330570228709
  0
LINE
  8
_1-0_
  6
CONTINUOUS
 62
    7
 10
268.71241247048374
 20
174.88193851480921
 11
271.23543662605141
 21
177.4049490472834
  0
LINE
  8
_1-0_
  6
CONTINUOUS
 62
    7
 10
266.23544487404547
 20
178.83653688512123
 11
269.82862765577659
 21
175.24334216241479
  0
LINE
  8
_1-0_
  6
CONTINUOUS
 62
    7
 10
269.97007826082717
 20
175.29108089273382
 11
271.23543662605141
 21
176.55642840750301
  0
LINE
  8
_1-0_
  6
CONTINUOUS
 62
    7
 10
266.23544487404547
 20
179.68505752490165
 11
270.46048259138166
 21
175.46000837296884
  0
LINE
  8
_1-0_
  6
CONTINUOUS
 62
    7
 10
266.23544487404547
 20
180.53355342069983
 11
271.08582686538227
 21
175.68318343115945
  0
LINE
  8
_1-0_
  6
CONTINUOUS
 62
    7
 10
271.23543662605141
 20
180.71364012361363
 11
271.23543662605141
 21
175.7378786027042
  0
LINE
  8
_1-0_
  6
CONTINUOUS
 62
    7
 10
266.23544487404547
 20
174.95053200382603
 11
271.23543662605141
 21
179.95051096662462
  0
TEXT
  8
_1-0_
 62
    7
 10
222.10777313401547
 20
210.04506269079093
 40
3
 41
1
 50
0
  1
発泡弾性シール材
  0
TEXT
  8
_1-0_
 62
    7
 10
220.33985352496495
 20
198.07760687567963
 40
3
 41
1
 50
0
  1
ステンレス　ｔ＝0.4
  0
TEXT
  8
_0-1_
 62
    7
 10
310.75285402229287
 20
13.379928041157285
 40
3
 41
1
 50
0
  1
〒475－0807　半田市八軒町２８番地
  0
LINE
  8
_1-0_
  6
CONTINUOUS
 62
    2
 10
284.63890540244495
 20
180.71364012361363
 11
284.63890540244495
 21
210.71364012361363
  0
LINE
  8
_1-0_
  6
CONTINUOUS
 62
    7
 10
281.62912163185797
 20
214.12568864288568
 11
285.50467259786308
 21
214.12568864288568
  0
LINE
  8
_1-0_
  6
CONTINUOUS
 62
    7
 10
285.50467259786308
 20
222.12569029248448
 11
285.50467259786308
 21
214.12568864288568
  0
LINE
  8
_1-0_
  6
CONTINUOUS
 62
    7
 10
281.62912163185797
 20
222.12569029248448
 11
285.50467259786308
 21
222.12569029248448
  0
LINE
  8
_1-0_
  6
CONTINUOUS
 62
    7
 10
285.50467259786308
 20
222.12569029248448
 11
281.62912163185797
 21
214.12568864288568
  0
LINE
  8
_1-0_
  6
CONTINUOUS
 62
    7
 10
325.8238893183277
 20
180.71364012361363
 11
325.8238893183277
 21
210.71364012361363
  0
POINT
  8
_1-0_
 62
    7
 10
325.8238893183277
 20
180.71364012361363
  0
POINT
  8
_1-0_
 62
    7
 10
325.8238893183277
 20
210.71364012361363
  0
LINE
  8
_1-0_
  6
CONTINUOUS
 62
    7
 10
325.8238893183277
 20
180.71364012361363
 11
297.22448658910037
 21
180.71364012361363
  0
LINE
  8
_1-0_
  6
CONTINUOUS
 62
    7
 10
325.8238893183277
 20
210.71364012361363
 11
297.22448658910037
 21
210.71364012361363
  0
TEXT
  8
_1-0_
 62
    7
 10
325.39909911655838
 20
197.18474893480362
 40
3
 41
1
 50
90
  1
150
  0
LINE
  8
_1-0_
  6
CONTINUOUS
 62
    7
 10
342.34323825238579
 20
185.26239822148887
 11
326.56303243704309
 21
197.66675325281662
  0
LINE
  8
_1-0_
  6
CONTINUOUS
 62
    7
 10
326.56303243704309
 20
197.66675325281662
 11
328.94994443341079
 21
197.80715984083827
  0
ENDSEC
  0
EOF
