0
SECTION
2
HEADER
  9
$EXTMIN
10
0
20
0
30
0
  9
$EXTMAX
10
1572.973
20
1332.230
30
0
  9
$LTSCALE
40
5.000
  9
$DIMSCALE
40
5.000
  9
$PDMODE
70
0
  9
$PDSIZE
40
40
0
ENDSEC
0
SECTION
2
TABLES
0
TABLE
2
LTYPE
70
9
0
LTYPE
5
1f4
2
CONTINUOUS
70
0
3
実線
72
65
73
0
40
0.0
0
LTYPE
5
1f5
2
DOT
70
0
3
--  --  --  --  --  --  --  --     
72
65
73
2
40
5.000
49
1.000
49
-4.000
0
LTYPE
5
1f6
2
DASHED
70
0
3
----    ----    ----    ----    
72
65
73
2
40
5.000
49
2.000
49
-3.000
0
LTYPE
5
1f7
2
DASHED2
70
0
3
------  ------  ------  ------ 
72
65
73
2
40
10.000
49
4.000
49
-6.000
0
LTYPE
5
1f8
2
CENTER
70
0
3
----- - ----- - ----- - ----- - 
72
65
73
4
40
9.000
49
6.000
49
-1.000
49
1.000
49
-1.000
0
LTYPE
5
1f9
2
CENTER2
70
0
3
----------  --  ----------  -- 
72
65
73
4
40
18.000
49
12.000
49
-2.000
49
2.000
49
-2.000
0
LTYPE
5
1fa
2
PHANTOM
70
0
3
--- - - --- - - --- - - --- - -
72
65
73
6
40
10.000
49
5.000
49
-1.000
49
1.000
49
-1.000
49
1.000
49
-1.000
0
LTYPE
5
1fb
2
PHANTOM2
70
0
3
--------  -  -  --------  -  -
72
65
73
6
40
16.000
49
6.000
49
-2.000
49
2.000
49
-2.000
49
2.000
49
-2.000
0
LTYPE
5
1fc
2
HIDDEN
70
0
3
-   -   -   -   -   -   -   -   
72
65
73
2
40
2.500
49
0.500
49
-2.000
0
ENDTAB
0
TABLE
2
STYLE
70
1
0
STYLE
5
1fd
100
AcDbSymbolTableRecord
100
AcDbTextStyleTableRecord
2
STANDARD
70
0
40
0.0
41
1.0
50
0.0
71
0
42
0.0
3
txt.shx
4
extfont.shx
0
STYLE
5
1fe
100
AcDbSymbolTableRecord
100
AcDbTextStyleTableRecord
2
TATEGAKI
70
4
40
0.0
41
1.0
50
0.0
71
0
42
0.0
3
txt.shx
4
extfont.shx
0
STYLE
5
1ff
100
AcDbSymbolTableRecord
100
AcDbTextStyleTableRecord
2
MT
70
0
40
0.0
41
1.0
50
0.0
71
0
42
0.0
3
MS Mincho
4

0
STYLE
5
200
100
AcDbSymbolTableRecord
100
AcDbTextStyleTableRecord
2
TMT
70
4
40
0.0
41
1.0
50
0.0
71
0
42
0.0
3
@MS Mincho
4

0
ENDTAB
0
TABLE
2
LAYER
5
fbe
100
AcDbSymbolTable
70
10
0
LAYER
5
fbf
100
AcDbSymbolTableRecord
100
AcDbLayerTableRecord
2
0
70
64
62
  7
  6
CONTINUOUS
0
LAYER
5
fc0
100
AcDbSymbolTableRecord
100
AcDbLayerTableRecord
2
0-0
70
64
62
  7
  6
CONTINUOUS
0
LAYER
5
fc1
100
AcDbSymbolTableRecord
100
AcDbLayerTableRecord
2
0-1
70
64
62
  7
  6
CONTINUOUS
0
LAYER
5
fc2
100
AcDbSymbolTableRecord
100
AcDbLayerTableRecord
2
0-2
70
64
62
  7
  6
CONTINUOUS
0
LAYER
5
fc3
100
AcDbSymbolTableRecord
100
AcDbLayerTableRecord
2
ADD_LINE
70
64
62
  -7
  6
CONTINUOUS
0
ENDTAB
0
ENDSEC
0
SECTION
2
ENTITIES
0
LINE
5
fc4
8
0-0
6
CONTINUOUS
62
  7
10
1023.941
20
433.041
30
0.0
11
1033.941
21
433.041
31
0.0
0
LINE
5
fc5
8
0-0
6
CONTINUOUS
62
  7
10
1023.941
20
433.041
30
0.0
11
1023.941
21
418.041
31
0.0
0
LINE
5
fc6
8
0-0
6
CONTINUOUS
62
  7
10
1333.941
20
407.529
30
0.0
11
1315.531
21
414.806
31
0.0
0
LINE
5
fc7
8
0-0
6
CONTINUOUS
62
  7
10
1033.941
20
433.041
30
0.0
11
1033.941
21
429.828
31
0.0
0
LINE
5
fc8
8
ADD_LINE
6
HIDDEN
62
  7
10
1333.941
20
337.806
30
0.0
11
1333.941
21
336.514
31
0.0
0
LINE
5
fc9
8
0-0
6
CONTINUOUS
62
  7
10
1333.941
20
407.529
30
0.0
11
1315.531
21
414.806
31
0.0
0
LINE
5
fca
8
0-0
6
CONTINUOUS
62
  7
10
1282.941
20
1117.612
30
0.0
11
1304.941
21
1117.612
31
0.0
0
LINE
5
fcb
8
0-0
6
CONTINUOUS
62
  7
10
1304.941
20
1117.612
30
0.0
11
1304.941
21
1099.612
31
0.0
0
LINE
5
fcc
8
0-0
6
CONTINUOUS
62
  7
10
1023.941
20
1149.612
30
0.0
11
1282.941
21
1149.612
31
0.0
0
LINE
5
fcd
8
0-0
6
CONTINUOUS
62
  7
10
1282.941
20
1149.612
30
0.0
11
1282.941
21
1117.612
31
0.0
0
LINE
5
fce
8
0-0
6
CONTINUOUS
62
  7
10
1304.941
20
1099.612
30
0.0
11
1312.941
21
1099.612
31
0.0
0
LINE
5
fcf
8
0-0
6
CONTINUOUS
62
  7
10
1312.941
20
1099.612
30
0.0
11
1333.941
21
839.612
31
0.0
0
LINE
5
fd0
8
0-0
6
CONTINUOUS
62
  7
10
1023.941
20
1149.612
30
0.0
11
1002.941
21
1149.612
31
0.0
0
LINE
5
fd1
8
0-0
6
CONTINUOUS
62
  7
10
1073.941
20
839.612
30
0.0
11
1073.941
21
857.612
31
0.0
0
LINE
5
fd2
8
0-0
6
CONTINUOUS
62
  7
10
1043.941
20
857.612
30
0.0
11
1043.941
21
839.612
31
0.0
0
LINE
5
fd3
8
0-0
6
CONTINUOUS
62
  7
10
1040.600
20
889.612
30
0.0
11
1042.767
21
857.612
31
0.0
0
LINE
5
fd4
8
0-0
6
CONTINUOUS
62
  7
10
1040.600
20
889.612
30
0.0
11
1030.171
21
895.612
31
0.0
0
LINE
5
fd5
8
0-0
6
CONTINUOUS
62
  7
10
1013.641
20
1139.612
30
0.0
11
1030.171
21
895.612
31
0.0
0
LINE
5
fd6
8
0-0
6
CONTINUOUS
62
  7
10
1076.941
20
1127.580
30
0.0
11
1078.495
21
1122.906
31
0.0
0
LINE
5
fd7
8
0-0
6
CONTINUOUS
62
  7
10
1088.941
20
1127.580
30
0.0
11
1087.387
21
1122.906
31
0.0
0
LINE
5
fd8
8
0-0
6
CONTINUOUS
62
  7
10
1073.939
20
1136.612
30
0.0
11
1076.941
21
1127.580
31
0.0
0
LINE
5
fd9
8
0-0
6
CONTINUOUS
62
  7
10
1091.944
20
1136.613
30
0.0
11
1088.941
21
1127.580
31
0.0
0
LINE
5
fda
8
0-0
6
CONTINUOUS
62
  7
10
1176.941
20
1127.580
30
0.0
11
1178.495
21
1122.906
31
0.0
0
LINE
5
fdb
8
0-0
6
CONTINUOUS
62
  7
10
1188.941
20
1127.580
30
0.0
11
1187.387
21
1122.906
31
0.0
0
LINE
5
fdc
8
0-0
6
CONTINUOUS
62
  7
10
1173.939
20
1136.612
30
0.0
11
1176.941
21
1127.580
31
0.0
0
LINE
5
fdd
8
0-0
6
CONTINUOUS
62
  7
10
1191.944
20
1136.613
30
0.0
11
1188.941
21
1127.580
31
0.0
0
LINE
5
fde
8
0-0
6
CONTINUOUS
62
  7
10
1013.641
20
1139.612
30
0.0
11
1069.941
21
1139.612
31
0.0
0
LINE
5
fdf
8
0-0
6
CONTINUOUS
62
  7
10
1095.941
20
1139.612
30
0.0
11
1169.941
21
1139.612
31
0.0
0
LINE
5
fe0
8
0-0
6
CONTINUOUS
62
  7
10
1043.941
20
839.612
30
0.0
11
1333.941
21
839.612
31
0.0
0
LINE
5
fe1
8
0-0
6
CONTINUOUS
62
  7
10
744.013
20
1139.020
30
0.0
11
744.013
21
1148.619
31
0.0
0
LINE
5
fe2
8
ADD_LINE
6
HIDDEN
62
  7
10
716.514
20
1139.509
30
0.0
11
713.514
21
1139.607
31
0.0
0
LINE
5
fe3
8
0-0
6
CONTINUOUS
62
  7
10
713.514
20
1139.607
30
0.0
11
716.514
21
1139.509
31
0.0
0
LINE
5
fe4
8
0-0
6
CONTINUOUS
62
  7
10
735.524
20
843.233
30
0.0
11
735.524
21
847.235
31
0.0
0
LINE
5
fe5
8
0-0
6
CONTINUOUS
62
  7
10
731.513
20
854.772
30
0.0
11
731.514
21
1139.020
31
0.0
0
LINE
5
fe6
8
0-0
6
CONTINUOUS
62
  7
10
737.845
20
847.160
30
0.0
11
735.524
21
847.235
31
0.0
0
LINE
5
fe7
8
0-0
6
CONTINUOUS
62
  7
10
737.910
20
843.155
30
0.0
11
735.524
21
843.233
31
0.0
0
LINE
5
fe8
8
0-0
6
CONTINUOUS
62
  7
10
738.878
20
850.660
30
0.0
11
738.878
21
848.159
31
0.0
0
LINE
5
fe9
8
0-0
6
CONTINUOUS
62
  7
10
737.910
20
851.660
30
0.0
11
734.416
21
851.773
31
0.0
0
LINE
5
fea
8
0-0
6
CONTINUOUS
62
  7
10
738.878
20
839.655
30
0.0
11
738.878
21
842.156
31
0.0
0
LINE
5
feb
8
0-0
6
CONTINUOUS
62
  7
10
716.514
20
1139.509
30
0.0
11
716.513
21
839.350
31
0.0
0
LINE
5
fec
8
0-0
6
CONTINUOUS
62
  7
10
737.845
20
838.655
30
0.0
11
716.513
21
839.350
31
0.0
0
LINE
5
fed
8
0-0
6
CONTINUOUS
62
  7
10
713.514
20
1139.607
30
0.0
11
713.514
21
1149.612
31
0.0
0
LINE
5
fee
8
0-0
6
CONTINUOUS
62
  7
10
744.013
20
1148.619
30
0.0
11
713.514
21
1149.612
31
0.0
0
LINE
5
fef
8
0-2
6
CONTINUOUS
62
  7
10
713.514
20
1329.730
30
0.0
11
744.013
21
1329.730
31
0.0
0
LINE
5
ff0
8
0-2
6
CONTINUOUS
62
  7
10
713.514
20
1195.946
30
0.0
11
713.514
21
1329.730
31
0.0
0
LINE
5
ff1
8
0-2
6
CONTINUOUS
62
  7
10
744.013
20
1195.946
30
0.0
11
744.013
21
1329.730
31
0.0
0
LINE
5
ff2
8
0-2
6
CONTINUOUS
62
  7
10
1002.941
20
1329.730
30
0.0
11
1312.941
21
1329.730
31
0.0
0
LINE
5
ff3
8
0-2
6
CONTINUOUS
62
  7
10
1002.941
20
1195.946
30
0.0
11
1002.941
21
1329.730
31
0.0
0
LINE
5
ff4
8
0-2
6
CONTINUOUS
62
  7
10
1312.941
20
1195.946
30
0.0
11
1312.941
21
1329.730
31
0.0
0
LINE
5
ff5
8
0-2
6
CONTINUOUS
62
  7
10
1002.941
20
1284.470
30
0.0
11
1212.941
21
1284.470
31
0.0
0
LINE
5
ff6
8
0-2
6
CONTINUOUS
62
  7
10
1002.941
20
1195.946
30
0.0
11
1002.941
21
1284.470
31
0.0
0
LINE
5
ff7
8
0-2
6
CONTINUOUS
62
  7
10
1212.941
20
1195.946
30
0.0
11
1212.941
21
1284.470
31
0.0
0
LINE
5
ff8
8
0-2
6
CONTINUOUS
62
  7
10
1212.941
20
1284.470
30
0.0
11
1282.941
21
1284.470
31
0.0
0
LINE
5
ff9
8
0-2
6
CONTINUOUS
62
  7
10
1282.941
20
1195.946
30
0.0
11
1282.941
21
1284.470
31
0.0
0
LINE
5
ffa
8
0-2
6
CONTINUOUS
62
  7
10
1282.941
20
1284.470
30
0.0
11
1312.941
21
1284.470
31
0.0
0
LINE
5
ffb
8
0-2
6
CONTINUOUS
62
  7
10
1312.941
20
1195.946
30
0.0
11
1312.941
21
1284.470
31
0.0
0
LINE
5
ffc
8
0-2
6
CONTINUOUS
62
  7
10
716.513
20
689.189
30
0.0
11
731.513
21
689.189
31
0.0
0
LINE
5
ffd
8
0-2
6
CONTINUOUS
62
  7
10
716.513
20
786.487
30
0.0
11
716.513
21
689.189
31
0.0
0
LINE
5
ffe
8
0-2
6
CONTINUOUS
62
  7
10
731.513
20
786.487
30
0.0
11
731.513
21
689.189
31
0.0
0
LINE
5
fff
8
0-0
6
CONTINUOUS
62
  7
10
1021.208
20
895.612
30
0.0
11
1030.171
21
895.612
31
0.0
0
LINE
5
1000
8
0-0
6
CONTINUOUS
62
  7
10
1021.640
20
889.612
30
0.0
11
1040.600
21
889.612
31
0.0
0
LINE
5
1001
8
0-0
6
CONTINUOUS
62
  7
10
1023.941
20
857.612
30
0.0
11
1002.941
21
1149.612
31
0.0
0
LINE
5
1002
8
0-0
6
CONTINUOUS
62
  7
10
1023.941
20
857.612
30
0.0
11
1073.941
21
857.612
31
0.0
0
LINE
5
1003
8
0-0
6
CONTINUOUS
62
  7
10
1195.941
20
1139.612
30
0.0
11
1268.941
21
1139.612
31
0.0
0
LINE
5
1004
8
0-0
6
CONTINUOUS
62
  7
10
1268.941
20
1149.612
30
0.0
11
1268.941
21
1139.612
31
0.0
0
LINE
5
1005
8
0-2
6
CONTINUOUS
62
  7
10
1023.941
20
689.189
30
0.0
11
1333.941
21
689.189
31
0.0
0
LINE
5
1006
8
0-2
6
CONTINUOUS
62
  7
10
1023.941
20
786.487
30
0.0
11
1023.941
21
689.189
31
0.0
0
LINE
5
1007
8
0-2
6
CONTINUOUS
62
  7
10
1333.941
20
786.487
30
0.0
11
1333.941
21
689.189
31
0.0
0
LINE
5
1008
8
0-2
6
CONTINUOUS
62
  7
10
1023.941
20
726.000
30
0.0
11
1073.941
21
726.000
31
0.0
0
LINE
5
1009
8
0-2
6
CONTINUOUS
62
  7
10
1023.941
20
786.487
30
0.0
11
1023.941
21
726.000
31
0.0
0
LINE
5
100a
8
0-2
6
CONTINUOUS
62
  7
10
1073.941
20
786.487
30
0.0
11
1073.941
21
726.000
31
0.0
0
LINE
5
100b
8
0-2
6
CONTINUOUS
62
  7
10
1073.941
20
726.000
30
0.0
11
1193.941
21
726.000
31
0.0
0
LINE
5
100c
8
0-2
6
CONTINUOUS
62
  7
10
1193.941
20
786.487
30
0.0
11
1193.941
21
726.000
31
0.0
0
LINE
5
100d
8
0-2
6
CONTINUOUS
62
  7
10
1193.941
20
726.000
30
0.0
11
1333.942
21
726.000
31
0.0
0
LINE
5
100e
8
0-2
6
CONTINUOUS
62
  7
10
1333.942
20
786.487
30
0.0
11
1333.942
21
726.000
31
0.0
0
LINE
5
100f
8
0-2
6
CONTINUOUS
62
  7
10
1023.941
20
162.992
30
0.0
11
1333.941
21
162.992
31
0.0
0
LINE
5
1010
8
0-2
6
CONTINUOUS
62
  7
10
1023.941
20
302.426
30
0.0
11
1023.941
21
162.992
31
0.0
0
LINE
5
1011
8
0-2
6
CONTINUOUS
62
  7
10
1333.941
20
302.426
30
0.0
11
1333.941
21
162.992
31
0.0
0
LINE
5
1012
8
0-2
6
CONTINUOUS
62
  7
10
1333.941
20
230.212
30
0.0
11
1073.941
21
230.212
31
0.0
0
LINE
5
1013
8
0-2
6
CONTINUOUS
62
  7
10
1333.941
20
334.178
30
0.0
11
1333.941
21
230.212
31
0.0
0
LINE
5
1014
8
0-2
6
CONTINUOUS
62
  7
10
1073.941
20
334.178
30
0.0
11
1073.941
21
230.212
31
0.0
0
LINE
5
1015
8
0-2
6
CONTINUOUS
62
  7
10
1073.941
20
230.212
30
0.0
11
1023.941
21
230.212
31
0.0
0
LINE
5
1016
8
0-2
6
CONTINUOUS
62
  7
10
1023.941
20
334.178
30
0.0
11
1023.941
21
230.212
31
0.0
0
LINE
5
1017
8
0-2
6
CONTINUOUS
62
  7
10
1572.973
20
1149.612
30
0.0
11
1572.973
21
839.612
31
0.0
0
LINE
5
1018
8
0-2
6
CONTINUOUS
62
  7
10
1439.189
20
1149.612
30
0.0
11
1572.973
21
1149.612
31
0.0
0
LINE
5
1019
8
0-2
6
CONTINUOUS
62
  7
10
1439.189
20
839.612
30
0.0
11
1572.973
21
839.612
31
0.0
0
LINE
5
101a
8
0-2
6
CONTINUOUS
62
  7
10
1500.000
20
1149.612
30
0.0
11
1500.000
21
1099.612
31
0.0
0
LINE
5
101b
8
0-2
6
CONTINUOUS
62
  7
10
1439.189
20
1149.612
30
0.0
11
1500.000
21
1149.612
31
0.0
0
LINE
5
101c
8
0-2
6
CONTINUOUS
62
  7
10
1439.189
20
1099.612
30
0.0
11
1500.000
21
1099.612
31
0.0
0
LINE
5
101d
8
0-2
6
CONTINUOUS
62
  7
10
1500.000
20
1099.612
30
0.0
11
1500.000
21
839.612
31
0.0
0
LINE
5
101e
8
0-2
6
CONTINUOUS
62
  7
10
1439.189
20
839.612
30
0.0
11
1500.000
21
839.612
31
0.0
0
LINE
5
101f
8
ADD_LINE
6
HIDDEN
62
  3
10
1333.941
20
407.529
30
0.0
11
1338.513
21
407.529
31
0.0
0
LINE
5
1020
8
ADD_LINE
6
HIDDEN
62
  3
10
1333.941
20
407.530
30
0.0
11
1330.152
21
407.530
31
0.0
0
LINE
5
1021
8
ADD_LINE
6
HIDDEN
62
  3
10
1330.152
20
407.530
30
0.0
11
1065.173
21
407.530
31
0.0
0
LINE
5
1022
8
ADD_LINE
6
HIDDEN
62
  3
10
1073.941
20
422.236
30
0.0
11
1073.941
21
397.945
31
0.0
0
LINE
5
1023
8
ADD_LINE
6
HIDDEN
62
  3
10
1127.027
20
382.529
30
0.0
11
1021.622
21
382.529
31
0.0
0
LINE
5
1024
8
ADD_LINE
6
HIDDEN
62
  3
10
1127.027
20
382.529
30
0.0
11
1191.798
21
382.529
31
0.0
0
LINE
5
1025
8
ADD_LINE
6
HIDDEN
62
  3
10
1127.027
20
391.947
30
0.0
11
1127.027
21
364.438
31
0.0
0
LINE
5
1026
8
ADD_LINE
6
HIDDEN
62
  3
10
1333.941
20
407.530
30
0.0
11
1333.941
21
418.139
31
0.0
0
LINE
5
1027
8
ADD_LINE
6
HIDDEN
62
  3
10
1333.941
20
407.529
30
0.0
11
1333.941
21
399.566
31
0.0
0
LINE
5
1028
8
ADD_LINE
6
HIDDEN
62
  3
10
1338.513
20
407.529
30
0.0
11
1340.753
21
407.529
31
0.0
0
LINE
5
1029
8
0-0
6
CONTINUOUS
62
  7
10
257.725
20
433.041
30
0.0
11
267.725
21
433.041
31
0.0
0
LINE
5
102a
8
0-0
6
CONTINUOUS
62
  7
10
257.725
20
433.041
30
0.0
11
257.725
21
418.041
31
0.0
0
LINE
5
102b
8
0-0
6
CONTINUOUS
62
  7
10
567.725
20
407.529
30
0.0
11
549.314
21
414.806
31
0.0
0
LINE
5
102c
8
0-0
6
CONTINUOUS
62
  7
10
267.725
20
433.041
30
0.0
11
267.725
21
429.828
31
0.0
0
LINE
5
102d
8
0-0
6
CONTINUOUS
62
  7
10
567.725
20
407.529
30
0.0
11
549.314
21
414.806
31
0.0
0
LINE
5
102e
8
ADD_LINE
6
HIDDEN
62
  3
10
567.725
20
407.529
30
0.0
11
572.296
21
407.529
31
0.0
0
LINE
5
102f
8
ADD_LINE
6
HIDDEN
62
  3
10
567.725
20
407.530
30
0.0
11
563.936
21
407.530
31
0.0
0
LINE
5
1030
8
ADD_LINE
6
HIDDEN
62
  3
10
563.936
20
407.530
30
0.0
11
298.957
21
407.530
31
0.0
0
LINE
5
1031
8
ADD_LINE
6
HIDDEN
62
  3
10
307.725
20
422.236
30
0.0
11
307.725
21
397.945
31
0.0
0
LINE
5
1032
8
ADD_LINE
6
HIDDEN
62
  3
10
360.811
20
382.529
30
0.0
11
255.405
21
382.529
31
0.0
0
LINE
5
1033
8
ADD_LINE
6
HIDDEN
62
  3
10
360.811
20
382.529
30
0.0
11
425.582
21
382.529
31
0.0
0
LINE
5
1034
8
ADD_LINE
6
HIDDEN
62
  3
10
360.811
20
391.947
30
0.0
11
360.811
21
364.438
31
0.0
0
LINE
5
1035
8
ADD_LINE
6
HIDDEN
62
  3
10
567.725
20
407.530
30
0.0
11
567.725
21
418.139
31
0.0
0
LINE
5
1036
8
ADD_LINE
6
HIDDEN
62
  3
10
567.725
20
407.529
30
0.0
11
567.725
21
399.566
31
0.0
0
LINE
5
1037
8
ADD_LINE
6
HIDDEN
62
  3
10
572.296
20
407.529
30
0.0
11
574.537
21
407.529
31
0.0
0
LINE
5
1038
8
0-0
6
CONTINUOUS
62
  7
10
517.725
20
433.041
30
0.0
11
527.725
21
433.041
31
0.0
0
LINE
5
1039
8
0-0
6
CONTINUOUS
62
  7
10
517.725
20
433.041
30
0.0
11
517.725
21
418.041
31
0.0
0
LINE
5
103a
8
0-0
6
CONTINUOUS
62
  7
10
827.725
20
407.529
30
0.0
11
809.314
21
414.806
31
0.0
0
LINE
5
103b
8
0-0
6
CONTINUOUS
62
  7
10
527.725
20
433.041
30
0.0
11
527.725
21
429.828
31
0.0
0
LINE
5
103c
8
0-0
6
CONTINUOUS
62
  7
10
827.725
20
407.529
30
0.0
11
809.314
21
414.806
31
0.0
0
LINE
5
103d
8
ADD_LINE
6
HIDDEN
62
  3
10
827.725
20
407.529
30
0.0
11
832.296
21
407.529
31
0.0
0
LINE
5
103e
8
ADD_LINE
6
HIDDEN
62
  3
10
827.725
20
407.530
30
0.0
11
823.936
21
407.530
31
0.0
0
LINE
5
103f
8
ADD_LINE
6
HIDDEN
62
  3
10
823.936
20
407.530
30
0.0
11
558.957
21
407.530
31
0.0
0
LINE
5
1040
8
ADD_LINE
6
HIDDEN
62
  3
10
567.725
20
422.236
30
0.0
11
567.725
21
397.945
31
0.0
0
LINE
5
1041
8
ADD_LINE
6
HIDDEN
62
  3
10
620.811
20
382.529
30
0.0
11
515.405
21
382.529
31
0.0
0
LINE
5
1042
8
ADD_LINE
6
HIDDEN
62
  3
10
620.811
20
382.529
30
0.0
11
685.582
21
382.529
31
0.0
0
LINE
5
1043
8
ADD_LINE
6
HIDDEN
62
  3
10
620.811
20
391.947
30
0.0
11
620.811
21
364.438
31
0.0
0
LINE
5
1044
8
ADD_LINE
6
HIDDEN
62
  3
10
827.725
20
407.530
30
0.0
11
827.725
21
418.139
31
0.0
0
LINE
5
1045
8
ADD_LINE
6
HIDDEN
62
  3
10
827.725
20
407.529
30
0.0
11
827.725
21
399.566
31
0.0
0
LINE
5
1046
8
ADD_LINE
6
HIDDEN
62
  3
10
832.296
20
407.529
30
0.0
11
834.537
21
407.529
31
0.0
0
LINE
5
1047
8
0-1
6
CONTINUOUS
62
  7
10
827.725
20
587.487
30
0.0
11
567.725
21
587.487
31
0.0
0
LINE
5
1048
8
0-1
6
CONTINUOUS
62
  7
10
827.725
20
496.596
30
0.0
11
827.725
21
587.487
31
0.0
0
LINE
5
1049
8
0-1
6
CONTINUOUS
62
  7
10
567.725
20
496.596
30
0.0
11
567.725
21
587.487
31
0.0
0
LINE
5
104a
8
0-1
6
CONTINUOUS
62
  7
10
567.725
20
587.487
30
0.0
11
307.725
21
587.487
31
0.0
0
LINE
5
104b
8
0-1
6
CONTINUOUS
62
  7
10
307.725
20
496.596
30
0.0
11
307.725
21
587.487
31
0.0
0
LINE
5
104c
8
0-0
6
CONTINUOUS
62
  7
10
463.420
20
889.612
30
0.0
11
473.420
21
895.612
31
0.0
0
LINE
5
104d
8
0-0
6
CONTINUOUS
62
  7
10
473.420
20
1149.612
30
0.0
11
473.420
21
895.612
31
0.0
0
LINE
5
104e
8
0-0
6
CONTINUOUS
62
  7
10
463.420
20
889.612
30
0.0
11
463.420
21
857.612
31
0.0
0
LINE
5
104f
8
0-0
6
CONTINUOUS
62
  7
10
448.420
20
857.612
30
0.0
11
448.420
21
839.612
31
0.0
0
LINE
5
1050
8
0-0
6
CONTINUOUS
62
  7
10
458.420
20
1149.612
30
0.0
11
458.420
21
867.612
31
0.0
0
LINE
5
1051
8
0-0
6
CONTINUOUS
62
  7
10
463.420
20
857.612
30
0.0
11
458.403
21
857.612
31
0.0
0
LINE
5
1052
8
0-0
6
CONTINUOUS
62
  7
10
422.420
20
839.612
30
0.0
11
448.420
21
839.612
31
0.0
0
LINE
5
1053
8
0-0
6
CONTINUOUS
62
  7
10
429.409
20
844.190
30
0.0
11
429.410
21
848.192
31
0.0
0
LINE
5
1054
8
0-0
6
CONTINUOUS
62
  7
10
427.023
20
844.112
30
0.0
11
429.409
21
844.190
31
0.0
0
LINE
5
1055
8
0-0
6
CONTINUOUS
62
  7
10
426.056
20
851.617
30
0.0
11
426.056
21
849.116
31
0.0
0
LINE
5
1056
8
0-0
6
CONTINUOUS
62
  7
10
426.056
20
840.611
30
0.0
11
426.056
21
843.113
31
0.0
0
LINE
5
1057
8
0-0
6
CONTINUOUS
62
  7
10
427.089
20
839.612
30
0.0
11
433.615
21
839.612
31
0.0
0
LINE
5
1058
8
0-0
6
CONTINUOUS
62
  7
10
415.056
20
851.617
30
0.0
11
415.056
21
849.116
31
0.0
0
LINE
5
1059
8
0-0
6
CONTINUOUS
62
  7
10
416.023
20
852.617
30
0.0
11
419.518
21
852.731
31
0.0
0
LINE
5
105a
8
0-0
6
CONTINUOUS
62
  7
10
415.056
20
840.611
30
0.0
11
415.056
21
843.113
31
0.0
0
LINE
5
105b
8
0-0
6
CONTINUOUS
62
  7
10
416.089
20
839.612
30
0.0
11
422.615
21
839.612
31
0.0
0
LINE
5
105c
8
0-0
6
CONTINUOUS
62
  7
10
433.420
20
855.729
30
0.0
11
433.420
21
839.612
31
0.0
0
LINE
5
105d
8
0-0
6
CONTINUOUS
62
  7
10
422.420
20
857.612
30
0.0
11
422.420
21
855.729
31
0.0
0
LINE
5
105e
8
0-0
6
CONTINUOUS
62
  7
10
427.023
20
844.112
30
0.0
11
416.023
21
844.112
31
0.0
0
LINE
5
105f
8
0-0
6
CONTINUOUS
62
  7
10
418.409
20
844.112
30
0.0
11
418.410
21
848.117
31
0.0
0
LINE
5
1060
8
0-0
6
CONTINUOUS
62
  7
10
427.023
20
852.617
30
0.0
11
416.023
21
852.617
31
0.0
0
LINE
5
1061
8
0-0
6
CONTINUOUS
62
  7
10
427.088
20
848.117
30
0.0
11
429.410
21
848.192
31
0.0
0
LINE
5
1062
8
0-0
6
CONTINUOUS
62
  7
10
423.088
20
848.117
30
0.0
11
416.088
21
848.117
31
0.0
0
LINE
5
1063
8
0-0
6
CONTINUOUS
62
  7
10
423.088
20
848.117
30
0.0
11
427.066
21
848.117
31
0.0
0
LINE
5
1064
8
0-0
6
CONTINUOUS
62
  7
10
437.321
20
867.612
30
0.0
11
458.420
21
867.612
31
0.0
0
LINE
5
1065
8
0-0
6
CONTINUOUS
62
  7
10
430.321
20
860.612
30
0.0
11
430.321
21
852.724
31
0.0
0
LINE
5
1066
8
0-0
6
CONTINUOUS
62
  7
10
435.420
20
857.612
30
0.0
11
456.611
21
857.612
31
0.0
0
LINE
5
1067
8
0-0
6
CONTINUOUS
62
  7
10
433.420
20
855.612
30
0.0
11
433.420
21
839.612
31
0.0
0
LINE
5
1068
8
0-0
6
CONTINUOUS
62
  7
10
427.023
20
852.617
30
0.0
11
430.321
21
852.724
31
0.0
0
LINE
5
1069
8
0-0
6
CONTINUOUS
62
  7
10
409.420
20
1149.612
30
0.0
11
409.420
21
1139.612
31
0.0
0
LINE
5
106a
8
0-0
6
CONTINUOUS
62
  7
10
473.420
20
1149.612
30
0.0
11
409.420
21
1149.612
31
0.0
0
LINE
5
106b
8
0-0
6
CONTINUOUS
62
  7
10
409.420
20
1139.612
30
0.0
11
427.886
21
1139.612
31
0.0
0
LINE
5
106c
8
0-0
6
CONTINUOUS
62
  7
10
427.886
20
1149.612
30
0.0
11
427.886
21
1139.612
31
0.0
0
LINE
5
106d
8
0-0
6
CONTINUOUS
62
  7
10
422.420
20
1139.612
30
0.0
11
422.420
21
855.729
31
0.0
0
LINE
5
106e
8
0-0
6
CONTINUOUS
62
  7
10
731.514
20
1139.020
30
0.0
11
744.054
21
1139.020
31
0.0
0
LINE
5
106f
8
ADD_LINE
6
HIDDEN
62
  3
10
731.514
20
1139.020
30
0.0
11
731.514
21
1144.628
31
0.0
0
LINE
5
1070
8
ADD_LINE
6
HIDDEN
62
  3
10
731.514
20
1139.020
30
0.0
11
726.377
21
1139.020
31
0.0
0
LINE
5
1071
8
0-0
6
CONTINUOUS
62
  7
10
1118.941
20
839.612
30
0.0
11
1118.941
21
884.612
31
0.0
0
LINE
5
1072
8
0-0
6
CONTINUOUS
62
  7
10
1118.941
20
884.612
30
0.0
11
1248.941
21
884.612
31
0.0
0
LINE
5
1073
8
0-0
6
CONTINUOUS
62
  7
10
1248.941
20
839.612
30
0.0
11
1248.941
21
884.612
31
0.0
0
LINE
5
1074
8
0-0
6
CONTINUOUS
62
  7
10
1212.941
20
1149.612
30
0.0
11
1196.699
21
884.612
31
0.0
0
LINE
5
1075
8
0-0
6
CONTINUOUS
62
  7
10
713.514
20
1149.612
30
0.0
11
669.586
21
1149.612
31
0.0
0
LINE
5
1076
8
0-0
6
CONTINUOUS
62
  7
10
669.586
20
1149.612
30
0.0
11
669.586
21
895.612
31
0.0
0
LINE
5
1077
8
0-0
6
CONTINUOUS
62
  7
10
669.586
20
895.612
30
0.0
11
674.586
21
889.612
31
0.0
0
LINE
5
1078
8
0-0
6
CONTINUOUS
62
  7
10
674.586
20
1139.607
30
0.0
11
674.586
21
857.612
31
0.0
0
LINE
5
1079
8
0-0
6
CONTINUOUS
62
  7
10
692.586
20
857.612
30
0.0
11
674.586
21
857.612
31
0.0
0
LINE
5
107a
8
0-0
6
CONTINUOUS
62
  7
10
692.586
20
857.612
30
0.0
11
692.586
21
839.350
31
0.0
0
LINE
5
107b
8
0-0
6
CONTINUOUS
62
  7
10
716.513
20
839.350
30
0.0
11
692.586
21
839.350
31
0.0
0
LINE
5
107c
8
0-0
6
CONTINUOUS
62
  7
10
713.514
20
1139.607
30
0.0
11
669.586
21
1139.607
31
0.0
0
LINE
5
107d
8
0-2
6
CONTINUOUS
62
  7
10
267.568
20
1149.612
30
0.0
11
267.568
21
839.612
31
0.0
0
LINE
5
107e
8
0-2
6
CONTINUOUS
62
  7
10
364.865
20
1149.612
30
0.0
11
267.568
21
1149.612
31
0.0
0
LINE
5
107f
8
0-2
6
CONTINUOUS
62
  7
10
364.865
20
839.612
30
0.0
11
267.568
21
839.612
31
0.0
0
LINE
5
1080
8
ADD_LINE
6
HIDDEN
62
  3
10
706.513
20
854.228
30
0.0
11
706.513
21
828.659
31
0.0
0
LINE
5
1081
8
0-2
6
CONTINUOUS
62
  7
10
1118.941
20
793.429
30
0.0
11
1248.941
21
793.429
31
0.0
0
LINE
5
1082
8
0-2
6
CONTINUOUS
62
  7
10
1118.941
20
822.590
30
0.0
11
1118.941
21
793.429
31
0.0
0
LINE
5
1083
8
0-2
6
CONTINUOUS
62
  7
10
1248.941
20
822.590
30
0.0
11
1248.941
21
793.429
31
0.0
0
LINE
5
1084
8
0-2
6
CONTINUOUS
62
  7
10
1402.163
20
839.612
30
0.0
11
1402.163
21
884.612
31
0.0
0
LINE
5
1085
8
0-2
6
CONTINUOUS
62
  7
10
1368.846
20
839.612
30
0.0
11
1402.163
21
839.612
31
0.0
0
LINE
5
1086
8
0-2
6
CONTINUOUS
62
  7
10
1368.846
20
884.612
30
0.0
11
1402.163
21
884.612
31
0.0
0
ARC
5
1087
8
0-0
6
CONTINUOUS
62
  7
10
1263.149
20
390.151
30
0.0
40
72.894
50
13.791901
51
161.698517
0
ARC
5
1088
8
0-0
6
CONTINUOUS
62
  7
10
1127.027
20
549.905
30
0.0
40
167.376
50
231.983124
51
298.395081
0
ARC
5
1089
8
0-0
6
CONTINUOUS
62
  7
10
1263.149
20
390.151
30
0.0
40
57.894
50
25.205399
51
167.515991
0
ARC
5
108a
8
0-0
6
CONTINUOUS
62
  7
10
1126.285
20
553.041
30
0.0
40
155.491
50
234.579666
51
295.792664
0
ARC
5
108b
8
0-0
6
CONTINUOUS
62
  7
10
1043.746
20
433.607
30
0.0
40
10.508
50
201.075867
51
223.839203
0
CIRCLE
5
108c
8
0-0
6
CONTINUOUS
62
  7
10
1082.941
20
1129.612
30
0.0
40
3.000
0
CIRCLE
5
108d
8
0-0
6
CONTINUOUS
62
  7
10
1182.941
20
1129.612
30
0.0
40
3.000
0
ARC
5
108e
8
0-0
6
CONTINUOUS
62
  7
10
1082.941
20
1124.260
30
0.0
40
4.648
50
196.933060
51
343.066956
0
ARC
5
108f
8
0-0
6
CONTINUOUS
62
  7
10
1069.989
20
1135.512
30
0.0
40
4.100
50
15.562836
51
90.661270
0
ARC
5
1090
8
0-0
6
CONTINUOUS
62
  7
10
1096.206
20
1135.096
30
0.0
40
4.524
50
93.355240
51
160.419327
0
CIRCLE
5
1091
8
0-0
6
CONTINUOUS
62
  7
10
1182.941
20
1129.612
30
0.0
40
3.000
0
ARC
5
1092
8
0-0
6
CONTINUOUS
62
  7
10
1182.941
20
1124.260
30
0.0
40
4.648
50
196.933060
51
343.066956
0
ARC
5
1093
8
0-0
6
CONTINUOUS
62
  7
10
1169.988
20
1135.512
30
0.0
40
4.100
50
15.562836
51
90.661270
0
ARC
5
1094
8
0-0
6
CONTINUOUS
62
  7
10
1196.206
20
1135.096
30
0.0
40
4.524
50
93.355240
51
160.419327
0
ARC
5
1095
8
0-0
6
CONTINUOUS
62
  7
10
734.513
20
854.772
30
0.0
40
3.000
50
180.000748
51
268.134705
0
ARC
5
1096
8
0-0
6
CONTINUOUS
62
  7
10
737.878
20
848.159
30
0.0
40
1.000
50
268.132446
51
360.003357
0
ARC
5
1097
8
0-0
6
CONTINUOUS
62
  7
10
737.878
20
842.156
30
0.0
40
1.000
50
359.998871
51
88.132431
0
ARC
5
1098
8
0-0
6
CONTINUOUS
62
  7
10
737.878
20
850.660
30
0.0
40
1.000
50
360.003357
51
88.134811
0
ARC
5
1099
8
0-0
6
CONTINUOUS
62
  7
10
737.878
20
839.655
30
0.0
40
1.000
50
268.131409
51
360.000000
0
CIRCLE
5
109a
8
ADD_LINE
6
HIDDEN
62
  3
10
1333.941
20
407.530
30
0.0
40
3.000
0
CIRCLE
5
109b
8
ADD_LINE
6
HIDDEN
62
  3
10
1073.941
20
407.530
30
0.0
40
3.000
0
CIRCLE
5
109c
8
ADD_LINE
6
HIDDEN
62
  3
10
1127.027
20
382.529
30
0.0
40
3.000
0
ARC
5
109d
8
0-0
6
CONTINUOUS
62
  7
10
496.932
20
390.151
30
0.0
40
72.894
50
13.791901
51
161.698517
0
ARC
5
109e
8
0-0
6
CONTINUOUS
62
  7
10
360.811
20
549.905
30
0.0
40
167.376
50
231.983124
51
298.395081
0
ARC
5
109f
8
0-0
6
CONTINUOUS
62
  7
10
496.932
20
390.151
30
0.0
40
57.894
50
25.205399
51
167.515991
0
ARC
5
10a0
8
0-0
6
CONTINUOUS
62
  7
10
360.068
20
553.041
30
0.0
40
155.491
50
234.579666
51
295.792664
0
ARC
5
10a1
8
0-0
6
CONTINUOUS
62
  7
10
277.530
20
433.607
30
0.0
40
10.508
50
201.075867
51
223.839203
0
CIRCLE
5
10a2
8
ADD_LINE
6
HIDDEN
62
  3
10
567.725
20
407.530
30
0.0
40
3.000
0
CIRCLE
5
10a3
8
ADD_LINE
6
HIDDEN
62
  3
10
307.725
20
407.530
30
0.0
40
3.000
0
CIRCLE
5
10a4
8
ADD_LINE
6
HIDDEN
62
  3
10
360.811
20
382.529
30
0.0
40
3.000
0
ARC
5
10a5
8
0-0
6
CONTINUOUS
62
  7
10
756.932
20
390.151
30
0.0
40
72.894
50
13.791901
51
161.698517
0
ARC
5
10a6
8
0-0
6
CONTINUOUS
62
  7
10
620.811
20
549.905
30
0.0
40
167.376
50
231.983124
51
298.395081
0
ARC
5
10a7
8
0-0
6
CONTINUOUS
62
  7
10
756.932
20
390.151
30
0.0
40
57.894
50
25.205399
51
167.515991
0
ARC
5
10a8
8
0-0
6
CONTINUOUS
62
  7
10
620.068
20
553.041
30
0.0
40
155.491
50
234.579666
51
295.792664
0
ARC
5
10a9
8
0-0
6
CONTINUOUS
62
  7
10
537.529
20
433.607
30
0.0
40
10.508
50
201.075867
51
223.839203
0
CIRCLE
5
10aa
8
ADD_LINE
6
HIDDEN
62
  3
10
827.725
20
407.530
30
0.0
40
3.000
0
CIRCLE
5
10ab
8
ADD_LINE
6
HIDDEN
62
  3
10
567.725
20
407.530
30
0.0
40
3.000
0
CIRCLE
5
10ac
8
ADD_LINE
6
HIDDEN
62
  3
10
620.811
20
382.529
30
0.0
40
3.000
0
ARC
5
10ad
8
0-0
6
CONTINUOUS
62
  7
10
427.056
20
843.113
30
0.0
40
1.000
50
451.867554
51
180.001129
0
ARC
5
10ae
8
0-0
6
CONTINUOUS
62
  7
10
427.056
20
851.617
30
0.0
40
1.000
50
451.865173
51
179.996643
0
ARC
5
10af
8
0-0
6
CONTINUOUS
62
  7
10
419.420
20
855.729
30
0.0
40
3.000
50
271.865662
51
359.999634
0
ARC
5
10b0
8
0-0
6
CONTINUOUS
62
  7
10
416.056
20
849.116
30
0.0
40
1.000
50
179.996643
51
271.867554
0
ARC
5
10b1
8
0-0
6
CONTINUOUS
62
  7
10
416.056
20
843.113
30
0.0
40
1.000
50
451.867554
51
180.001129
0
ARC
5
10b2
8
0-0
6
CONTINUOUS
62
  7
10
416.056
20
851.617
30
0.0
40
1.000
50
451.865173
51
179.996643
0
ARC
5
10b3
8
0-0
6
CONTINUOUS
62
  7
10
416.056
20
840.611
30
0.0
40
1.000
50
180.000000
51
271.868591
0
ARC
5
10b4
8
0-0
6
CONTINUOUS
62
  7
10
427.056
20
849.116
30
0.0
40
1.000
50
179.996643
51
268.422729
0
ARC
5
10b5
8
0-0
6
CONTINUOUS
62
  7
10
427.056
20
849.116
30
0.0
40
1.000
50
270.596985
51
271.867554
0
ARC
5
10b6
8
0-0
6
CONTINUOUS
62
  7
10
437.321
20
860.612
30
0.0
40
7.000
50
90.000000
51
180.000000
0
ARC
5
10b7
8
0-0
6
CONTINUOUS
62
  7
10
435.420
20
855.612
30
0.0
40
2.000
50
90.000000
51
180.000000
0
ARC
5
10b8
8
0-0
6
CONTINUOUS
62
  7
10
427.056
20
840.611
30
0.0
40
1.000
50
271.868164
51
271.868591
0
ARC
5
10b9
8
0-0
6
CONTINUOUS
62
  7
10
427.056
20
840.611
30
0.0
40
1.000
50
180.000000
51
268.090149
0
CIRCLE
5
10ba
8
ADD_LINE
6
HIDDEN
62
  3
10
731.514
20
1139.020
30
0.0
40
3.000
0
ARC
5
10bb
8
0-0
6
CONTINUOUS
62
  7
10
1216.799
20
362.863
30
0.0
40
103.882
50
71.976654
51
160.391891
0
ARC
5
10bc
8
0-0
6
CONTINUOUS
62
  7
10
1216.799
20
362.863
30
0.0
40
89.882
50
84.670792
51
157.167816
0
CIRCLE
5
10bd
8
ADD_LINE
6
HIDDEN
62
  3
10
706.513
20
839.350
30
0.0
40
3.000
0
TEXT
5
10be
100
AcDbEntity
8
0-2
62
7
100
AcDbText
10
722.514
20
1332.230
30
0.0
40
9.750
41
0.800
50
0.000
1
30
100
AcDbText
0
TEXT
5
10bf
100
AcDbEntity
8
0-2
62
7
100
AcDbText
10
1148.566
20
1332.230
30
0.0
40
9.750
41
0.800
50
0.000
1
310
100
AcDbText
0
TEXT
5
10c0
100
AcDbEntity
8
0-2
62
7
100
AcDbText
10
1098.566
20
1286.970
30
0.0
40
9.750
41
0.800
50
0.000
1
210
100
AcDbText
0
TEXT
5
10c1
100
AcDbEntity
8
0-2
62
7
100
AcDbText
10
1241.691
20
1286.970
30
0.0
40
9.750
41
0.800
50
0.000
1
70
100
AcDbText
0
TEXT
5
10c2
100
AcDbEntity
8
0-2
62
7
100
AcDbText
10
1291.691
20
1286.970
30
0.0
40
9.750
41
0.800
50
0.000
1
30
100
AcDbText
0
TEXT
5
10c3
100
AcDbEntity
8
0-2
62
7
100
AcDbText
10
717.764
20
691.689
30
0.0
40
9.750
41
0.800
50
0.000
1
15
100
AcDbText
0
TEXT
5
10c4
100
AcDbEntity
8
0-2
62
7
100
AcDbText
10
1169.566
20
691.689
30
0.0
40
9.750
41
0.800
50
0.000
1
310
100
AcDbText
0
TEXT
5
10c5
100
AcDbEntity
8
0-2
62
7
100
AcDbText
10
1042.691
20
728.500
30
0.0
40
9.750
41
0.800
50
0.000
1
50
100
AcDbText
0
TEXT
5
10c6
100
AcDbEntity
8
0-2
62
7
100
AcDbText
10
1124.566
20
728.500
30
0.0
40
9.750
41
0.800
50
0.000
1
120
100
AcDbText
0
TEXT
5
10c7
100
AcDbEntity
8
0-2
62
7
100
AcDbText
10
1254.566
20
728.500
30
0.0
40
9.750
41
0.800
50
0.000
1
140
100
AcDbText
0
TEXT
5
10c8
100
AcDbEntity
8
0-2
62
7
100
AcDbText
10
1169.566
20
165.492
30
0.0
40
9.750
41
0.800
50
0.000
1
310
100
AcDbText
0
TEXT
5
10c9
100
AcDbEntity
8
0-2
62
7
100
AcDbText
10
1194.566
20
232.712
30
0.0
40
9.750
41
0.800
50
0.000
1
260
100
AcDbText
0
TEXT
5
10ca
100
AcDbEntity
8
0-2
62
7
100
AcDbText
10
1042.691
20
232.712
30
0.0
40
9.750
41
0.800
50
0.000
1
50
100
AcDbText
0
TEXT
5
10cb
100
AcDbEntity
8
0-2
62
7
100
AcDbText
10
1570.473
20
985.237
30
0.0
40
9.750
41
0.800
50
90.000
1
310
100
AcDbText
0
TEXT
5
10cc
100
AcDbEntity
8
0-2
62
7
100
AcDbText
10
1497.500
20
1118.362
30
0.0
40
9.750
41
0.800
50
90.000
1
50
100
AcDbText
0
TEXT
5
10cd
100
AcDbEntity
8
0-2
62
7
100
AcDbText
10
1497.500
20
960.237
30
0.0
40
9.750
41
0.800
50
90.000
1
260
100
AcDbText
0
TEXT
5
10ce
100
AcDbEntity
8
0-1
62
7
100
AcDbText
10
688.350
20
589.987
30
0.0
40
9.750
41
0.800
50
0.000
1
260
100
AcDbText
0
TEXT
5
10cf
100
AcDbEntity
8
0-1
62
7
100
AcDbText
10
428.350
20
589.987
30
0.0
40
9.750
41
0.800
50
0.000
1
260
100
AcDbText
0
TEXT
5
10d0
100
AcDbEntity
8
0-2
62
7
100
AcDbText
10
265.068
20
985.237
30
0.0
40
9.750
41
0.800
50
90.000
1
310
100
AcDbText
0
TEXT
5
10d1
100
AcDbEntity
8
0-2
62
7
100
AcDbText
10
1174.566
20
795.929
30
0.0
40
9.750
41
0.800
50
0.000
1
130
100
AcDbText
0
TEXT
5
10d2
100
AcDbEntity
8
0-2
62
7
100
AcDbText
10
1399.663
20
855.862
30
0.0
40
9.750
41
0.800
50
90.000
1
45
100
AcDbText
0
POINT
5
10d3
8
0-2
62
  7
10
713.514
20
1329.730
30
0.0
0
POINT
5
10d4
8
0-2
62
  7
10
744.013
20
1329.730
30
0.0
0
POINT
5
10d5
8
0-2
62
  7
10
1002.941
20
1329.730
30
0.0
0
POINT
5
10d6
8
0-2
62
  7
10
1312.941
20
1329.730
30
0.0
0
POINT
5
10d7
8
0-2
62
  7
10
1002.941
20
1284.470
30
0.0
0
POINT
5
10d8
8
0-2
62
  7
10
1212.941
20
1284.470
30
0.0
0
POINT
5
10d9
8
0-2
62
  7
10
1282.941
20
1284.470
30
0.0
0
POINT
5
10da
8
0-2
62
  7
10
1312.941
20
1284.470
30
0.0
0
POINT
5
10db
8
0-2
62
  7
10
716.513
20
689.189
30
0.0
0
POINT
5
10dc
8
0-2
62
  7
10
731.513
20
689.189
30
0.0
0
POINT
5
10dd
8
0-2
62
  7
10
1023.941
20
689.189
30
0.0
0
POINT
5
10de
8
0-2
62
  7
10
1333.941
20
689.189
30
0.0
0
POINT
5
10df
8
0-2
62
  7
10
1023.941
20
726.000
30
0.0
0
POINT
5
10e0
8
0-2
62
  7
10
1073.941
20
726.000
30
0.0
0
POINT
5
10e1
8
0-2
62
  7
10
1193.941
20
726.000
30
0.0
0
POINT
5
10e2
8
0-2
62
  7
10
1333.942
20
726.000
30
0.0
0
POINT
5
10e3
8
0-2
62
  7
10
1023.941
20
162.992
30
0.0
0
POINT
5
10e4
8
0-2
62
  7
10
1333.941
20
162.992
30
0.0
0
POINT
5
10e5
8
0-2
62
  7
10
1333.941
20
230.212
30
0.0
0
POINT
5
10e6
8
0-2
62
  7
10
1073.941
20
230.212
30
0.0
0
POINT
5
10e7
8
0-2
62
  7
10
1023.941
20
230.212
30
0.0
0
POINT
5
10e8
8
0-2
62
  7
10
1572.973
20
1149.612
30
0.0
0
POINT
5
10e9
8
0-2
62
  7
10
1572.973
20
839.612
30
0.0
0
POINT
5
10ea
8
0-2
62
  7
10
1500.000
20
1149.612
30
0.0
0
POINT
5
10eb
8
0-2
62
  7
10
1500.000
20
1099.612
30
0.0
0
POINT
5
10ec
8
0-2
62
  7
10
1500.000
20
839.612
30
0.0
0
POINT
5
10ed
8
0-1
62
  7
10
827.725
20
587.487
30
0.0
0
POINT
5
10ee
8
0-1
62
  7
10
567.725
20
587.487
30
0.0
0
POINT
5
10ef
8
0-1
62
  7
10
307.725
20
587.487
30
0.0
0
POINT
5
10f0
8
0-2
62
  7
10
267.568
20
1149.612
30
0.0
0
POINT
5
10f1
8
0-2
62
  7
10
267.568
20
839.612
30
0.0
0
POINT
5
10f2
8
0-2
62
  7
10
1118.941
20
793.429
30
0.0
0
POINT
5
10f3
8
0-2
62
  7
10
1248.941
20
793.429
30
0.0
0
POINT
5
10f4
8
0-2
62
  7
10
1402.163
20
839.612
30
0.0
0
POINT
5
10f5
8
0-2
62
  7
10
1402.163
20
884.612
30
0.0
0
ENDSEC
0
EOF
