  0
SECTION
  2
HEADER
  9
$ACADVER
  1
AC1009
  9
$INSBASE
 10
0
 20
0
 30
0
  9
$EXTMIN
 10
0
 20
0
  9
$EXTMAX
 10
420
 20
297
  9
$LIMMIN
 10
0
 20
0
  9
$LIMMAX
 10
420
 20
297
  9
$LTSCALE
 40
1
  0
ENDSEC
  0
SECTION
  2
TABLES
  0
TABLE
  2
LTYPE
 70
     9
  0
LTYPE
  2
CONTINUOUS
 70
    64
  3
実線
 72
    65
 73
     0
 40
0.0
  0
LTYPE
  2
DASHED1
 70
    64
  3
--  --  --  --  --  --  --  --  
 72
    65
 73
     2
 40
2.5
 49
1.25
 49
-1.25
  0
LTYPE
  2
DASHED2
 70
    64
  3
----    ----    ----    ----    
 72
    65
 73
     2
 40
5.0
 49
2.5
 49
-2.5
  0
LTYPE
  2
DASHED3
 70
    64
  3
------  ------  ------  ------  
 72
    65
 73
     2
 40
5.0
 49
3.75
 49
-1.25
  0
LTYPE
  2
CENTER1
 70
    64
  3
----- - ----- - ----- - ----- - 
 72
    65
 73
     4
 40
10.0
 49
6.25
 49
-1.25
 49
1.25
 49
-1.25
  0
LTYPE
  2
CENTER2
 70
    64
  3
----------  --  ----------  --  
 72
    65
 73
     4
 40
20.0
 49
12.5
 49
-2.5
 49
2.5
 49
-2.5
  0
LTYPE
  2
PHANTOM1
 70
    64
  3
--- - - --- - - --- - - --- - - 
 72
    65
 73
     6
 40
10.0
 49
3.25
 49
-1.25
 49
1.25
 49
-1.25
 49
1.25
 49
-1.25
  0
LTYPE
  2
PHANTOM2
 70
    64
  3
--------  -  -  --------  -  -  
 72
    65
 73
     6
 40
20.0
 49
10.0
 49
-2.5
 49
1.25
 49
-2.5
 49
1.25
 49
-2.5
  0
LTYPE
  2
DOT
 70
    64
  3
-   -   -   -   -   -   -   -   
 72
    65
 73
     2
 40
2.5
 49
0.625
 49
-1.875
  0
LTYPE
  2
DUMMY
 70
    64
  3
ダミー
 72
    65
 73
     0
 40
0.0
  0
LTYPE
  2
RAND1
 70
    64
  3
ランダム線1
 72
    65
 73
     4
 40
10.0
 49
1.0
 49
-2.0
 49
3.0
 49
-4.0
  0
LTYPE
  2
RAND2
 70
    64
  3
ランダム線2
 72
    65
 73
     4
 40
14.0
 49
2.0
 49
-3.0
 49
4.0
 49
-5.0
  0
LTYPE
  2
RAND3
 70
    64
  3
ランダム線3
 72
    65
 73
     4
 40
18.0
 49
3.0
 49
-4.0
 49
5.0
 49
-6.0
  0
LTYPE
  2
RAND4
 70
    64
  3
ランダム線4
 72
    65
 73
     4
 40
22.0
 49
4.0
 49
-5.0
 49
6.0
 49
-7.0
  0
LTYPE
  2
RAND5
 70
    64
  3
ランダム線5
 72
    65
 73
     4
 40
26.0
 49
5.0
 49
-6.0
 49
7.0
 49
-8.0
  0
LTYPE
  2
LONG1
 70
    64
  3
----------  --  ----------  --  
 72
    65
 73
     4
 40
40.0
 49
32.5
 49
-2.5
 49
2.5
 49
-2.5
  0
LTYPE
  2
LONG2
 70
    64
  3
--------  -  -  --------  -  -  
 72
    65
 73
     6
 40
40.0
 49
30.0
 49
-2.5
 49
1.25
 49
-2.5
 49
1.25
 49
-2.5
  0
LTYPE
  2
LONG3
 70
    64
  3
+++++++++++++++..+++++++++++++++
 72
    65
 73
     2
 40
40.0
 49
37.5
 49
-2.5
  0
LTYPE
  2
LONG4
 70
    64
  3
+++++++++++++++..+++++++++++++++
 72
    65
 73
     2
 40
80.0
 49
75.0
 49
-5.0
  0
LTYPE
  2
LONG5
 70
    64
  3
----------  --  ----------  --  
 72
    65
 73
     4
 40
60.0
 49
37.5
 49
-7.5
 49
7.5
 49
-7.5
  0
LTYPE
  2
dashed
 70
   64
  3
-------   -------------   ------
 72
   65
 73
    2
 40
7.5
 49
6
 49
-1.5
  0
LTYPE
  2
dashed_spaced
 70
   64
  3
----        --------        ----
 72
   65
 73
    2
 40
12
 49
6
 49
-6
  0
LTYPE
  2
long_dashed_dotted
 70
   64
  3
------------- --- --------------
 72
   65
 73
    4
 40
15.25
 49
12
 49
-1.5
 49
0.25
 49
-1.5
  0
LTYPE
  2
long_dashed_double-dotted
 70
   64
  3
----------- --- --- ------------
 72
   65
 73
    6
 40
17
 49
12
 49
-1.5
 49
0.25
 49
-1.5
 49
0.25
 49
-1.5
  0
LTYPE
  2
long_dashed_triplicate-dotted
 70
   64
  3
--------- --- --- --- ----------
 72
   65
 73
    8
 40
18.75
 49
12
 49
-1.5
 49
0.25
 49
-1.5
 49
0.25
 49
-1.5
 49
0.25
 49
-1.5
  0
LTYPE
  2
dotted
 70
   64
  3
   -       -       -       -    
 72
   65
 73
    2
 40
1.75
 49
0.25
 49
-1.5
  0
LTYPE
  2
chain
 70
   64
  3
-------------- -- --------------
 72
   65
 73
    4
 40
18.5
 49
12
 49
-1.5
 49
3.5
 49
-1.5
  0
LTYPE
  2
chain_double_dash
 70
   64
  3
------------ -- -- -------------
 72
   65
 73
    6
 40
23.5
 49
12
 49
-1.5
 49
3.5
 49
-1.5
 49
3.5
 49
-1.5
  0
LTYPE
  2
dashed_dotted
 70
   64
  3
-----------     -     ----------
 72
   65
 73
    4
 40
9.25
 49
6
 49
-1.5
 49
0.25
 49
-1.5
  0
LTYPE
  2
double-dashed_dotted
 70
   64
  3
------   -----------   -   -----
 72
   65
 73
    6
 40
16.75
 49
6
 49
-1.5
 49
6
 49
-1.5
 49
0.25
 49
-1.5
  0
LTYPE
  2
dashed_double-dotted
 70
   64
  3
---------    -    -    ---------
 72
   65
 73
    6
 40
11
 49
6
 49
-1.5
 49
0.25
 49
-1.5
 49
0.25
 49
-1.5
  0
LTYPE
  2
double-dashed_double-dotted
 70
   64
  3
-----   ---------   -   -   ----
 72
   65
 73
    8
 40
18.5
 49
6
 49
-1.5
 49
6
 49
-1.5
 49
0.25
 49
-1.5
 49
0.25
 49
-1.5
  0
LTYPE
  2
dashed_triplicate-dotted
 70
   64
  3
-------    -    -    -    ------
 72
   65
 73
    8
 40
12.75
 49
6
 49
-1.5
 49
0.25
 49
-1.5
 49
0.25
 49
-1.5
 49
0.25
 49
-1.5
  0
LTYPE
  2
double-dashed_triplicate-dotted
 70
   64
  3
-----  ---------  -  -  -  -----
 72
   65
 73
   10
 40
20.25
 49
6
 49
-1.5
 49
6
 49
-1.5
 49
0.25
 49
-1.5
 49
0.25
 49
-1.5
 49
0.25
 49
-1.5
  0
LTYPE
  2
undefined
 70
   64
  3
--------------------------------
 72
   65
 73
    0
 40
0
  0
ENDTAB
  0
TABLE
  2
STYLE
  5
3
100
AcDbSymbolTable
 70
     1
  0
STYLE
  5
10
100
AcDbSymbolTableRecord
100
AcDbTextStyleTableRecord
  2
STANDARD
 70
     0
 40
0.0
 41
1.0
 50
0.0
 71
     0
 42
0.2
  3
txt
  4
bigfont.shx
  0
STYLE
  5
26
100
AcDbSymbolTableRecord
100
AcDbTextStyleTableRecord
  2
TATEGAKI
 70
    68
 40
0.0
 41
1.0
 50
0.0
 71
     0
 42
1.0
  3
txt
  4
bigfont.shx
  0
ENDTAB
  0
TABLE
  2
LAYER
 70
    7
  0
LAYER
  2
_0-0_
 70
   64
 62
    7
  6
CONTINUOUS
  0
LAYER
  2
_1-0_
 70
   64
 62
    7
  6
CONTINUOUS
  0
LAYER
  2
_1-1_
 70
   64
 62
    7
  6
CONTINUOUS
  0
LAYER
  2
_1-2_
 70
   64
 62
    7
  6
CONTINUOUS
  0
LAYER
  2
_1-3_
 70
   64
 62
    7
  6
CONTINUOUS
  0
LAYER
  2
_1-4_
 70
   64
 62
    7
  6
CONTINUOUS
  0
LAYER
  2
ADD_LINE
 70
   64
 62
    7
  6
CONTINUOUS
  0
ENDTAB
  0
ENDSEC
  0
SECTION
  2
BLOCKS
  0
ENDSEC
  0
SECTION
  2
ENTITIES
  0
LINE
  8
_0-0_
  6
CONTINUOUS
 62
    5
 10
6.7567526327597136
 20
280.13513513513516
 11
406.75677325274495
 21
280.13513513513516
  0
LINE
  8
_0-0_
  6
CONTINUOUS
 62
    5
 10
406.75677325274495
 20
10.13513513513513
 11
6.7567526327597136
 21
10.13513513513513
  0
LINE
  8
_0-0_
  6
CONTINUOUS
 62
    5
 10
406.75677325274495
 20
30.135133073136615
 11
6.7567402607685949
 21
30.135133073136615
  0
LINE
  8
_0-0_
  6
CONTINUOUS
 62
    5
 10
371.75678150073907
 20
10.13513513513513
 11
371.75678150073907
 21
30.135133073136615
  0
LINE
  8
_0-0_
  6
CONTINUOUS
 62
    5
 10
137.02703939901818
 20
30.135133073136615
 11
137.02703939901818
 21
10.13513513513513
  0
LINE
  8
_0-0_
  6
CONTINUOUS
 62
    5
 10
214.86486486486487
 20
30.135133073136615
 11
214.86486486486487
 21
10.13513513513513
  0
LINE
  8
_0-0_
  6
CONTINUOUS
 62
    5
 10
137.02703939901818
 20
20.135134104135886
 11
214.86486486486487
 21
20.135134104135886
  0
LINE
  8
_0-0_
  6
CONTINUOUS
 62
    5
 10
396.48648648648651
 20
25.945945945945951
 11
383.91891891891896
 21
13.378379924877265
  0
LINE
  8
ADD_LINE
  6
DOT
 62
    7
 10
8.5792551813898967
 20
32.076335597682643
 11
8.5792551813898967
 21
17.492696401235207
  0
LINE
  8
_1-0_
  6
CONTINUOUS
 62
    7
 10
47.774753055057005
 20
110.45587488122889
 11
46.297438337996198
 21
113.73879510003168
  0
LINE
  8
_1-0_
  6
CONTINUOUS
 62
    7
 10
46.297438337996198
 20
113.73879510003168
 11
50.674661172402864
 21
115.70853980811867
  0
LINE
  8
_1-0_
  6
CONTINUOUS
 62
    7
 10
50.674661172402864
 20
115.70853980811867
 11
52.151975889463699
 21
112.42561958931589
  0
LINE
  8
_1-0_
  6
CONTINUOUS
 62
    7
 10
52.151975889463699
 20
112.42561958931589
 11
47.774753055057005
 21
110.45587488122889
  0
LINE
  8
_1-0_
  6
CONTINUOUS
 62
    7
 10
46.297438337996198
 20
113.73879510003168
 11
52.151975889463699
 21
112.42561958931589
  0
LINE
  8
_1-0_
  6
CONTINUOUS
 62
    7
 10
98.094573149809975
 20
137.04750267235011
 11
99.571887866870782
 21
133.76458245354729
  0
LINE
  8
_1-0_
  6
CONTINUOUS
 62
    7
 10
99.571887866870782
 20
133.76458245354729
 11
95.194652660472983
 21
131.79483774546031
  0
LINE
  8
_1-0_
  6
CONTINUOUS
 62
    7
 10
145.51448512721706
 20
158.38646553658151
 11
146.99179984427789
 21
155.10354531777872
  0
LINE
  8
_1-0_
  6
CONTINUOUS
 62
    7
 10
146.99179984427789
 20
155.10354531777872
 11
142.61456463788008
 21
153.13380060969172
  0
LINE
  8
_1-2_
  6
CONTINUOUS
 62
    3
 10
51.773219752956095
 20
113.46732887061867
 11
53.592768488703541
 21
114.0791485760663
  0
LINE
  8
ADD_LINE
  6
DOT
 62
    7
 10
50.112948031038854
 20
118.71159321552999
 11
49.940259778821797
 21
119.28651964342272
  0
LINE
  8
_1-2_
  6
CONTINUOUS
 62
    3
 10
49.940259778821797
 20
119.28651964342272
 11
50.112948031038854
 21
118.71159321552999
  0
LINE
  8
_1-2_
  6
CONTINUOUS
 62
    3
 10
50.976463524070937
 20
115.83688684411952
 11
51.775793127111484
 21
113.45967060810811
  0
LINE
  8
_1-2_
  6
CONTINUOUS
 62
    3
 10
49.940259778821797
 20
119.28651964342272
 11
51.836960251266902
 21
119.92429578626479
  0
LINE
  8
_1-2_
  6
CONTINUOUS
 62
    3
 10
53.592768488703541
 20
114.0791485760663
 11
51.836960251266902
 21
119.92429578626479
  0
LINE
  8
_1-0_
  6
CONTINUOUS
 62
    7
 10
98.094573149809975
 20
137.04749030035896
 11
99.571887866870782
 21
133.76457008155617
  0
LINE
  8
_1-0_
  6
CONTINUOUS
 62
    7
 10
99.571887866870782
 20
133.76457008155617
 11
95.194652660472983
 21
131.79482537346917
  0
LINE
  8
_1-2_
  6
CONTINUOUS
 62
    3
 10
99.184050688872475
 20
134.8029512972445
 11
100.9982052364865
 21
135.43061952333193
  0
LINE
  8
ADD_LINE
  6
DOT
 62
    7
 10
97.478101575696797
 20
140.03253008868245
 11
97.300365551097983
 21
140.60592238967484
  0
LINE
  8
_1-2_
  6
CONTINUOUS
 62
    3
 10
97.300365551097983
 20
140.60592238967484
 11
97.478101575696797
 21
140.03253008868245
  0
LINE
  8
_1-2_
  6
CONTINUOUS
 62
    3
 10
98.366657978779571
 20
137.16545723580026
 11
99.186698294974661
 21
134.79530540672511
  0
LINE
  8
_1-2_
  6
CONTINUOUS
 62
    3
 10
42.723132984058282
 20
117.06460901208827
 11
43.479519405880495
 21
117.32632611248945
  0
LINE
  8
_1-2_
  6
CONTINUOUS
 62
    3
 10
44.641818484744505
 20
118.57719627586572
 11
98.366657978779571
 21
137.16545723580026
  0
LINE
  8
_1-2_
  6
CONTINUOUS
 62
    3
 10
43.617034087309975
 20
116.88269125448691
 11
43.479519405880495
 21
117.32632611248945
  0
LINE
  8
_1-2_
  6
CONTINUOUS
 62
    3
 10
42.864482982738593
 20
116.60851555901606
 11
42.723132984058282
 21
117.06460901208827
  0
LINE
  8
_1-2_
  6
CONTINUOUS
 62
    3
 10
44.346226872624584
 20
116.91645441828548
 11
43.87348071948901
 21
116.75287195154139
  0
LINE
  8
_1-2_
  6
CONTINUOUS
 62
    3
 10
44.471864442567579
 20
117.16466130437078
 11
44.264881030933282
 21
117.83255087362754
  0
LINE
  8
_1-2_
  6
CONTINUOUS
 62
    3
 10
42.266062143686668
 20
116.19672620618667
 11
42.738833040804479
 21
116.36030867293076
  0
LINE
  8
_1-2_
  6
CONTINUOUS
 62
    3
 10
97.478101575696797
 20
140.03253008868245
 11
40.746002197265625
 21
120.40377230257602
  0
LINE
  8
_1-2_
  6
CONTINUOUS
 62
    3
 10
42.009627883498752
 20
116.32653313714106
 11
40.746002197265625
 21
120.40377230257602
  0
LINE
  8
_1-2_
  6
CONTINUOUS
 62
    3
 10
100.9982052364865
 20
135.43061952333193
 11
99.191449139569258
 21
141.26022751266893
  0
LINE
  8
_1-2_
  6
CONTINUOUS
 62
    7
 10
40.746002197265625
 20
120.40377230257602
 11
36.03759353225297
 21
134.01224497202281
  0
LINE
  8
_1-0_
  6
CONTINUOUS
 62
    7
 10
95.194652660472983
 20
131.79483774546031
 11
93.734485523120782
 21
135.03968934755068
  0
LINE
  8
_1-0_
  6
CONTINUOUS
 62
    7
 10
95.194652660472983
 20
131.79482537346917
 11
93.734460779138516
 21
135.03967697555956
  0
LINE
  8
_1-0_
  6
CONTINUOUS
 62
    7
 10
93.734485523120782
 20
135.03968934755068
 11
99.571887866870782
 21
133.76458245354729
  0
LINE
  8
_1-2_
  6
CONTINUOUS
 62
    7
 10
51.836960251266902
 20
119.92429578626479
 11
51.492895177892734
 21
120.94759554476352
  0
LINE
  8
_1-0_
  6
CONTINUOUS
 62
    7
 10
49.940259778821797
 20
119.28651964342272
 11
49.634448902027032
 21
120.30459842166385
  0
LINE
  8
_1-0_
  6
CONTINUOUS
 62
    7
 10
145.51448512721706
 20
158.38646553658151
 11
146.99179984427789
 21
155.10354531777872
  0
LINE
  8
_1-0_
  6
CONTINUOUS
 62
    7
 10
146.99179984427789
 20
155.10354531777872
 11
142.61456463788008
 21
153.13380060969172
  0
LINE
  8
_1-0_
  6
CONTINUOUS
 62
    7
 10
145.51448512721706
 20
158.38645316459039
 11
146.99179984427789
 21
155.10353294578761
  0
LINE
  8
_1-0_
  6
CONTINUOUS
 62
    7
 10
146.99179984427789
 20
155.10353294578761
 11
142.61456463788008
 21
153.1337882377006
  0
LINE
  8
_1-2_
  6
CONTINUOUS
 62
    3
 10
146.60396266627956
 20
156.14191416147594
 11
148.41811721389359
 21
156.76958238756336
  0
LINE
  8
ADD_LINE
  6
DOT
 62
    7
 10
144.89801355310388
 20
161.37149295291385
 11
144.72027752850508
 21
161.94488525390625
  0
LINE
  8
_1-2_
  6
CONTINUOUS
 62
    3
 10
144.72027752850508
 20
161.94488525390625
 11
144.89801355310388
 21
161.37149295291385
  0
LINE
  8
_1-2_
  6
CONTINUOUS
 62
    3
 10
145.78656995618667
 20
158.50442010003169
 11
146.60661027238177
 21
156.13426827095651
  0
LINE
  8
_1-2_
  6
CONTINUOUS
 62
    3
 10
90.143044961465378
 20
138.40357187631969
 11
90.899443755278725
 21
138.66528897672086
  0
LINE
  8
_1-2_
  6
CONTINUOUS
 62
    3
 10
92.061718090160483
 20
139.91615914009714
 11
145.78656995618667
 21
158.50442010003169
  0
LINE
  8
_1-2_
  6
CONTINUOUS
 62
    3
 10
91.036946064717071
 20
138.22165411871833
 11
90.899443755278725
 21
138.66528897672086
  0
LINE
  8
_1-2_
  6
CONTINUOUS
 62
    3
 10
90.284407332136823
 20
137.94747842324747
 11
90.143044961465378
 21
138.40357187631969
  0
LINE
  8
_1-2_
  6
CONTINUOUS
 62
    3
 10
91.766126478040547
 20
138.2554172825169
 11
91.29339269689612
 21
138.09183481577281
  0
LINE
  8
_1-2_
  6
CONTINUOUS
 62
    3
 10
91.891776419974661
 20
138.50362416860222
 11
91.684793008340378
 21
139.17151373785896
  0
LINE
  8
_1-2_
  6
CONTINUOUS
 62
    3
 10
89.68597412109375
 20
137.53568907041807
 11
90.158757390202709
 21
137.69927153716216
  0
LINE
  8
_1-2_
  6
CONTINUOUS
 62
    3
 10
144.89801355310388
 20
161.37149295291385
 11
88.165926546663854
 21
141.74273516680745
  0
LINE
  8
_1-2_
  6
CONTINUOUS
 62
    3
 10
89.429552232896967
 20
137.66549600137247
 11
88.165926546663854
 21
141.74273516680745
  0
LINE
  8
_1-2_
  6
CONTINUOUS
 62
    3
 10
148.41811721389359
 20
156.76958238756336
 11
146.61136111697635
 21
162.59919037690034
  0
LINE
  8
_1-2_
  6
CONTINUOUS
 62
    7
 10
88.165926546663854
 20
141.74273516680745
 11
83.457493137668919
 21
155.35120783625422
  0
LINE
  8
_1-0_
  6
CONTINUOUS
 62
    7
 10
142.61456463788008
 20
153.13380060969172
 11
141.15439750052789
 21
156.37865221178211
  0
LINE
  8
_1-0_
  6
CONTINUOUS
 62
    7
 10
142.61456463788008
 20
153.1337882377006
 11
141.15437275654563
 21
156.37863983979096
  0
LINE
  8
_1-0_
  6
CONTINUOUS
 62
    7
 10
141.15437275654563
 20
156.37863983979096
 11
145.48590582770271
 21
158.37343782991977
  0
LINE
  8
_1-0_
  6
CONTINUOUS
 62
    7
 10
141.15439750052789
 20
156.37865221178211
 11
146.99179984427789
 21
155.10354531777872
  0
LINE
  8
_1-0_
  6
CONTINUOUS
 62
    7
 10
194.41173656566724
 20
176.44250818201016
 11
190.03450135926943
 21
174.47276347392315
  0
LINE
  8
_1-2_
  6
CONTINUOUS
 62
    3
 10
194.02389938766893
 20
177.48086465371622
 11
195.83805393528294
 21
178.10854525179477
  0
LINE
  8
ADD_LINE
  6
DOT
 62
    7
 10
192.31795027449326
 20
182.71045581714529
 11
192.14021424989443
 21
183.28384811813768
  0
LINE
  8
_1-2_
  6
CONTINUOUS
 62
    3
 10
192.14021424989443
 20
183.28384811813768
 11
192.31795027449326
 21
182.71045581714529
  0
LINE
  8
_1-2_
  6
CONTINUOUS
 62
    3
 10
193.20650667757602
 20
179.84337059227198
 11
194.02654699377112
 21
177.47324350717906
  0
LINE
  8
_1-2_
  6
CONTINUOUS
 62
    3
 10
137.56298168285474
 20
159.74253474055109
 11
138.31935573268581
 21
160.00425184095229
  0
LINE
  8
_1-2_
  6
CONTINUOUS
 62
    3
 10
139.48167955553211
 20
161.25512200432857
 11
193.20650667757602
 21
179.84337059227198
  0
LINE
  8
_1-2_
  6
CONTINUOUS
 62
    3
 10
138.45688278610643
 20
159.56061698294977
 11
138.31935573268581
 21
160.00425184095229
  0
LINE
  8
_1-2_
  6
CONTINUOUS
 62
    3
 10
137.70431930954393
 20
159.28644128747891
 11
137.56298168285474
 21
159.74253474055109
  0
LINE
  8
_1-2_
  6
CONTINUOUS
 62
    3
 10
139.18608794341216
 20
159.59438014674831
 11
138.71332941828547
 21
159.43079768000422
  0
LINE
  8
_1-2_
  6
CONTINUOUS
 62
    3
 10
139.31171314136404
 20
159.84258703283362
 11
139.10472972972974
 21
160.51047660209039
  0
LINE
  8
_1-2_
  6
CONTINUOUS
 62
    3
 10
137.10591084248313
 20
158.87465193464951
 11
137.57866936760979
 21
159.03823440139359
  0
LINE
  8
_1-2_
  6
CONTINUOUS
 62
    3
 10
192.31795027449326
 20
182.71045581714529
 11
135.58583852407097
 21
163.08169803103885
  0
LINE
  8
_1-2_
  6
CONTINUOUS
 62
    3
 10
136.84946421030406
 20
159.00445886560388
 11
135.58583852407097
 21
163.08169803103885
  0
LINE
  8
_1-2_
  6
CONTINUOUS
 62
    3
 10
192.14021424989443
 20
183.28384811813768
 11
194.03129783836573
 21
183.93815324113177
  0
LINE
  8
_1-2_
  6
CONTINUOUS
 62
    3
 10
195.83805393528294
 20
178.10854525179477
 11
194.03129783836573
 21
183.93815324113177
  0
LINE
  8
_1-2_
  6
CONTINUOUS
 62
    7
 10
135.58583852407097
 20
163.08169803103885
 11
130.87745460304055
 21
176.69017070048565
  0
LINE
  8
_1-2_
  6
CONTINUOUS
 62
    7
 10
189.51905946473818
 20
196.97961755701016
 11
130.87745460304055
 21
176.69017070048565
  0
LINE
  8
_1-2_
  6
CONTINUOUS
 62
    7
 10
194.03129783836573
 20
183.93815324113177
 11
189.51905946473818
 21
196.97961755701016
  0
LINE
  8
_1-2_
  6
CONTINUOUS
 62
    7
 10
193.49816399651607
 20
185.65840437605576
 11
134.80110787056589
 21
165.34978093327703
  0
LINE
  8
_1-0_
  6
CONTINUOUS
 62
    7
 10
190.03450135926943
 20
174.47276347392315
 11
188.57433422191724
 21
177.71761507601352
  0
LINE
  8
_1-2_
  6
CONTINUOUS
 62
    7
 10
84.981524493243242
 20
150.9463830896326
 11
36.03759353225297
 21
134.01224497202281
  0
LINE
  8
_1-2_
  6
CONTINUOUS
 62
    7
 10
99.191449139569258
 20
141.26022751266893
 11
98.84451376425254
 21
142.26292790593328
  0
LINE
  8
_1-2_
  6
CONTINUOUS
 62
    3
 10
97.300365551097983
 20
140.60592238967484
 11
99.191473883551524
 21
141.26022751266893
  0
LINE
  8
ADD_LINE
  6
DOT
 62
    7
 10
100.9982052364865
 20
135.43061952333193
 11
99.191473883551524
 21
141.26022751266893
  0
LINE
  8
_1-2_
  6
CONTINUOUS
 62
    7
 10
97.300365551097983
 20
140.60592238967484
 11
96.986092232369089
 21
141.61994315482477
  0
LINE
  8
_1-2_
  6
CONTINUOUS
 62
    7
 10
88.835622426625847
 20
139.58190505569047
 11
39.961271543760574
 21
122.67185520481419
  0
LINE
  8
ADD_LINE
  6
DOT
 62
    7
 10
148.41811721389359
 20
156.76958238756336
 11
146.61138586095862
 21
162.59919037690034
  0
LINE
  8
_1-2_
  6
CONTINUOUS
 62
    3
 10
144.72027752850508
 20
161.94488525390625
 11
146.61138586095862
 21
162.59919037690034
  0
LINE
  8
_1-2_
  6
CONTINUOUS
 62
    7
 10
132.4014612146326
 20
172.28534595386404
 11
83.457493137668919
 21
155.35120783625422
  0
LINE
  8
_1-2_
  6
CONTINUOUS
 62
    7
 10
146.61136111697635
 20
162.59919037690034
 11
146.26442574165964
 21
163.60189077016472
  0
LINE
  8
_1-2_
  6
CONTINUOUS
 62
    7
 10
136.25553440403294
 20
160.92088029191302
 11
87.38119589315879
 21
144.01081806904563
  0
LINE
  8
_1-0_
  6
CONTINUOUS
 62
    7
 10
188.57430947793497
 20
177.71761507601352
 11
192.93434761665964
 21
179.72553974873313
  0
LINE
  8
_1-0_
  6
CONTINUOUS
 62
    7
 10
194.41171182168497
 20
176.44250818201016
 11
190.05669671135982
 21
174.4827600427576
  0
LINE
  8
_1-0_
  6
CONTINUOUS
 62
    7
 10
190.05669671135982
 20
174.4827600427576
 11
190.03447661528716
 21
174.47276347392315
  0
LINE
  8
_1-0_
  6
CONTINUOUS
 62
    7
 10
93.734460779138516
 20
135.03967697555956
 11
98.094548405827709
 21
137.04761402027029
  0
LINE
  8
_1-3_
  6
CONTINUOUS
 62
    7
 10
132.13404062631969
 20
54.28045324377112
 11
125.9810040448163
 21
54.28045324377112
  0
LINE
  8
_1-3_
  6
CONTINUOUS
 62
    7
 10
132.13404062631969
 20
60.451317864495365
 11
123.73499277475719
 21
60.451317864495365
  0
LINE
  8
_1-3_
  6
CONTINUOUS
 62
    7
 10
132.13404062631969
 20
66.393634693042657
 11
121.572170773068
 21
66.393634693042657
  0
LINE
  8
_1-3_
  6
CONTINUOUS
 62
    7
 10
74.27215576171875
 20
141.42857319599875
 11
64.12578685863599
 21
169.30545291385135
  0
LINE
  8
_1-3_
  6
CONTINUOUS
 62
    7
 10
64.12578685863599
 20
169.30545291385135
 11
62.851917163745782
 21
169.30545291385135
  0
LINE
  8
_1-0_
  6
CONTINUOUS
 62
    7
 10
26.702344739759297
 20
100.97328804634714
 11
190.0594185494088
 21
174.48397249788852
  0
LINE
  8
_1-2_
  6
CONTINUOUS
 62
    3
 10
26.702344739759297
 20
107.67476262273016
 11
50.976463524070937
 21
115.83688684411952
  0
LINE
  8
_1-2_
  6
CONTINUOUS
 62
    3
 10
50.112948031038854
 20
118.71159321552999
 11
26.702344739759297
 21
110.83982725401184
  0
LINE
  8
_1-2_
  6
CONTINUOUS
 62
    7
 10
41.412493731524478
 20
118.31812678156673
 11
26.702344739759297
 21
113.37186658704604
  0
LINE
  8
_1-2_
  6
CONTINUOUS
 62
    7
 10
37.67169849292651
 20
129.72050022434544
 11
26.702344739759297
 21
126.0320756242082
  0
LINE
  8
ADD_LINE
  6
DOT
 62
    7
 10
197.54670014252534
 20
181.17630417282518
 11
197.54670014252534
 21
149.43884359823693
  0
LINE
  8
ADD_LINE
  6
DOT
 62
    7
 10
197.54670014252534
 20
149.43884359823693
 11
197.54670014252534
 21
107.83705840239654
  0
LINE
  8
_1-0_
  6
CONTINUOUS
 62
    7
 10
26.702344739759297
 20
99.218754123997044
 11
197.54670014252534
 21
176.09871529244089
  0
LINE
  8
_1-0_
  6
CONTINUOUS
 62
    7
 10
26.702344739759297
 20
100.31534555796031
 11
197.54670014252534
 21
177.19529435441302
  0
LINE
  8
_1-0_
  6
CONTINUOUS
 62
    7
 10
190.0594185494088
 20
174.48397249788852
 11
197.54670014252534
 21
177.85323684279984
  0
LINE
  8
_1-0_
  6
CONTINUOUS
 62
    7
 10
347.31865960198479
 20
110.45587488122889
 11
348.79597431904563
 21
113.73879510003168
  0
LINE
  8
_1-0_
  6
CONTINUOUS
 62
    7
 10
348.79597431904563
 20
113.73879510003168
 11
344.41873911264781
 21
115.70853980811867
  0
LINE
  8
_1-0_
  6
CONTINUOUS
 62
    7
 10
344.41873911264781
 20
115.70853980811867
 11
342.94142439558703
 21
112.42561958931589
  0
LINE
  8
_1-0_
  6
CONTINUOUS
 62
    7
 10
342.94142439558703
 20
112.42561958931589
 11
347.31865960198479
 21
110.45587488122889
  0
LINE
  8
_1-0_
  6
CONTINUOUS
 62
    7
 10
348.79597431904563
 20
113.73879510003168
 11
342.94142439558703
 21
112.42561958931589
  0
LINE
  8
_1-0_
  6
CONTINUOUS
 62
    7
 10
296.99882713524073
 20
137.04750267235011
 11
295.5215124181799
 21
133.76458245354729
  0
LINE
  8
_1-0_
  6
CONTINUOUS
 62
    7
 10
295.5215124181799
 20
133.76458245354729
 11
299.89874762457771
 21
131.79483774546031
  0
LINE
  8
_1-0_
  6
CONTINUOUS
 62
    7
 10
249.57891515783362
 20
158.38646553658151
 11
248.10160044077281
 21
155.10354531777872
  0
LINE
  8
_1-0_
  6
CONTINUOUS
 62
    7
 10
248.10160044077281
 20
155.10354531777872
 11
252.47883564717063
 21
153.13380060969172
  0
LINE
  8
_1-2_
  6
CONTINUOUS
 62
    3
 10
343.32018053209464
 20
113.46732887061867
 11
341.50063179634714
 21
114.0791485760663
  0
LINE
  8
ADD_LINE
  6
DOT
 62
    7
 10
344.98045225401182
 20
118.71159321552999
 11
345.15314050622891
 21
119.28651964342272
  0
LINE
  8
_1-2_
  6
CONTINUOUS
 62
    3
 10
345.15314050622891
 20
119.28651964342272
 11
344.98045225401182
 21
118.71159321552999
  0
LINE
  8
_1-2_
  6
CONTINUOUS
 62
    3
 10
344.11693676097974
 20
115.83688684411952
 11
343.31760715793922
 21
113.45967060810811
  0
LINE
  8
_1-2_
  6
CONTINUOUS
 62
    3
 10
345.15314050622891
 20
119.28651964342272
 11
343.2564400337838
 21
119.92429578626479
  0
LINE
  8
_1-2_
  6
CONTINUOUS
 62
    3
 10
341.50063179634714
 20
114.0791485760663
 11
343.2564400337838
 21
119.92429578626479
  0
LINE
  8
_1-0_
  6
CONTINUOUS
 62
    7
 10
296.99882713524073
 20
137.04749030035896
 11
295.5215124181799
 21
133.76457008155617
  0
LINE
  8
_1-0_
  6
CONTINUOUS
 62
    7
 10
295.5215124181799
 20
133.76457008155617
 11
299.89874762457771
 21
131.79482537346917
  0
LINE
  8
_1-2_
  6
CONTINUOUS
 62
    3
 10
295.90934959617823
 20
134.8029512972445
 11
294.09519504856422
 21
135.43061952333193
  0
LINE
  8
ADD_LINE
  6
DOT
 62
    7
 10
297.61529870935391
 20
140.03253008868245
 11
297.79303473395271
 21
140.60592238967484
  0
LINE
  8
_1-2_
  6
CONTINUOUS
 62
    3
 10
297.79303473395271
 20
140.60592238967484
 11
297.61529870935391
 21
140.03253008868245
  0
LINE
  8
_1-2_
  6
CONTINUOUS
 62
    3
 10
296.72674230627115
 20
137.16545723580026
 11
295.90670199007604
 21
134.79530540672511
  0
LINE
  8
_1-2_
  6
CONTINUOUS
 62
    3
 10
352.3702673009924
 20
117.06460901208827
 11
351.61386850717906
 21
117.32632611248945
  0
LINE
  8
_1-2_
  6
CONTINUOUS
 62
    3
 10
350.45159417229729
 20
118.57719627586572
 11
296.72674230627115
 21
137.16545723580026
  0
LINE
  8
_1-2_
  6
CONTINUOUS
 62
    3
 10
351.47636619774073
 20
116.88269125448691
 11
351.61386850717906
 21
117.32632611248945
  0
LINE
  8
_1-2_
  6
CONTINUOUS
 62
    3
 10
352.22890493032099
 20
116.60851555901606
 11
352.3702673009924
 21
117.06460901208827
  0
LINE
  8
_1-2_
  6
CONTINUOUS
 62
    3
 10
350.74718578441724
 20
116.91645441828548
 11
351.21991956556167
 21
116.75287195154139
  0
LINE
  8
_1-2_
  6
CONTINUOUS
 62
    3
 10
350.62153584248313
 20
117.16466130437078
 11
350.8285192541174
 21
117.83255087362754
  0
LINE
  8
_1-2_
  6
CONTINUOUS
 62
    3
 10
352.82733814136407
 20
116.19672620618667
 11
352.35455487225511
 21
116.36030867293076
  0
LINE
  8
_1-2_
  6
CONTINUOUS
 62
    3
 10
297.61529870935391
 20
140.03253008868245
 11
354.34738571579396
 21
120.40377230257602
  0
LINE
  8
_1-2_
  6
CONTINUOUS
 62
    3
 10
353.08376002956084
 20
116.32653313714106
 11
354.34738571579396
 21
120.40377230257602
  0
LINE
  8
_1-2_
  6
CONTINUOUS
 62
    3
 10
294.09519504856422
 20
135.43061952333193
 11
295.90195114548146
 21
141.26022751266893
  0
LINE
  8
_1-2_
  6
CONTINUOUS
 62
    7
 10
354.34738571579396
 20
120.40377230257602
 11
359.05581912478885
 21
134.01224497202281
  0
LINE
  8
_1-0_
  6
CONTINUOUS
 62
    7
 10
299.89874762457771
 20
131.79483774546031
 11
301.3589147619299
 21
135.03968934755068
  0
LINE
  8
_1-0_
  6
CONTINUOUS
 62
    7
 10
299.89874762457771
 20
131.79482537346917
 11
301.35893950591219
 21
135.03967697555956
  0
LINE
  8
_1-0_
  6
CONTINUOUS
 62
    7
 10
301.3589147619299
 20
135.03968934755068
 11
295.5215124181799
 21
133.76458245354729
  0
LINE
  8
_1-2_
  6
CONTINUOUS
 62
    7
 10
343.2564400337838
 20
119.92429578626479
 11
343.60050510715797
 21
120.94759554476352
  0
LINE
  8
_1-0_
  6
CONTINUOUS
 62
    7
 10
345.15314050622891
 20
119.28651964342272
 11
345.45895138302365
 21
120.30459842166385
  0
LINE
  8
_1-0_
  6
CONTINUOUS
 62
    7
 10
249.57891515783362
 20
158.38646553658151
 11
248.10160044077281
 21
155.10354531777872
  0
LINE
  8
_1-0_
  6
CONTINUOUS
 62
    7
 10
248.10160044077281
 20
155.10354531777872
 11
252.47883564717063
 21
153.13380060969172
  0
LINE
  8
_1-0_
  6
CONTINUOUS
 62
    7
 10
249.57891515783362
 20
158.38645316459039
 11
248.10160044077281
 21
155.10353294578761
  0
LINE
  8
_1-0_
  6
CONTINUOUS
 62
    7
 10
248.10160044077281
 20
155.10353294578761
 11
252.47883564717063
 21
153.1337882377006
  0
LINE
  8
_1-2_
  6
CONTINUOUS
 62
    3
 10
248.48943761877112
 20
156.14191416147594
 11
246.67528307115711
 21
156.76958238756336
  0
LINE
  8
ADD_LINE
  6
DOT
 62
    7
 10
250.1953867319468
 20
161.37149295291385
 11
250.37312275654563
 21
161.94488525390625
  0
LINE
  8
_1-2_
  6
CONTINUOUS
 62
    3
 10
250.37312275654563
 20
161.94488525390625
 11
250.1953867319468
 21
161.37149295291385
  0
LINE
  8
_1-2_
  6
CONTINUOUS
 62
    3
 10
249.30683032886404
 20
158.50442010003169
 11
248.48679001266893
 21
156.13426827095651
  0
LINE
  8
_1-2_
  6
CONTINUOUS
 62
    3
 10
304.95035532358531
 20
138.40357187631969
 11
304.19395652977198
 21
138.66528897672086
  0
LINE
  8
_1-2_
  6
CONTINUOUS
 62
    3
 10
303.03168219489021
 20
139.91615914009714
 11
249.30683032886404
 21
158.50442010003169
  0
LINE
  8
_1-2_
  6
CONTINUOUS
 62
    3
 10
304.05645422033365
 20
138.22165411871833
 11
304.19395652977198
 21
138.66528897672086
  0
LINE
  8
_1-2_
  6
CONTINUOUS
 62
    3
 10
304.80899295291385
 20
137.94747842324747
 11
304.95035532358531
 21
138.40357187631969
  0
LINE
  8
_1-2_
  6
CONTINUOUS
 62
    3
 10
303.32727380701016
 20
138.2554172825169
 11
303.80000758815459
 21
138.09183481577281
  0
LINE
  8
_1-2_
  6
CONTINUOUS
 62
    3
 10
303.20162386507604
 20
138.50362416860222
 11
303.40860727671031
 21
139.17151373785896
  0
LINE
  8
_1-2_
  6
CONTINUOUS
 62
    3
 10
305.40742616395693
 20
137.53568907041807
 11
304.93464289484797
 21
137.69927153716216
  0
LINE
  8
_1-2_
  6
CONTINUOUS
 62
    3
 10
250.1953867319468
 20
161.37149295291385
 11
306.92747373838682
 21
141.74273516680745
  0
LINE
  8
_1-2_
  6
CONTINUOUS
 62
    3
 10
305.66384805215375
 20
137.66549600137247
 11
306.92747373838682
 21
141.74273516680745
  0
LINE
  8
_1-2_
  6
CONTINUOUS
 62
    3
 10
246.67528307115711
 20
156.76958238756336
 11
248.48203916807435
 21
162.59919037690034
  0
LINE
  8
_1-2_
  6
CONTINUOUS
 62
    7
 10
306.92747373838682
 20
141.74273516680745
 11
311.63590714738177
 21
155.35120783625422
  0
LINE
  8
ADD_LINE
  6
DOT
 62
    7
 10
248.10160044077281
 20
155.10354531777872
 11
248.21475467166385
 21
142.13641192461995
  0
LINE
  8
_1-0_
  6
CONTINUOUS
 62
    7
 10
252.47883564717063
 20
153.13380060969172
 11
253.93900278452281
 21
156.37865221178211
  0
LINE
  8
_1-0_
  6
CONTINUOUS
 62
    7
 10
252.47883564717063
 20
153.1337882377006
 11
253.93902752850508
 21
156.37863983979096
  0
LINE
  8
_1-0_
  6
CONTINUOUS
 62
    7
 10
253.93902752850508
 20
156.37863983979096
 11
249.607494457348
 21
158.37343782991977
  0
LINE
  8
_1-0_
  6
CONTINUOUS
 62
    7
 10
253.93900278452281
 20
156.37865221178211
 11
248.10160044077281
 21
155.10354531777872
  0
LINE
  8
_1-0_
  6
CONTINUOUS
 62
    7
 10
200.68166371938347
 20
176.44250818201016
 11
205.05889892578125
 21
174.47276347392315
  0
LINE
  8
_1-2_
  6
CONTINUOUS
 62
    3
 10
201.06950089738177
 20
177.48086465371622
 11
199.25534634976773
 21
178.10854525179477
  0
LINE
  8
ADD_LINE
  6
DOT
 62
    7
 10
202.77545001055745
 20
182.71045581714529
 11
202.95318603515625
 21
183.28384811813768
  0
LINE
  8
_1-2_
  6
CONTINUOUS
 62
    3
 10
202.95318603515625
 20
183.28384811813768
 11
202.77545001055745
 21
182.71045581714529
  0
LINE
  8
_1-2_
  6
CONTINUOUS
 62
    3
 10
201.88689360747466
 20
179.84337059227198
 11
201.06685329127959
 21
177.47324350717906
  0
LINE
  8
_1-2_
  6
CONTINUOUS
 62
    3
 10
257.53041860219594
 20
159.74253474055109
 11
256.7740445523649
 21
160.00425184095229
  0
LINE
  8
_1-2_
  6
CONTINUOUS
 62
    3
 10
255.61172072951859
 20
161.25512200432857
 11
201.88689360747466
 21
179.84337059227198
  0
LINE
  8
_1-2_
  6
CONTINUOUS
 62
    3
 10
256.63651749894427
 20
159.56061698294977
 11
256.7740445523649
 21
160.00425184095229
  0
LINE
  8
_1-2_
  6
CONTINUOUS
 62
    3
 10
257.38908097550677
 20
159.28644128747891
 11
257.53041860219594
 21
159.74253474055109
  0
LINE
  8
_1-2_
  6
CONTINUOUS
 62
    3
 10
255.90731234163852
 20
159.59438014674831
 11
256.38007086676521
 21
159.43079768000422
  0
LINE
  8
_1-2_
  6
CONTINUOUS
 62
    3
 10
255.78168714368667
 20
159.84258703283362
 11
255.98867055532097
 21
160.51047660209039
  0
LINE
  8
_1-2_
  6
CONTINUOUS
 62
    3
 10
257.98748944256761
 20
158.87465193464951
 11
257.51473091744089
 21
159.03823440139359
  0
LINE
  8
_1-2_
  6
CONTINUOUS
 62
    3
 10
202.77545001055745
 20
182.71045581714529
 11
259.50756176097974
 21
163.08169803103885
  0
LINE
  8
_1-2_
  6
CONTINUOUS
 62
    3
 10
258.24393607474661
 20
159.00445886560388
 11
259.50756176097974
 21
163.08169803103885
  0
LINE
  8
_1-2_
  6
CONTINUOUS
 62
    3
 10
202.95318603515625
 20
183.28384811813768
 11
201.06210244668497
 21
183.93815324113177
  0
LINE
  8
_1-2_
  6
CONTINUOUS
 62
    3
 10
199.25534634976773
 20
178.10854525179477
 11
201.06210244668497
 21
183.93815324113177
  0
LINE
  8
_1-2_
  6
CONTINUOUS
 62
    7
 10
259.50756176097974
 20
163.08169803103885
 11
264.21594568201016
 21
176.69017070048565
  0
LINE
  8
_1-2_
  6
CONTINUOUS
 62
    7
 10
205.5743408203125
 20
196.97961755701016
 11
264.21594568201016
 21
176.69017070048565
  0
LINE
  8
_1-2_
  6
CONTINUOUS
 62
    7
 10
201.06210244668497
 20
183.93815324113177
 11
205.5743408203125
 21
196.97961755701016
  0
LINE
  8
_1-2_
  6
CONTINUOUS
 62
    7
 10
201.59523628853464
 20
185.65840437605576
 11
260.29229241448479
 21
165.34978093327703
  0
LINE
  8
_1-2_
  6
CONTINUOUS
 62
    7
 10
310.11187579180745
 20
150.9463830896326
 11
359.05581912478885
 21
134.01224497202281
  0
LINE
  8
_1-2_
  6
CONTINUOUS
 62
    7
 10
295.90195114548146
 20
141.26022751266893
 11
296.24888652079818
 21
142.26292790593328
  0
LINE
  8
_1-2_
  6
CONTINUOUS
 62
    3
 10
297.79303473395271
 20
140.60592238967484
 11
295.90192640149917
 21
141.26022751266893
  0
LINE
  8
ADD_LINE
  6
DOT
 62
    7
 10
294.09519504856422
 20
135.43061952333193
 11
295.90192640149917
 21
141.26022751266893
  0
LINE
  8
_1-2_
  6
CONTINUOUS
 62
    7
 10
297.79303473395271
 20
140.60592238967484
 11
298.10730805268162
 21
141.61994315482477
  0
LINE
  8
_1-2_
  6
CONTINUOUS
 62
    7
 10
306.25777785842484
 20
139.58190505569047
 11
355.13211636929901
 21
122.67185520481419
  0
LINE
  8
ADD_LINE
  6
DOT
 62
    7
 10
246.67528307115711
 20
156.76958238756336
 11
248.48201442409209
 21
162.59919037690034
  0
LINE
  8
_1-2_
  6
CONTINUOUS
 62
    3
 10
250.37312275654563
 20
161.94488525390625
 11
248.48201442409209
 21
162.59919037690034
  0
LINE
  8
_1-2_
  6
CONTINUOUS
 62
    7
 10
262.69193907041807
 20
172.28534595386404
 11
311.63590714738177
 21
155.35120783625422
  0
LINE
  8
_1-2_
  6
CONTINUOUS
 62
    7
 10
248.48203916807435
 20
162.59919037690034
 11
248.82897454339107
 21
163.60189077016472
  0
LINE
  8
_1-2_
  6
CONTINUOUS
 62
    7
 10
258.83786588101776
 20
160.92088029191302
 11
307.71220439189193
 21
144.01081806904563
  0
LINE
  8
_1-0_
  6
CONTINUOUS
 62
    7
 10
206.51909080711573
 20
177.71761507601352
 11
202.15905266839107
 21
179.72553974873313
  0
LINE
  8
_1-0_
  6
CONTINUOUS
 62
    7
 10
200.68168846336573
 20
176.44250818201016
 11
205.03670357369089
 21
174.4827600427576
  0
LINE
  8
_1-0_
  6
CONTINUOUS
 62
    7
 10
205.03670357369089
 20
174.4827600427576
 11
205.05892366976352
 21
174.47276347392315
  0
LINE
  8
_1-0_
  6
CONTINUOUS
 62
    7
 10
301.35893950591219
 20
135.03967697555956
 11
296.99885187922297
 21
137.04761402027029
  0
LINE
  8
_1-3_
  6
CONTINUOUS
 62
    7
 10
320.82124452333193
 20
141.42857319599875
 11
330.96761342641469
 21
169.30545291385135
  0
LINE
  8
_1-3_
  6
CONTINUOUS
 62
    7
 10
330.96761342641469
 20
169.30545291385135
 11
332.2414831213049
 21
169.30545291385135
  0
LINE
  8
_1-0_
  6
CONTINUOUS
 62
    7
 10
368.39105554529141
 20
100.97328804634714
 11
205.0339817356419
 21
174.48397249788852
  0
LINE
  8
_1-2_
  6
CONTINUOUS
 62
    3
 10
368.39105554529141
 20
107.67476262273016
 11
344.11693676097974
 21
115.83688684411952
  0
LINE
  8
_1-2_
  6
CONTINUOUS
 62
    3
 10
344.98045225401182
 20
118.71159321552999
 11
368.39105554529141
 21
110.83982725401184
  0
LINE
  8
_1-2_
  6
CONTINUOUS
 62
    7
 10
353.6809065535262
 20
118.31812678156673
 11
368.39105554529141
 21
113.37186658704604
  0
LINE
  8
_1-2_
  6
CONTINUOUS
 62
    7
 10
357.42170179212417
 20
129.72050022434544
 11
368.39105554529141
 21
126.0320756242082
  0
LINE
  8
ADD_LINE
  6
DOT
 62
    7
 10
197.54670014252534
 20
181.17630417282518
 11
197.54670014252534
 21
149.43884359823693
  0
LINE
  8
ADD_LINE
  6
DOT
 62
    7
 10
197.54670014252534
 20
149.43884359823693
 11
197.54670014252534
 21
107.83705840239654
  0
LINE
  8
_1-0_
  6
CONTINUOUS
 62
    7
 10
368.39105554529141
 20
99.218754123997044
 11
197.54670014252534
 21
176.09871529244089
  0
LINE
  8
_1-0_
  6
CONTINUOUS
 62
    7
 10
368.39105554529141
 20
100.31534555796031
 11
197.54670014252534
 21
177.19529435441302
  0
LINE
  8
_1-0_
  6
CONTINUOUS
 62
    7
 10
205.0339817356419
 20
174.48397249788852
 11
197.54670014252534
 21
177.85323684279984
  0
LINE
  8
_1-1_
  6
CONTINUOUS
 62
    7
 10
216.62574561866555
 20
193.1140879038218
 11
224.48621595228042
 21
192.1141340925887
  0
LINE
  8
_1-1_
  6
CONTINUOUS
 62
    7
 10
170.48622337547511
 20
192.11408460462417
 11
178.34670608108109
 21
193.1140879038218
  0
LINE
  8
_1-1_
  6
CONTINUOUS
 62
    7
 10
188.59021985853042
 20
211.4682336755701
 11
176.87583717139992
 21
243.65325102934969
  0
LINE
  8
_1-1_
  6
CONTINUOUS
 62
    7
 10
176.87583717139992
 20
243.65325102934969
 11
171.08108108108109
 21
243.65325102934969
  0
LINE
  8
_1-1_
  6
CONTINUOUS
 62
    7
 10
195.95953451620568
 20
191.04351146801099
 11
199.19983322555956
 21
191.04351146801099
  0
LINE
  8
_1-1_
  6
CONTINUOUS
 62
    7
 10
196.35953336148648
 20
190.64351262273016
 11
198.79983438027872
 21
190.64351262273016
  0
LINE
  8
_1-1_
  6
CONTINUOUS
 62
    7
 10
199.19983322555956
 20
177.438305004223
 11
199.19983322555956
 21
191.04351146801099
  0
LINE
  8
_1-1_
  6
CONTINUOUS
 62
    7
 10
198.79983438027872
 20
177.2893338590055
 11
198.79983438027872
 21
190.64351262273016
  0
LINE
  8
_1-0_
  6
CONTINUOUS
 62
    7
 10
206.51906606313347
 20
177.71761507601352
 11
201.17382152660474
 21
176.55000841295399
  0
LINE
  8
_1-0_
  6
CONTINUOUS
 62
    7
 10
200.68168846336573
 20
176.44250818201016
 11
200.68166371938347
 21
176.44250818201016
  0
LINE
  8
_1-0_
  6
CONTINUOUS
 62
    7
 10
202.15905266839107
 20
179.72553974873313
 11
200.80478977512669
 21
176.71607764991555
  0
LINE
  8
_1-0_
  6
CONTINUOUS
 62
    7
 10
205.18201260953336
 20
174.74633294182857
 11
206.51909080711573
 21
177.71761507601352
  0
LINE
  8
_1-1_
  6
CONTINUOUS
 62
    7
 10
209.92401123046875
 20
172.61244902739654
 11
209.80090991870779
 21
172.3388671875
  0
LINE
  8
_1-0_
  6
CONTINUOUS
 62
    7
 10
205.05889892578125
 20
174.47276347392315
 11
205.05889892578125
 21
174.47277584591427
  0
LINE
  8
_1-0_
  6
CONTINUOUS
 62
    7
 10
205.18201260953336
 20
174.74634531381969
 11
206.51906606313347
 21
177.71761507601352
  0
LINE
  8
_1-1_
  6
CONTINUOUS
 62
    7
 10
199.19983322555956
 20
177.438305004223
 11
209.92401123046875
 21
172.61244902739654
  0
LINE
  8
_1-0_
  6
CONTINUOUS
 62
    7
 10
202.15897843644427
 20
179.7254160288218
 11
200.80477740313557
 21
176.71609002190669
  0
LINE
  8
_1-0_
  6
CONTINUOUS
 62
    7
 10
202.15897843644427
 20
179.72544077280406
 11
200.80477740313557
 21
176.71607764991555
  0
LINE
  8
_1-1_
  6
CONTINUOUS
 62
    7
 10
196.35953336148648
 20
177.64801025390625
 11
196.35953336148648
 21
190.64351262273016
  0
LINE
  8
_1-1_
  6
CONTINUOUS
 62
    7
 10
196.35953336148648
 20
177.64801025390625
 11
196.35953336148648
 21
177.31901426573057
  0
LINE
  8
_1-1_
  6
CONTINUOUS
 62
    7
 10
195.95953451620568
 20
177.46801015493034
 11
195.95953451620568
 21
191.04351146801099
  0
LINE
  8
_1-0_
  6
CONTINUOUS
 62
    7
 10
188.57433422191724
 20
177.71761507601352
 11
193.9195540144637
 21
176.5500207849451
  0
LINE
  8
_1-0_
  6
CONTINUOUS
 62
    7
 10
194.41171182168497
 20
176.44250818201016
 11
194.41173656566724
 21
176.44250818201016
  0
LINE
  8
_1-0_
  6
CONTINUOUS
 62
    7
 10
192.93442184860643
 20
179.72544077280406
 11
194.28862288191513
 21
176.71609002190669
  0
LINE
  8
_1-0_
  6
CONTINUOUS
 62
    7
 10
192.93442184860643
 20
179.7254160288218
 11
194.28862288191513
 21
176.71610239389781
  0
LINE
  8
_1-0_
  6
CONTINUOUS
 62
    7
 10
192.93434761665964
 20
179.72553974873313
 11
194.28859813793287
 21
176.71609002190669
  0
LINE
  8
_1-1_
  6
CONTINUOUS
 62
    7
 10
185.16938905458193
 20
172.61243665540542
 11
195.95953451620568
 21
177.46801015493034
  0
LINE
  8
_1-1_
  6
CONTINUOUS
 62
    7
 10
185.16938905458193
 20
172.61243665540542
 11
185.29250273833404
 21
172.33885481550888
  0
LINE
  8
_1-0_
  6
CONTINUOUS
 62
    7
 10
190.03450135926943
 20
174.47273872994089
 11
190.03448898727831
 21
174.47275110193203
  0
LINE
  8
_1-0_
  6
CONTINUOUS
 62
    7
 10
189.9113753035262
 20
174.74634531381969
 11
188.57430947793497
 21
177.71761507601352
  0
LINE
  8
_1-1_
  6
CONTINUOUS
 62
    7
 10
196.94669568860854
 20
193.1140879038218
 11
198.14670459644216
 21
193.1140879038218
  0
LINE
  8
_1-1_
  6
CONTINUOUS
 62
    7
 10
196.94669568860854
 20
192.81409186285896
 11
198.14670459644216
 21
192.81409186285896
  0
LINE
  8
_1-1_
  6
CONTINUOUS
 62
    7
 10
196.94669568860854
 20
192.51409582189612
 11
198.14670459644216
 21
192.51409582189612
  0
LINE
  8
_1-1_
  6
CONTINUOUS
 62
    7
 10
196.94669568860854
 20
192.21409978093328
 11
198.14670459644216
 21
192.21409978093328
  0
LINE
  8
_1-1_
  6
CONTINUOUS
 62
    7
 10
196.94669568860854
 20
191.91410373997044
 11
198.14670459644216
 21
191.91410373997044
  0
LINE
  8
_1-1_
  6
CONTINUOUS
 62
    7
 10
196.94669568860854
 20
191.6141076990076
 11
198.14670459644216
 21
191.6141076990076
  0
LINE
  8
_1-1_
  6
CONTINUOUS
 62
    7
 10
196.94669568860854
 20
191.31411165804477
 11
198.14670459644216
 21
191.31411165804477
  0
LINE
  8
_1-1_
  6
CONTINUOUS
 62
    7
 10
196.94669568860854
 20
190.34351658176732
 11
198.14670459644216
 21
190.34351658176732
  0
LINE
  8
_1-1_
  6
CONTINUOUS
 62
    7
 10
196.94669568860854
 20
190.04352054080448
 11
198.14670459644216
 21
190.04352054080448
  0
LINE
  8
_1-1_
  6
CONTINUOUS
 62
    7
 10
196.94669568860854
 20
189.74352449984164
 11
198.14670459644216
 21
189.74352449984164
  0
LINE
  8
_1-1_
  6
CONTINUOUS
 62
    7
 10
196.94669568860854
 20
189.4435284588788
 11
198.14670459644216
 21
189.4435284588788
  0
LINE
  8
_1-1_
  6
CONTINUOUS
 62
    7
 10
196.94669568860854
 20
189.14353241791596
 11
198.14670459644216
 21
189.14353241791596
  0
LINE
  8
_1-1_
  6
CONTINUOUS
 62
    7
 10
196.94669568860854
 20
188.84353637695312
 11
198.14670459644216
 21
188.84353637695312
  0
LINE
  8
_1-1_
  6
CONTINUOUS
 62
    7
 10
196.94669568860854
 20
188.54354033599029
 11
198.14670459644216
 21
188.54354033599029
  0
LINE
  8
_1-1_
  6
CONTINUOUS
 62
    7
 10
196.94669568860854
 20
188.24354429502745
 11
198.14670459644216
 21
188.24354429502745
  0
LINE
  8
_1-1_
  6
CONTINUOUS
 62
    7
 10
196.94669568860854
 20
187.94354825406461
 11
198.14670459644216
 21
187.94354825406461
  0
LINE
  8
_1-1_
  6
CONTINUOUS
 62
    7
 10
196.94669568860854
 20
187.64355221310177
 11
198.14670459644216
 21
187.64355221310177
  0
LINE
  8
_1-1_
  6
CONTINUOUS
 62
    7
 10
196.94669568860854
 20
187.34355617213896
 11
198.14670459644216
 21
187.34355617213896
  0
LINE
  8
_1-1_
  6
CONTINUOUS
 62
    7
 10
196.94669568860854
 20
187.04356013117612
 11
198.14670459644216
 21
187.04356013117612
  0
LINE
  8
_1-1_
  6
CONTINUOUS
 62
    7
 10
196.94669568860854
 20
186.74356409021328
 11
198.14670459644216
 21
186.74356409021328
  0
LINE
  8
_1-1_
  6
CONTINUOUS
 62
    7
 10
196.94669568860854
 20
186.44356804925044
 11
198.14670459644216
 21
186.44356804925044
  0
LINE
  8
_1-1_
  6
CONTINUOUS
 62
    7
 10
196.94669568860854
 20
186.14357200828761
 11
198.14670459644216
 21
186.14357200828761
  0
LINE
  8
_1-1_
  6
CONTINUOUS
 62
    7
 10
196.94669568860854
 20
185.84357596732477
 11
198.14670459644216
 21
185.84357596732477
  0
LINE
  8
_1-1_
  6
CONTINUOUS
 62
    7
 10
196.94669568860854
 20
185.54357992636193
 11
198.14670459644216
 21
185.54357992636193
  0
LINE
  8
_1-1_
  6
CONTINUOUS
 62
    7
 10
196.94669568860854
 20
185.24358388539909
 11
198.14670459644216
 21
185.24358388539909
  0
LINE
  8
_1-1_
  6
CONTINUOUS
 62
    7
 10
196.94669568860854
 20
184.94358784443625
 11
198.14670459644216
 21
184.94358784443625
  0
LINE
  8
_1-1_
  6
CONTINUOUS
 62
    7
 10
196.94669568860854
 20
184.64359180347341
 11
198.14670459644216
 21
184.64359180347341
  0
LINE
  8
_1-1_
  6
CONTINUOUS
 62
    7
 10
196.94669568860854
 20
184.34359576251057
 11
198.14670459644216
 21
184.34359576251057
  0
LINE
  8
_1-1_
  6
CONTINUOUS
 62
    7
 10
196.94669568860854
 20
184.04359972154774
 11
198.14670459644216
 21
184.04359972154774
  0
LINE
  8
_1-1_
  6
CONTINUOUS
 62
    7
 10
196.94669568860854
 20
183.7436036805849
 11
198.14670459644216
 21
183.7436036805849
  0
LINE
  8
_1-1_
  6
CONTINUOUS
 62
    7
 10
196.94669568860854
 20
183.44360763962206
 11
198.14670459644216
 21
183.44360763962206
  0
LINE
  8
_1-1_
  6
CONTINUOUS
 62
    7
 10
196.94669568860854
 20
183.14361159865922
 11
198.14670459644216
 21
183.14361159865922
  0
LINE
  8
_1-1_
  6
CONTINUOUS
 62
    7
 10
196.94669568860854
 20
182.84361555769638
 11
198.14670459644216
 21
182.84361555769638
  0
LINE
  8
_1-1_
  6
CONTINUOUS
 62
    7
 10
196.94669568860854
 20
182.54361951673354
 11
198.14670459644216
 21
182.54361951673354
  0
LINE
  8
_1-1_
  6
CONTINUOUS
 62
    7
 10
196.94669568860854
 20
182.2436234757707
 11
198.14670459644216
 21
182.2436234757707
  0
LINE
  8
_1-1_
  6
CONTINUOUS
 62
    7
 10
196.94669568860854
 20
181.94362743480787
 11
198.14670459644216
 21
181.94362743480787
  0
LINE
  8
_1-1_
  6
CONTINUOUS
 62
    7
 10
196.94669568860854
 20
181.64363139384503
 11
198.14670459644216
 21
181.64363139384503
  0
LINE
  8
_1-1_
  6
CONTINUOUS
 62
    7
 10
196.94669568860854
 20
181.34363535288219
 11
198.14670459644216
 21
181.34363535288219
  0
LINE
  8
_1-1_
  6
CONTINUOUS
 62
    7
 10
196.94669568860854
 20
181.04363931191935
 11
198.14670459644216
 21
181.04363931191935
  0
LINE
  8
_1-1_
  6
CONTINUOUS
 62
    7
 10
196.94669568860854
 20
180.74364327095651
 11
198.14670459644216
 21
180.74364327095651
  0
LINE
  8
_1-1_
  6
CONTINUOUS
 62
    7
 10
196.94669568860854
 20
180.44364722999367
 11
198.14670459644216
 21
180.44364722999367
  0
LINE
  8
_1-1_
  6
CONTINUOUS
 62
    7
 10
196.94669568860854
 20
180.14365118903083
 11
198.14670459644216
 21
180.14365118903083
  0
LINE
  8
_1-1_
  6
CONTINUOUS
 62
    7
 10
196.94669568860854
 20
179.843655148068
 11
198.14670459644216
 21
179.843655148068
  0
LINE
  8
_1-1_
  6
CONTINUOUS
 62
    7
 10
196.94669568860854
 20
179.54365910710516
 11
198.14670459644216
 21
179.54365910710516
  0
LINE
  8
_1-1_
  6
CONTINUOUS
 62
    7
 10
196.94669568860854
 20
179.24366306614232
 11
198.14670459644216
 21
179.24366306614232
  0
LINE
  8
_1-1_
  6
CONTINUOUS
 62
    7
 10
196.94669568860854
 20
178.94366702517948
 11
198.14670459644216
 21
178.94366702517948
  0
LINE
  8
_1-1_
  6
CONTINUOUS
 62
    7
 10
196.94669568860854
 20
178.64367098421664
 11
198.14670459644216
 21
178.64367098421664
  0
LINE
  8
_1-1_
  6
CONTINUOUS
 62
    7
 10
196.94669568860854
 20
178.3436749432538
 11
198.14670459644216
 21
178.3436749432538
  0
LINE
  8
_1-1_
  6
CONTINUOUS
 62
    7
 10
196.94669568860854
 20
178.04367890229096
 11
198.14670459644216
 21
178.04367890229096
  0
LINE
  8
_1-1_
  6
CONTINUOUS
 62
    7
 10
196.94669568860854
 20
177.74368286132812
 11
197.30324410103464
 21
177.74368286132812
  0
LINE
  8
_1-1_
  6
CONTINUOUS
 62
    7
 10
197.79015618401607
 20
177.74368286132812
 11
198.14670459644216
 21
177.74368286132812
  0
LINE
  8
_1-1_
  6
CONTINUOUS
 62
    7
 10
196.94669568860854
 20
190.64351262273016
 11
196.94669568860854
 21
177.58323050834039
  0
LINE
  8
_1-1_
  6
CONTINUOUS
 62
    7
 10
198.14670459644216
 20
190.64351262273016
 11
198.14670459644216
 21
177.58323050834039
  0
LINE
  8
_1-1_
  6
DASHED1
 62
    7
 10
196.94669568860854
 20
203.00762279613599
 11
197.45919304925044
 21
202.44223517340583
  0
LINE
  8
_1-1_
  6
DASHED1
 62
    7
 10
198.14670459644216
 20
203.00762279613599
 11
197.45919304925044
 21
202.44223517340583
  0
LINE
  8
_1-1_
  6
CONTINUOUS
 62
    7
 10
195.76303018105997
 20
215.45317778716216
 11
199.28583093591641
 21
215.45317778716216
  0
LINE
  8
_1-1_
  6
CONTINUOUS
 62
    7
 10
195.76303018105997
 20
215.45317778716216
 11
195.76303018105997
 21
215.05974846917232
  0
LINE
  8
_1-1_
  6
CONTINUOUS
 62
    7
 10
199.28583093591641
 20
215.45317778716216
 11
199.28583093591641
 21
215.05482441670188
  0
LINE
  8
_1-1_
  6
CONTINUOUS
 62
    7
 10
197.54670014252534
 20
215.45317778716216
 11
208.0919915276605
 21
244.42612931535052
  0
LINE
  8
_1-1_
  6
CONTINUOUS
 62
    7
 10
198.77073545713682
 20
202.61034578890414
 11
208.79407728040542
 21
230.14927219700169
  0
LINE
  8
_1-1_
  6
CONTINUOUS
 62
    7
 10
178.65073539115289
 20
229.94624782252959
 11
194.81682029930323
 21
185.53030477987755
  0
LINE
  8
_1-1_
  6
CONTINUOUS
 62
    7
 10
194.81682029930323
 20
185.53030477987755
 11
197.18214705183701
 21
185.53030477987755
  0
LINE
  8
_1-1_
  6
CONTINUOUS
 62
    7
 10
158.68882462785052
 20
218.13394082559122
 11
170.83356702649917
 21
184.76654465134081
  0
LINE
  8
_1-1_
  6
CONTINUOUS
 62
    7
 10
170.83356702649917
 20
184.76654465134081
 11
187.30981775232266
 21
188.26854808910474
  0
LINE
  8
_1-1_
  6
CONTINUOUS
 62
    7
 10
208.0919915276605
 20
244.42612931535052
 11
213.02722827808279
 21
244.42612931535052
  0
LINE
  8
_1-1_
  6
CONTINUOUS
 62
    7
 10
208.79407728040542
 20
230.14927219700169
 11
213.85681977143159
 21
230.14927219700169
  0
LINE
  8
_1-1_
  6
CONTINUOUS
 62
    7
 10
178.65073539115289
 20
229.94624782252959
 11
174.86590823611698
 21
229.94624782252959
  0
LINE
  8
_1-1_
  6
CONTINUOUS
 62
    7
 10
158.68882462785052
 20
218.13394082559122
 11
153.71125092377534
 21
218.13394082559122
  0
LINE
  8
_1-0_
  6
CONTINUOUS
 62
    7
 10
195.76478700380068
 20
197.0302437447213
 11
199.63088576858109
 21
197.0302437447213
  0
LINE
  8
_1-0_
  6
CONTINUOUS
 62
    7
 10
193.2467032767631
 20
197.0302437447213
 11
193.2467032767631
 21
205.63024984823693
  0
LINE
  8
_1-0_
  6
CONTINUOUS
 62
    7
 10
193.2467032767631
 20
205.63024984823693
 11
201.84669700828761
 21
205.63024984823693
  0
LINE
  8
_1-0_
  6
CONTINUOUS
 62
    7
 10
201.84669700828761
 20
205.63024984823693
 11
201.84669700828761
 21
197.0302437447213
  0
LINE
  8
_1-0_
  6
CONTINUOUS
 62
    7
 10
201.84669700828761
 20
197.0302437447213
 11
193.2467032767631
 21
197.0302437447213
  0
LINE
  8
_1-0_
  6
CONTINUOUS
 62
    7
 10
202.24669585356841
 20
196.63024489944047
 11
192.84670443148227
 21
196.63024489944047
  0
LINE
  8
_1-0_
  6
CONTINUOUS
 62
    7
 10
192.84670443148227
 20
196.63024489944047
 11
192.84670443148227
 21
203.74072513064823
  0
LINE
  8
_1-0_
  6
CONTINUOUS
 62
    7
 10
202.24669585356841
 20
203.74072513064823
 11
202.24669585356841
 21
196.63024489944047
  0
LINE
  8
_1-0_
  6
CONTINUOUS
 62
    7
 10
192.84670443148227
 20
203.74072513064823
 11
193.2467032767631
 21
203.74072513064823
  0
LINE
  8
_1-0_
  6
CONTINUOUS
 62
    7
 10
201.84669700828761
 20
203.74072513064823
 11
202.24669585356841
 21
203.74072513064823
  0
LINE
  8
_1-0_
  6
DASHED1
 62
    7
 10
192.84670443148227
 20
200.97548613677154
 11
202.24669585356841
 21
200.97548613677154
  0
LINE
  8
_1-0_
  6
DASHED1
 62
    7
 10
192.84670443148227
 20
201.51768864812078
 11
202.24669585356841
 21
201.51768864812078
  0
LINE
  8
_1-1_
  6
DASHED1
 62
    7
 10
196.94669568860854
 20
215.11403676625847
 11
196.94669568860854
 21
203.00762279613599
  0
LINE
  8
_1-1_
  6
DASHED1
 62
    7
 10
198.14670459644216
 20
215.11403676625847
 11
198.14670459644216
 21
203.00762279613599
  0
LINE
  8
ADD_LINE
  6
DOT
 62
    7
 10
197.54670014252534
 20
181.17630417282518
 11
197.54670014252534
 21
196.63024489944047
  0
LINE
  8
_1-1_
  6
CONTINUOUS
 62
    7
 10
198.14670459644216
 20
196.63024489944047
 11
198.14670459644216
 21
191.04351146801099
  0
LINE
  8
_1-1_
  6
CONTINUOUS
 62
    7
 10
196.94669568860854
 20
196.63024489944047
 11
196.94669568860854
 21
191.04351146801099
  0
LINE
  8
_1-0_
  6
CONTINUOUS
 62
    7
 10
193.2467032767631
 20
205.63024984823693
 11
201.84669700828761
 21
197.0302437447213
  0
LINE
  8
_1-0_
  6
CONTINUOUS
 62
    7
 10
193.2467032767631
 20
197.0302437447213
 11
201.84669700828761
 21
205.63024984823693
  0
LINE
  8
_1-0_
  6
CONTINUOUS
 62
    7
 10
28.343804849160676
 20
62.673500679634714
 11
197.54668777053422
 21
138.81481686153927
  0
LINE
  8
_1-0_
  6
CONTINUOUS
 62
    7
 10
366.74958924989443
 20
62.673500679634714
 11
197.54668777053422
 21
138.81481686153927
  0
LINE
  8
_1-0_
  6
CONTINUOUS
 62
    7
 10
366.74958924989443
 20
88.991546630859375
 11
197.54670014252534
 21
165.13285044077281
  0
LINE
  8
_1-0_
  6
CONTINUOUS
 62
    7
 10
133.57275473104943
 20
136.3445756242082
 11
85.721796396616341
 21
88.493598731788438
  0
LINE
  8
_1-0_
  6
CONTINUOUS
 62
    7
 10
129.45868414801521
 20
134.49324324324326
 11
81.607713441591017
 21
86.64226635082349
  0
LINE
  8
_1-0_
  6
CONTINUOUS
 62
    7
 10
125.34462593697214
 20
132.64192323426943
 11
77.493624300570104
 21
84.79092159786741
  0
LINE
  8
_1-0_
  6
CONTINUOUS
 62
    7
 10
26.340887739851667
 20
88.090234704919766
 11
197.54670014252534
 21
165.13285044077281
  0
LINE
  8
_1-0_
  6
CONTINUOUS
 62
    7
 10
253.91965299039276
 20
139.76502289643159
 11
235.76927391258448
 21
121.61464381862332
  0
LINE
  8
_1-0_
  6
CONTINUOUS
 62
    7
 10
252.35912426097974
 20
140.4672571130701
 11
234.20876992715372
 21
122.31687803526184
  0
LINE
  8
_1-0_
  6
CONTINUOUS
 62
    7
 10
255.48015697582349
 20
139.06278867979307
 11
237.32980264199747
 21
120.91240960198481
  0
LINE
  8
_1-0_
  6
CONTINUOUS
 62
    7
 10
347.30269973342484
 20
97.742651862067149
 11
329.15229591163433
 21
79.592278970254441
  0
LINE
  8
_1-0_
  6
CONTINUOUS
 62
    7
 10
345.74217100401182
 20
98.444886078705665
 11
327.59181667018584
 21
80.294507000897383
  0
LINE
  8
_1-0_
  6
CONTINUOUS
 62
    7
 10
348.86320371885557
 20
97.040423831424206
 11
330.71279989706505
 21
78.890050939611484
  0
ARC
  8
_1-2_
  6
CONTINUOUS
 62
    3
 10
44.837988776129635
 20
118.01017555030617
 40
0.599999959404404
 50
109.0858917236328
 51
197.21983337402344
  0
ARC
  8
_1-2_
  6
CONTINUOUS
 62
    3
 10
43.808094746357682
 20
116.94187886006124
 40
0.1999999904954755
 50
197.21757507324216
 51
289.0885009765625
  0
ARC
  8
_1-2_
  6
CONTINUOUS
 62
    3
 10
42.673422323690886
 20
116.54930320945947
 40
0.1999999904954755
 50
289.08401489257812
 51
17.217575073242223
  0
ARC
  8
_1-2_
  6
CONTINUOUS
 62
    3
 10
44.28081615551099
 20
117.10544895481419
 40
0.1999999904954755
 50
289.0885009765625
 51
17.219955444335916
  0
ARC
  8
_1-2_
  6
CONTINUOUS
 62
    3
 10
42.200663798564193
 20
116.38574548669764
 40
0.1999999904954755
 50
197.216552734375
 51
289.08514404296875
  0
ARC
  8
_1-2_
  6
CONTINUOUS
 62
    3
 10
92.257888381545612
 20
139.34913841453761
 40
0.599999959404404
 50
109.0858917236328
 51
197.21983337402344
  0
ARC
  8
_1-2_
  6
CONTINUOUS
 62
    3
 10
91.22799435177366
 20
138.28084172429266
 40
0.1999999904954755
 50
197.21757507324216
 51
289.0885009765625
  0
ARC
  8
_1-2_
  6
CONTINUOUS
 62
    3
 10
90.093334301097983
 20
137.88826607369089
 40
0.1999999904954755
 50
289.08401489257812
 51
17.217575073242223
  0
ARC
  8
_1-2_
  6
CONTINUOUS
 62
    3
 10
91.700728132918073
 20
138.44441181904563
 40
0.1999999904954755
 50
289.0885009765625
 51
17.219955444335916
  0
ARC
  8
_1-2_
  6
CONTINUOUS
 62
    3
 10
89.62057577597129
 20
137.72470835092906
 40
0.1999999904954755
 50
197.216552734375
 51
289.08514404296875
  0
ARC
  8
_1-2_
  6
CONTINUOUS
 62
    3
 10
139.67784984691724
 20
160.68810127876901
 40
0.599999959404404
 50
109.0858917236328
 51
197.21983337402344
  0
ARC
  8
_1-2_
  6
CONTINUOUS
 62
    3
 10
138.64795581714529
 20
159.61980458852409
 40
0.1999999904954755
 50
197.21757507324216
 51
289.0885009765625
  0
ARC
  8
_1-2_
  6
CONTINUOUS
 62
    3
 10
137.51327102248734
 20
159.22722893792232
 40
0.1999999904954755
 50
289.08401489257812
 51
17.217575073242223
  0
ARC
  8
_1-2_
  6
CONTINUOUS
 62
    3
 10
139.12066485430745
 20
159.78337468327703
 40
0.1999999904954755
 50
289.0885009765625
 51
17.219955444335916
  0
ARC
  8
_1-2_
  6
CONTINUOUS
 62
    3
 10
137.04051249736065
 20
159.06367121516047
 40
0.1999999904954755
 50
197.216552734375
 51
289.08514404296875
  0
ARC
  8
_1-2_
  6
CONTINUOUS
 62
    3
 10
350.25542388091219
 20
118.01017555030617
 40
0.599999959404404
 50
342.78041076660162
 51
70.914352416992244
  0
ARC
  8
_1-2_
  6
CONTINUOUS
 62
    3
 10
351.28531791068411
 20
116.94187886006124
 40
0.1999999904954755
 50
250.91174316406253
 51
342.78266906738287
  0
ARC
  8
_1-2_
  6
CONTINUOUS
 62
    3
 10
352.41997796135979
 20
116.54930320945947
 40
0.1999999904954755
 50
162.78266906738281
 51
250.91622924804693
  0
ARC
  8
_1-2_
  6
CONTINUOUS
 62
    3
 10
350.81258412953974
 20
117.10544895481419
 40
0.1999999904954755
 50
162.78028869628909
 51
250.91174316406253
  0
ARC
  8
_1-2_
  6
CONTINUOUS
 62
    3
 10
352.89273648648651
 20
116.38574548669764
 40
0.1999999904954755
 50
250.91510009765628
 51
342.78369140625
  0
ARC
  8
_1-2_
  6
CONTINUOUS
 62
    3
 10
302.83551190350511
 20
139.34913841453761
 40
0.599999959404404
 50
342.78041076660162
 51
70.914352416992244
  0
ARC
  8
_1-2_
  6
CONTINUOUS
 62
    3
 10
303.86540593327703
 20
138.28084172429266
 40
0.1999999904954755
 50
250.91174316406253
 51
342.78266906738287
  0
ARC
  8
_1-2_
  6
CONTINUOUS
 62
    3
 10
305.00006598395271
 20
137.88826607369089
 40
0.1999999904954755
 50
162.78266906738281
 51
250.91622924804693
  0
ARC
  8
_1-2_
  6
CONTINUOUS
 62
    3
 10
303.3926721521326
 20
138.44441181904563
 40
0.1999999904954755
 50
162.78028869628909
 51
250.91174316406253
  0
ARC
  8
_1-2_
  6
CONTINUOUS
 62
    3
 10
305.47282450907943
 20
137.72470835092906
 40
0.1999999904954755
 50
250.91510009765628
 51
342.78369140625
  0
ARC
  8
_1-2_
  6
CONTINUOUS
 62
    3
 10
255.41555043813347
 20
160.68810127876901
 40
0.599999959404404
 50
342.78041076660162
 51
70.914352416992244
  0
ARC
  8
_1-2_
  6
CONTINUOUS
 62
    3
 10
256.44544446790542
 20
159.61980458852409
 40
0.1999999904954755
 50
250.91174316406253
 51
342.78266906738287
  0
ARC
  8
_1-2_
  6
CONTINUOUS
 62
    3
 10
257.58012926256333
 20
159.22722893792232
 40
0.1999999904954755
 50
162.78266906738281
 51
250.91622924804693
  0
ARC
  8
_1-2_
  6
CONTINUOUS
 62
    3
 10
255.97273543074326
 20
159.78337468327703
 40
0.1999999904954755
 50
162.78028869628909
 51
250.91174316406253
  0
ARC
  8
_1-2_
  6
CONTINUOUS
 62
    3
 10
258.05288778769005
 20
159.06367121516047
 40
0.1999999904954755
 50
250.91510009765628
 51
342.78369140625
  0
ARC
  8
_1-1_
  6
CONTINUOUS
 62
    7
 10
197.48622584987334
 20
187.76626999313768
 40
27.347822447080873
 50
9.1478271484375
 51
170.85218811035156
  0
ARC
  8
_1-1_
  6
CONTINUOUS
 62
    7
 10
197.48622584987334
 20
187.59459624419341
 40
19.919484112713789
 50
16.08660888671875
 51
163.91339111328125
  0
ARC
  8
_1-1_
  6
CONTINUOUS
 62
    7
 10
197.48622584987334
 20
187.69302780563768
 40
23.421057623785895
 50
12.185165405273436
 51
167.9019775390625
  0
ARC
  8
_1-0_
  6
CONTINUOUS
 62
    5
 10
259.97388685071792
 20
183.75441680083404
 40
46.417288909087311
 50
163.95065307617187
 51
186.01312255859375
  0
CIRCLE
  8
_1-1_
  6
CONTINUOUS
 62
    7
 10
192.32808293523016
 20
198.81456942171664
 40
0.1903721649904509
  0
CIRCLE
  8
_1-1_
  6
CONTINUOUS
 62
    7
 10
191.38578260267104
 20
200.83377735034841
 40
0.1903721649904509
  0
CIRCLE
  8
_1-1_
  6
CONTINUOUS
 62
    7
 10
187.88584528742612
 20
199.75686975427578
 40
0.1903721649904509
  0
CIRCLE
  8
_1-1_
  6
CONTINUOUS
 62
    7
 10
187.88584528742612
 20
198.81456942171664
 40
0.1903721649904509
  0
CIRCLE
  8
_1-1_
  6
CONTINUOUS
 62
    7
 10
191.11656807564401
 20
197.87228146114865
 40
0.1903721649904509
  0
CIRCLE
  8
_1-1_
  6
CONTINUOUS
 62
    7
 10
190.30887500659841
 20
198.27611562368034
 40
0.1903721649904509
  0
CIRCLE
  8
_1-1_
  6
CONTINUOUS
 62
    7
 10
190.84732880463471
 20
194.23771213840794
 40
0.1903721649904509
  0
CIRCLE
  8
_1-1_
  6
CONTINUOUS
 62
    7
 10
188.69351361248945
 20
193.69925834037164
 40
0.1903721649904509
  0
CIRCLE
  8
_1-1_
  6
CONTINUOUS
 62
    7
 10
187.34739148938979
 20
191.54544314822635
 40
0.1903721649904509
  0
CIRCLE
  8
_1-1_
  6
CONTINUOUS
 62
    7
 10
185.5974104597762
 20
190.73777482316302
 40
0.1903721649904509
  0
CIRCLE
  8
_1-1_
  6
CONTINUOUS
 62
    7
 10
185.73203009528083
 20
189.25702069256758
 40
0.1903721649904509
  0
CIRCLE
  8
_1-1_
  6
CONTINUOUS
 62
    7
 10
184.92434939822635
 20
186.29552480336784
 40
0.1903721649904509
  0
CIRCLE
  8
_1-1_
  6
CONTINUOUS
 62
    7
 10
185.19357629724453
 20
185.48784410631336
 40
0.1903721649904509
  0
CIRCLE
  8
_1-1_
  6
CONTINUOUS
 62
    7
 10
186.94354495486698
 20
186.02629790434966
 40
0.1903721649904509
  0
CIRCLE
  8
_1-1_
  6
CONTINUOUS
 62
    7
 10
186.53971079233531
 20
187.77627893396328
 40
0.1903721649904509
  0
CIRCLE
  8
_1-1_
  6
CONTINUOUS
 62
    7
 10
184.25127596468539
 20
189.93009412610854
 40
0.1903721649904509
  0
CIRCLE
  8
_1-1_
  6
CONTINUOUS
 62
    7
 10
182.90514146959461
 20
191.00700172218117
 40
0.1903721649904509
  0
CIRCLE
  8
_1-1_
  6
CONTINUOUS
 62
    7
 10
182.09746077254013
 20
191.68006278373102
 40
0.1903721649904509
  0
CIRCLE
  8
_1-1_
  6
CONTINUOUS
 62
    7
 10
180.61671901393581
 20
194.91078557194891
 40
0.1903721649904509
  0
CIRCLE
  8
_1-1_
  6
CONTINUOUS
 62
    7
 10
181.0205531764675
 20
195.71846626900339
 40
0.1903721649904509
  0
CIRCLE
  8
_1-1_
  6
CONTINUOUS
 62
    7
 10
181.82823387352198
 20
196.79537386507602
 40
0.1903721649904509
  0
CIRCLE
  8
_1-1_
  6
CONTINUOUS
 62
    7
 10
182.09746077254013
 20
194.77616593644427
 40
0.1903721649904509
  0
CIRCLE
  8
_1-1_
  6
CONTINUOUS
 62
    7
 10
183.84744180215372
 20
193.56465107685813
 40
0.1903721649904509
  0
CIRCLE
  8
_1-1_
  6
CONTINUOUS
 62
    7
 10
182.77053420608109
 20
188.85318653003591
 40
0.1903721649904509
  0
CIRCLE
  8
_1-1_
  6
CONTINUOUS
 62
    7
 10
182.36668767155828
 20
187.5070520349451
 40
0.1903721649904509
  0
CIRCLE
  8
_1-1_
  6
CONTINUOUS
 62
    7
 10
182.63591457057643
 20
186.29552480336784
 40
0.1903721649904509
  0
CIRCLE
  8
_1-1_
  6
CONTINUOUS
 62
    7
 10
183.3089880041174
 20
185.08400994378169
 40
0.1903721649904509
  0
CIRCLE
  8
_1-1_
  6
CONTINUOUS
 62
    7
 10
183.57821490313557
 20
184.00710234770904
 40
0.1903721649904509
  0
CIRCLE
  8
_1-1_
  6
CONTINUOUS
 62
    7
 10
182.77053420608109
 20
183.19942165065456
 40
0.1903721649904509
  0
CIRCLE
  8
_1-1_
  6
CONTINUOUS
 62
    7
 10
186.00125699429898
 20
183.8724827122044
 40
0.1903721649904509
  0
CIRCLE
  8
_1-1_
  6
CONTINUOUS
 62
    7
 10
187.0781522183805
 20
185.21862957928633
 40
0.1903721649904509
  0
CIRCLE
  8
_1-1_
  6
CONTINUOUS
 62
    7
 10
188.69351361248945
 20
185.75707100533151
 40
0.1903721649904509
  0
CIRCLE
  8
_1-1_
  6
CONTINUOUS
 62
    7
 10
190.57810190561656
 20
186.83397860140414
 40
0.1903721649904509
  0
CIRCLE
  8
_1-1_
  6
CONTINUOUS
 62
    7
 10
190.44349464210305
 20
188.04550583298143
 40
0.1903721649904509
  0
CIRCLE
  8
_1-1_
  6
CONTINUOUS
 62
    7
 10
192.59730983424834
 20
189.12241342905406
 40
0.1903721649904509
  0
CIRCLE
  8
_1-1_
  6
CONTINUOUS
 62
    7
 10
195.02035192541175
 20
187.77627893396328
 40
0.1903721649904509
  0
CIRCLE
  8
_1-1_
  6
CONTINUOUS
 62
    7
 10
195.42418608794341
 20
186.29552480336784
 40
0.1903721649904509
  0
CIRCLE
  8
_1-1_
  6
CONTINUOUS
 62
    7
 10
195.42418608794341
 20
183.46864854967274
 40
0.1903721649904509
  0
CIRCLE
  8
_1-1_
  6
CONTINUOUS
 62
    7
 10
193.00114399678
 20
190.33392828864021
 40
0.1903721649904509
  0
CIRCLE
  8
_1-1_
  6
CONTINUOUS
 62
    7
 10
189.09736014701227
 20
190.33392828864021
 40
0.1903721649904509
  0
CIRCLE
  8
_1-1_
  6
CONTINUOUS
 62
    7
 10
187.21277185388516
 20
192.4877434807855
 40
0.1903721649904509
  0
CIRCLE
  8
_1-1_
  6
CONTINUOUS
 62
    7
 10
184.38589560019005
 20
196.79537386507602
 40
0.1903721649904509
  0
CIRCLE
  8
_1-1_
  6
CONTINUOUS
 62
    7
 10
184.25127596468539
 20
198.54534252269849
 40
0.1903721649904509
  0
CIRCLE
  8
_1-1_
  6
CONTINUOUS
 62
    7
 10
184.92434939822635
 20
199.21841595623945
 40
0.1903721649904509
  0
CIRCLE
  8
_1-1_
  6
CONTINUOUS
 62
    7
 10
189.63581394504857
 20
200.83377735034841
 40
0.1903721649904509
  0
CIRCLE
  8
_1-1_
  6
CONTINUOUS
 62
    7
 10
188.15505981445312
 20
201.37223114838471
 40
0.1903721649904509
  0
CIRCLE
  8
_1-1_
  6
CONTINUOUS
 62
    7
 10
187.21277185388516
 20
201.91068494642104
 40
0.1903721649904509
  0
CIRCLE
  8
_1-1_
  6
CONTINUOUS
 62
    7
 10
183.57821490313557
 20
200.4299308158256
 40
0.1903721649904509
  0
CIRCLE
  8
_1-1_
  6
CONTINUOUS
 62
    7
 10
181.5590069745038
 20
199.21841595623945
 40
0.1903721649904509
  0
CIRCLE
  8
_1-1_
  6
CONTINUOUS
 62
    7
 10
184.11666870117187
 20
198.41073525918497
 40
0.1903721649904509
  0
CIRCLE
  8
_1-1_
  6
CONTINUOUS
 62
    7
 10
187.34739148938979
 20
197.87228146114865
 40
0.1903721649904509
  0
CIRCLE
  8
_1-1_
  6
CONTINUOUS
 62
    7
 10
189.23196741052578
 20
202.04529220993456
 40
0.1903721649904509
  0
CIRCLE
  8
_1-1_
  6
CONTINUOUS
 62
    7
 10
203.90482722101987
 20
202.17991184543919
 40
0.1903721649904509
  0
CIRCLE
  8
_1-1_
  6
CONTINUOUS
 62
    7
 10
202.82791962494721
 20
200.8730460502006
 40
0.1903721649904509
  0
CIRCLE
  8
_1-1_
  6
CONTINUOUS
 62
    7
 10
203.09715889595651
 20
200.19998498865078
 40
0.1903721649904509
  0
CIRCLE
  8
_1-1_
  6
CONTINUOUS
 62
    7
 10
204.9817348170925
 20
193.83387797587628
 40
0.1903721649904509
  0
CIRCLE
  8
_1-1_
  6
CONTINUOUS
 62
    7
 10
201.48179750184755
 20
192.75697037980365
 40
0.1903721649904509
  0
CIRCLE
  8
_1-1_
  6
CONTINUOUS
 62
    7
 10
201.48179750184755
 20
191.81467004724453
 40
0.1903721649904509
  0
CIRCLE
  8
_1-1_
  6
CONTINUOUS
 62
    7
 10
203.90482722101987
 20
191.2762162492082
 40
0.1903721649904509
  0
CIRCLE
  8
_1-1_
  6
CONTINUOUS
 62
    7
 10
203.23176615947003
 20
193.83387797587628
 40
0.1903721649904509
  0
CIRCLE
  8
_1-1_
  6
CONTINUOUS
 62
    7
 10
201.75101202887458
 20
194.37233177391261
 40
0.1903721649904509
  0
CIRCLE
  8
_1-1_
  6
CONTINUOUS
 62
    7
 10
200.80872406830659
 20
194.91078557194891
 40
0.1903721649904509
  0
CIRCLE
  8
_1-1_
  6
CONTINUOUS
 62
    7
 10
202.82791962494721
 20
195.04539283546242
 40
0.1903721649904509
  0
CIRCLE
  8
_1-1_
  6
CONTINUOUS
 62
    7
 10
199.32798230970229
 20
193.02620965081294
 40
0.1903721649904509
  0
CIRCLE
  8
_1-1_
  6
CONTINUOUS
 62
    7
 10
195.82804499445737
 20
191.94930205474029
 40
0.1903721649904509
  0
CIRCLE
  8
_1-1_
  6
CONTINUOUS
 62
    7
 10
195.82804499445737
 20
191.00700172218117
 40
0.1903721649904509
  0
CIRCLE
  8
_1-1_
  6
CONTINUOUS
 62
    7
 10
196.09725952148437
 20
193.56466344884925
 40
0.1903721649904509
  0
CIRCLE
  8
_1-1_
  6
CONTINUOUS
 62
    7
 10
195.15497156091641
 20
194.10311724688557
 40
0.1903721649904509
  0
CIRCLE
  8
_1-1_
  6
CONTINUOUS
 62
    7
 10
202.42408546241555
 20
190.73777482316302
 40
0.1903721649904509
  0
CIRCLE
  8
_1-1_
  6
CONTINUOUS
 62
    7
 10
201.34717786634292
 20
188.18011309649495
 40
0.1903721649904509
  0
CIRCLE
  8
_1-1_
  6
CONTINUOUS
 62
    7
 10
200.67411680479307
 20
190.73777482316302
 40
0.1903721649904509
  0
CIRCLE
  8
_1-1_
  6
CONTINUOUS
 62
    7
 10
199.19336267419766
 20
191.27622862119932
 40
0.1903721649904509
  0
CIRCLE
  8
_1-1_
  6
CONTINUOUS
 62
    7
 10
200.27027027027029
 20
191.94928968274917
 40
0.1903721649904509
  0
CIRCLE
  8
_1-1_
  6
CONTINUOUS
 62
    7
 10
203.90482722101987
 20
187.64167167044977
 40
0.1903721649904509
  0
CIRCLE
  8
_1-1_
  6
CONTINUOUS
 62
    7
 10
200.40488990577492
 20
186.56476407437711
 40
0.1903721649904509
  0
CIRCLE
  8
_1-1_
  6
CONTINUOUS
 62
    7
 10
200.40488990577492
 20
185.622463741818
 40
0.1903721649904509
  0
CIRCLE
  8
_1-1_
  6
CONTINUOUS
 62
    7
 10
202.82791962494721
 20
185.08400994378169
 40
0.1903721649904509
  0
CIRCLE
  8
_1-1_
  6
CONTINUOUS
 62
    7
 10
202.1548585633974
 20
187.64167167044977
 40
0.1903721649904509
  0
CIRCLE
  8
_1-1_
  6
CONTINUOUS
 62
    7
 10
200.67410443280195
 20
188.18012546848607
 40
0.1903721649904509
  0
CIRCLE
  8
_1-1_
  6
CONTINUOUS
 62
    7
 10
199.73181647223396
 20
188.7185792665224
 40
0.1903721649904509
  0
CIRCLE
  8
_1-1_
  6
CONTINUOUS
 62
    7
 10
201.75101202887458
 20
188.85318653003591
 40
0.1903721649904509
  0
CIRCLE
  8
_1-1_
  6
CONTINUOUS
 62
    7
 10
209.8278313714105
 20
189.66086722709039
 40
0.1903721649904509
  0
CIRCLE
  8
_1-1_
  6
CONTINUOUS
 62
    7
 10
206.32788168417443
 20
188.58395963101773
 40
0.1903721649904509
  0
CIRCLE
  8
_1-1_
  6
CONTINUOUS
 62
    7
 10
206.32788168417443
 20
187.64165929845862
 40
0.1903721649904509
  0
CIRCLE
  8
_1-1_
  6
CONTINUOUS
 62
    7
 10
208.75092377533784
 20
187.10320550042232
 40
0.1903721649904509
  0
CIRCLE
  8
_1-1_
  6
CONTINUOUS
 62
    7
 10
208.07783796980576
 20
189.66086722709039
 40
0.1903721649904509
  0
CIRCLE
  8
_1-1_
  6
CONTINUOUS
 62
    7
 10
206.59709621120146
 20
190.19932102512669
 40
0.1903721649904509
  0
CIRCLE
  8
_1-1_
  6
CONTINUOUS
 62
    7
 10
205.65480825063347
 20
190.73777482316302
 40
0.1903721649904509
  0
CIRCLE
  8
_1-1_
  6
CONTINUOUS
 62
    7
 10
207.67401617926521
 20
190.87238208667654
 40
0.1903721649904509
  0
CIRCLE
  8
_1-1_
  6
CONTINUOUS
 62
    7
 10
212.25086109058279
 20
187.37244477143159
 40
0.1903721649904509
  0
CIRCLE
  8
_1-1_
  6
CONTINUOUS
 62
    7
 10
208.75092377533784
 20
186.29553717535896
 40
0.1903721649904509
  0
CIRCLE
  8
_1-1_
  6
CONTINUOUS
 62
    7
 10
208.75092377533784
 20
185.35323684279984
 40
0.1903721649904509
  0
CIRCLE
  8
_1-1_
  6
CONTINUOUS
 62
    7
 10
211.17395349451016
 20
184.81478304476352
 40
0.1903721649904509
  0
CIRCLE
  8
_1-1_
  6
CONTINUOUS
 62
    7
 10
210.50091717694258
 20
187.37244477143159
 40
0.1903721649904509
  0
CIRCLE
  8
_1-1_
  6
CONTINUOUS
 62
    7
 10
209.02013830236487
 20
187.91089856946792
 40
0.1903721649904509
  0
CIRCLE
  8
_1-1_
  6
CONTINUOUS
 62
    7
 10
208.07786271378802
 20
188.44935236750425
 40
0.1903721649904509
  0
CIRCLE
  8
_1-1_
  6
CONTINUOUS
 62
    7
 10
210.0970458984375
 20
188.58395963101773
 40
0.1903721649904509
  0
CIRCLE
  8
_1-1_
  6
CONTINUOUS
 62
    7
 10
212.65468288112334
 20
191.81468241923565
 40
0.1903721649904509
  0
CIRCLE
  8
_1-1_
  6
CONTINUOUS
 62
    7
 10
209.15474556587839
 20
190.73777482316302
 40
0.1903721649904509
  0
CIRCLE
  8
_1-1_
  6
CONTINUOUS
 62
    7
 10
209.15474556587839
 20
189.79547449060391
 40
0.1903721649904509
  0
CIRCLE
  8
_1-1_
  6
CONTINUOUS
 62
    7
 10
211.57777528505068
 20
189.25702069256758
 40
0.1903721649904509
  0
CIRCLE
  8
_1-1_
  6
CONTINUOUS
 62
    7
 10
210.90473896748313
 20
191.81468241923565
 40
0.1903721649904509
  0
CIRCLE
  8
_1-1_
  6
CONTINUOUS
 62
    7
 10
209.42396009290542
 20
192.35313621727198
 40
0.1903721649904509
  0
CIRCLE
  8
_1-1_
  6
CONTINUOUS
 62
    7
 10
208.48168450432857
 20
192.89159001530828
 40
0.1903721649904509
  0
CIRCLE
  8
_1-1_
  6
CONTINUOUS
 62
    7
 10
210.50086768897805
 20
193.0261972788218
 40
0.1903721649904509
  0
CIRCLE
  8
_1-1_
  6
CONTINUOUS
 62
    7
 10
212.65468288112334
 20
194.91078557194891
 40
0.1903721649904509
  0
CIRCLE
  8
_1-1_
  6
CONTINUOUS
 62
    7
 10
209.15474556587839
 20
193.83387797587628
 40
0.1903721649904509
  0
CIRCLE
  8
_1-1_
  6
CONTINUOUS
 62
    7
 10
209.15474556587839
 20
192.89157764331716
 40
0.1903721649904509
  0
CIRCLE
  8
_1-1_
  6
CONTINUOUS
 62
    7
 10
211.57777528505068
 20
192.35312384528083
 40
0.1903721649904509
  0
CIRCLE
  8
_1-1_
  6
CONTINUOUS
 62
    7
 10
210.90473896748313
 20
194.91078557194891
 40
0.1903721649904509
  0
CIRCLE
  8
_1-1_
  6
CONTINUOUS
 62
    7
 10
209.42396009290542
 20
195.44923936998524
 40
0.1903721649904509
  0
CIRCLE
  8
_1-1_
  6
CONTINUOUS
 62
    7
 10
208.48168450432857
 20
195.98769316802154
 40
0.1903721649904509
  0
CIRCLE
  8
_1-1_
  6
CONTINUOUS
 62
    7
 10
210.50086768897805
 20
196.12230043153505
 40
0.1903721649904509
  0
CIRCLE
  8
_1-1_
  6
CONTINUOUS
 62
    7
 10
213.86619774070948
 20
197.19922039959883
 40
0.1903721649904509
  0
CIRCLE
  8
_1-1_
  6
CONTINUOUS
 62
    7
 10
210.36626042546453
 20
196.1223128035262
 40
0.1903721649904509
  0
CIRCLE
  8
_1-1_
  6
CONTINUOUS
 62
    7
 10
210.36626042546453
 20
195.18001247096709
 40
0.1903721649904509
  0
CIRCLE
  8
_1-1_
  6
CONTINUOUS
 62
    7
 10
212.78929014463682
 20
194.64155867293076
 40
0.1903721649904509
  0
CIRCLE
  8
_1-1_
  6
CONTINUOUS
 62
    7
 10
212.11625382706927
 20
197.19922039959883
 40
0.1903721649904509
  0
CIRCLE
  8
_1-1_
  6
CONTINUOUS
 62
    7
 10
210.63547495249156
 20
197.73767419763516
 40
0.1903721649904509
  0
CIRCLE
  8
_1-1_
  6
CONTINUOUS
 62
    7
 10
209.69319936391472
 20
198.27612799567146
 40
0.1903721649904509
  0
CIRCLE
  8
_1-1_
  6
CONTINUOUS
 62
    7
 10
211.71238254856419
 20
198.41073525918497
 40
0.1903721649904509
  0
CIRCLE
  8
_1-1_
  6
CONTINUOUS
 62
    7
 10
209.5585921004012
 20
198.41073525918497
 40
0.1903721649904509
  0
CIRCLE
  8
_1-1_
  6
CONTINUOUS
 62
    7
 10
206.05865478515625
 20
197.33382766311234
 40
0.1903721649904509
  0
CIRCLE
  8
_1-1_
  6
CONTINUOUS
 62
    7
 10
206.05865478515625
 20
196.39152733055323
 40
0.1903721649904509
  0
CIRCLE
  8
_1-1_
  6
CONTINUOUS
 62
    7
 10
208.48168450432857
 20
195.8530735325169
 40
0.1903721649904509
  0
CIRCLE
  8
_1-1_
  6
CONTINUOUS
 62
    7
 10
207.80862344277872
 20
198.41073525918497
 40
0.1903721649904509
  0
CIRCLE
  8
_1-1_
  6
CONTINUOUS
 62
    7
 10
206.32786931218328
 20
198.9491890572213
 40
0.1903721649904509
  0
CIRCLE
  8
_1-1_
  6
CONTINUOUS
 62
    7
 10
205.38558135161529
 20
199.4876428552576
 40
0.1903721649904509
  0
CIRCLE
  8
_1-1_
  6
CONTINUOUS
 62
    7
 10
207.40477690825591
 20
199.62225011877112
 40
0.1903721649904509
  0
CIRCLE
  8
_1-1_
  6
CONTINUOUS
 62
    7
 10
207.94323070629224
 20
202.98759254249367
 40
0.1903721649904509
  0
CIRCLE
  8
_1-1_
  6
CONTINUOUS
 62
    7
 10
204.44329339104732
 20
201.91068494642104
 40
0.1903721649904509
  0
CIRCLE
  8
_1-1_
  6
CONTINUOUS
 62
    7
 10
204.44329339104732
 20
200.96838461386193
 40
0.1903721649904509
  0
CIRCLE
  8
_1-1_
  6
CONTINUOUS
 62
    7
 10
206.86632311021961
 20
200.4299308158256
 40
0.1903721649904509
  0
CIRCLE
  8
_1-1_
  6
CONTINUOUS
 62
    7
 10
206.19326204866977
 20
202.98759254249367
 40
0.1903721649904509
  0
CIRCLE
  8
_1-1_
  6
CONTINUOUS
 62
    7
 10
204.71250791807432
 20
203.52604634053
 40
0.1903721649904509
  0
CIRCLE
  8
_1-1_
  6
CONTINUOUS
 62
    7
 10
203.77021995750636
 20
204.0645001385663
 40
0.1903721649904509
  0
CIRCLE
  8
_1-1_
  6
CONTINUOUS
 62
    7
 10
205.78941551414698
 20
204.19910740207982
 40
0.1903721649904509
  0
CIRCLE
  8
_1-1_
  6
CONTINUOUS
 62
    7
 10
201.21255823083828
 20
205.81446879618878
 40
0.1903721649904509
  0
CIRCLE
  8
_1-1_
  6
CONTINUOUS
 62
    7
 10
199.46258957321581
 20
205.81446879618878
 40
0.1903721649904509
  0
CIRCLE
  8
_1-1_
  6
CONTINUOUS
 62
    7
 10
197.98183544262037
 20
206.35292259422511
 40
0.1903721649904509
  0
CIRCLE
  8
_1-1_
  6
CONTINUOUS
 62
    7
 10
197.03954748205237
 20
206.89137639226141
 40
0.1903721649904509
  0
CIRCLE
  8
_1-1_
  6
CONTINUOUS
 62
    7
 10
199.058743038693
 20
207.02598365577492
 40
0.1903721649904509
  0
CIRCLE
  8
_1-1_
  6
CONTINUOUS
 62
    7
 10
210.77013170396961
 20
201.2376238848712
 40
0.1903721649904509
  0
CIRCLE
  8
_1-1_
  6
CONTINUOUS
 62
    7
 10
207.27018201673354
 20
200.16071628879857
 40
0.1903721649904509
  0
CIRCLE
  8
_1-1_
  6
CONTINUOUS
 62
    7
 10
207.27018201673354
 20
199.21841595623945
 40
0.1903721649904509
  0
CIRCLE
  8
_1-1_
  6
CONTINUOUS
 62
    7
 10
209.69322410789698
 20
198.67996215820312
 40
0.1903721649904509
  0
CIRCLE
  8
_1-1_
  6
CONTINUOUS
 62
    7
 10
209.02013830236487
 20
201.2376238848712
 40
0.1903721649904509
  0
CIRCLE
  8
_1-1_
  6
CONTINUOUS
 62
    7
 10
207.53939654376057
 20
201.77607768290753
 40
0.1903721649904509
  0
CIRCLE
  8
_1-1_
  6
CONTINUOUS
 62
    7
 10
206.59710858319258
 20
202.31453148094386
 40
0.1903721649904509
  0
CIRCLE
  8
_1-1_
  6
CONTINUOUS
 62
    7
 10
208.61631651182432
 20
202.44913874445737
 40
0.1903721649904509
  0
CIRCLE
  8
_1-1_
  6
CONTINUOUS
 62
    7
 10
191.38579497466216
 20
204.0645001385663
 40
0.1903721649904509
  0
CIRCLE
  8
_1-1_
  6
CONTINUOUS
 62
    7
 10
191.38579497466216
 20
203.12219980600719
 40
0.1903721649904509
  0
CIRCLE
  8
_1-1_
  6
CONTINUOUS
 62
    7
 10
191.65500950168919
 20
205.67986153267526
 40
0.1903721649904509
  0
CIRCLE
  8
_1-1_
  6
CONTINUOUS
 62
    7
 10
190.7127215411212
 20
206.21831533071159
 40
0.1903721649904509
  0
CIRCLE
  8
_1-1_
  6
CONTINUOUS
 62
    7
 10
192.73191709776182
 20
206.35292259422511
 40
0.1903721649904509
  0
CIRCLE
  8
_1-1_
  6
CONTINUOUS
 62
    7
 10
188.42429908546242
 20
201.50685078388938
 40
0.1903721649904509
  0
CIRCLE
  8
_1-1_
  6
CONTINUOUS
 62
    7
 10
184.9243617702175
 20
200.42994318781675
 40
0.1903721649904509
  0
CIRCLE
  8
_1-1_
  6
CONTINUOUS
 62
    7
 10
184.9243617702175
 20
199.4876428552576
 40
0.1903721649904509
  0
CIRCLE
  8
_1-1_
  6
CONTINUOUS
 62
    7
 10
187.34739148938979
 20
198.9491890572213
 40
0.1903721649904509
  0
CIRCLE
  8
_1-1_
  6
CONTINUOUS
 62
    7
 10
186.67433042783995
 20
201.50685078388938
 40
0.1903721649904509
  0
CIRCLE
  8
_1-1_
  6
CONTINUOUS
 62
    7
 10
185.19357629724453
 20
202.04530458192568
 40
0.1903721649904509
  0
CIRCLE
  8
_1-1_
  6
CONTINUOUS
 62
    7
 10
184.25128833667654
 20
202.58375837996201
 40
0.1903721649904509
  0
CIRCLE
  8
_1-1_
  6
CONTINUOUS
 62
    7
 10
186.27048389331716
 20
202.71836564347552
 40
0.1903721649904509
  0
CIRCLE
  8
_1-1_
  6
CONTINUOUS
 62
    7
 10
195.69341298696159
 20
192.21852895375847
 40
0.1903721649904509
  0
CIRCLE
  8
_1-1_
  6
CONTINUOUS
 62
    7
 10
192.19347567171664
 20
191.14162135768584
 40
0.1903721649904509
  0
CIRCLE
  8
_1-1_
  6
CONTINUOUS
 62
    7
 10
192.19347567171664
 20
190.19932102512669
 40
0.1903721649904509
  0
CIRCLE
  8
_1-1_
  6
CONTINUOUS
 62
    7
 10
194.61650539088896
 20
189.66086722709039
 40
0.1903721649904509
  0
CIRCLE
  8
_1-1_
  6
CONTINUOUS
 62
    7
 10
193.94344432933912
 20
192.21852895375847
 40
0.1903721649904509
  0
CIRCLE
  8
_1-1_
  6
CONTINUOUS
 62
    7
 10
192.46269019874367
 20
192.75698275179477
 40
0.1903721649904509
  0
CIRCLE
  8
_1-1_
  6
CONTINUOUS
 62
    7
 10
191.52040223817568
 20
193.29543654983109
 40
0.1903721649904509
  0
CIRCLE
  8
_1-1_
  6
CONTINUOUS
 62
    7
 10
193.5395977948163
 20
193.43004381334461
 40
0.1903721649904509
  0
CIRCLE
  8
_1-1_
  6
CONTINUOUS
 62
    7
 10
191.92424877269849
 20
194.23772451039909
 40
0.1903721649904509
  0
CIRCLE
  8
_1-1_
  6
CONTINUOUS
 62
    7
 10
191.92424877269849
 20
193.29542417783995
 40
0.1903721649904509
  0
CIRCLE
  8
_1-1_
  6
CONTINUOUS
 62
    7
 10
194.34727849187078
 20
192.75697037980365
 40
0.1903721649904509
  0
CIRCLE
  8
_1-1_
  6
CONTINUOUS
 62
    7
 10
192.19346329972552
 20
195.85308590450802
 40
0.1903721649904509
  0
CIRCLE
  8
_1-1_
  6
CONTINUOUS
 62
    7
 10
191.25117533915753
 20
196.39153970254435
 40
0.1903721649904509
  0
CIRCLE
  8
_1-1_
  6
CONTINUOUS
 62
    7
 10
190.30889975058068
 20
196.52614696605787
 40
0.1903721649904509
  0
CIRCLE
  8
_1-1_
  6
CONTINUOUS
 62
    7
 10
190.30889975058068
 20
195.58384663349875
 40
0.1903721649904509
  0
CIRCLE
  8
_1-1_
  6
CONTINUOUS
 62
    7
 10
192.73192946975297
 20
195.04539283546242
 40
0.1903721649904509
  0
CIRCLE
  8
_1-1_
  6
CONTINUOUS
 62
    7
 10
192.05886840820312
 20
197.6030545621305
 40
0.1903721649904509
  0
CIRCLE
  8
_1-1_
  6
CONTINUOUS
 62
    7
 10
190.57811427760771
 20
198.14150836016682
 40
0.1903721649904509
  0
CIRCLE
  8
_1-1_
  6
CONTINUOUS
 62
    7
 10
189.63582631703972
 20
198.67996215820312
 40
0.1903721649904509
  0
CIRCLE
  8
_1-1_
  6
CONTINUOUS
 62
    7
 10
191.65502187368034
 20
198.81456942171664
 40
0.1903721649904509
  0
CIRCLE
  8
_1-1_
  6
CONTINUOUS
 62
    7
 10
188.69352598448057
 20
195.44923936998524
 40
0.1903721649904509
  0
CIRCLE
  8
_1-1_
  6
CONTINUOUS
 62
    7
 10
185.19358866923565
 20
194.37233177391261
 40
0.1903721649904509
  0
CIRCLE
  8
_1-1_
  6
CONTINUOUS
 62
    7
 10
185.19358866923565
 20
193.43003144135346
 40
0.1903721649904509
  0
CIRCLE
  8
_1-1_
  6
CONTINUOUS
 62
    7
 10
187.61661838840794
 20
192.89157764331716
 40
0.1903721649904509
  0
CIRCLE
  8
_1-1_
  6
CONTINUOUS
 62
    7
 10
186.94355732685813
 20
195.44923936998524
 40
0.1903721649904509
  0
CIRCLE
  8
_1-1_
  6
CONTINUOUS
 62
    7
 10
185.46280319626268
 20
195.98769316802154
 40
0.1903721649904509
  0
CIRCLE
  8
_1-1_
  6
CONTINUOUS
 62
    7
 10
184.52051523569469
 20
196.52614696605787
 40
0.1903721649904509
  0
CIRCLE
  8
_1-1_
  6
CONTINUOUS
 62
    7
 10
186.53971079233531
 20
196.66075422957138
 40
0.1903721649904509
  0
CIRCLE
  8
_1-1_
  6
CONTINUOUS
 62
    7
 10
189.77042120856208
 20
195.71847864099453
 40
0.1903721649904509
  0
CIRCLE
  8
_1-1_
  6
CONTINUOUS
 62
    7
 10
186.27048389331716
 20
194.64157104492188
 40
0.1903721649904509
  0
CIRCLE
  8
_1-1_
  6
CONTINUOUS
 62
    7
 10
186.27048389331716
 20
193.69927071236276
 40
0.1903721649904509
  0
CIRCLE
  8
_1-1_
  6
CONTINUOUS
 62
    7
 10
188.69351361248945
 20
193.16081691432646
 40
0.1903721649904509
  0
CIRCLE
  8
_1-1_
  6
CONTINUOUS
 62
    7
 10
188.02045255093961
 20
195.71847864099453
 40
0.1903721649904509
  0
CIRCLE
  8
_1-1_
  6
CONTINUOUS
 62
    7
 10
186.53969842034419
 20
196.25693243903083
 40
0.1903721649904509
  0
CIRCLE
  8
_1-1_
  6
CONTINUOUS
 62
    7
 10
185.5974104597762
 20
196.79538623706716
 40
0.1903721649904509
  0
CIRCLE
  8
_1-1_
  6
CONTINUOUS
 62
    7
 10
187.61660601641682
 20
196.92999350058068
 40
0.1903721649904509
  0
CIRCLE
  8
_1-1_
  6
CONTINUOUS
 62
    7
 10
191.52040223817568
 20
189.93009412610854
 40
0.1903721649904509
  0
CIRCLE
  8
_1-1_
  6
CONTINUOUS
 62
    7
 10
188.02046492293076
 20
188.85318653003591
 40
0.1903721649904509
  0
CIRCLE
  8
_1-1_
  6
CONTINUOUS
 62
    7
 10
188.02046492293076
 20
187.91088619747677
 40
0.1903721649904509
  0
CIRCLE
  8
_1-1_
  6
CONTINUOUS
 62
    7
 10
190.44349464210305
 20
187.37243239944047
 40
0.1903721649904509
  0
CIRCLE
  8
_1-1_
  6
CONTINUOUS
 62
    7
 10
189.77043358055323
 20
189.93009412610854
 40
0.1903721649904509
  0
CIRCLE
  8
_1-1_
  6
CONTINUOUS
 62
    7
 10
188.28967944995779
 20
190.46854792414487
 40
0.1903721649904509
  0
CIRCLE
  8
_1-1_
  6
CONTINUOUS
 62
    7
 10
187.34739148938979
 20
191.00700172218117
 40
0.1903721649904509
  0
CIRCLE
  8
_1-1_
  6
CONTINUOUS
 62
    7
 10
189.36658704603042
 20
191.14160898569469
 40
0.1903721649904509
  0
CIRCLE
  8
_1-1_
  6
CONTINUOUS
 62
    7
 10
189.50120668153505
 20
190.60316755964951
 40
0.1903721649904509
  0
CIRCLE
  8
_1-1_
  6
CONTINUOUS
 62
    7
 10
186.00126936629013
 20
189.52625996357688
 40
0.1903721649904509
  0
CIRCLE
  8
_1-1_
  6
CONTINUOUS
 62
    7
 10
186.00126936629013
 20
188.58395963101773
 40
0.1903721649904509
  0
CIRCLE
  8
_1-1_
  6
CONTINUOUS
 62
    7
 10
188.42429908546242
 20
188.04550583298143
 40
0.1903721649904509
  0
CIRCLE
  8
_1-1_
  6
CONTINUOUS
 62
    7
 10
187.75123802391261
 20
190.60316755964951
 40
0.1903721649904509
  0
CIRCLE
  8
_1-1_
  6
CONTINUOUS
 62
    7
 10
186.27048389331716
 20
191.14162135768584
 40
0.1903721649904509
  0
CIRCLE
  8
_1-1_
  6
CONTINUOUS
 62
    7
 10
185.32819593274917
 20
191.68007515572214
 40
0.1903721649904509
  0
CIRCLE
  8
_1-1_
  6
CONTINUOUS
 62
    7
 10
187.34739148938979
 20
191.81468241923565
 40
0.1903721649904509
  0
CIRCLE
  8
_1-1_
  6
CONTINUOUS
 62
    7
 10
207.94323070629224
 20
187.37244477143159
 40
0.1903721649904509
  0
CIRCLE
  8
_1-1_
  6
CONTINUOUS
 62
    7
 10
204.44329339104732
 20
186.29553717535896
 40
0.1903721649904509
  0
CIRCLE
  8
_1-1_
  6
CONTINUOUS
 62
    7
 10
204.44329339104732
 20
185.35323684279984
 40
0.1903721649904509
  0
CIRCLE
  8
_1-1_
  6
CONTINUOUS
 62
    7
 10
206.86632311021961
 20
184.81478304476352
 40
0.1903721649904509
  0
CIRCLE
  8
_1-1_
  6
CONTINUOUS
 62
    7
 10
206.19326204866977
 20
187.37244477143159
 40
0.1903721649904509
  0
CIRCLE
  8
_1-1_
  6
CONTINUOUS
 62
    7
 10
204.71250791807432
 20
187.91089856946792
 40
0.1903721649904509
  0
CIRCLE
  8
_1-1_
  6
CONTINUOUS
 62
    7
 10
203.77021995750636
 20
188.44935236750425
 40
0.1903721649904509
  0
CIRCLE
  8
_1-1_
  6
CONTINUOUS
 62
    7
 10
205.78941551414698
 20
188.58395963101773
 40
0.1903721649904509
  0
CIRCLE
  8
_1-1_
  6
CONTINUOUS
 62
    7
 10
210.50091717694258
 20
184.94940268026818
 40
0.1903721649904509
  0
CIRCLE
  8
_1-1_
  6
CONTINUOUS
 62
    7
 10
210.77013170396961
 20
183.87249508419552
 40
0.1903721649904509
  0
CIRCLE
  8
_1-1_
  6
CONTINUOUS
 62
    7
 10
212.25086109058279
 20
184.54555614574537
 40
0.1903721649904509
  0
CIRCLE
  8
_1-1_
  6
CONTINUOUS
 62
    7
 10
211.57782477301521
 20
190.60316755964951
 40
0.1903721649904509
  0
CIRCLE
  8
_1-1_
  6
CONTINUOUS
 62
    7
 10
211.84703930004224
 20
189.52625996357688
 40
0.1903721649904509
  0
CIRCLE
  8
_1-1_
  6
CONTINUOUS
 62
    7
 10
213.32776868665542
 20
190.19932102512669
 40
0.1903721649904509
  0
CIRCLE
  8
_1-1_
  6
CONTINUOUS
 62
    7
 10
201.88563166437925
 20
194.91078557194891
 40
0.1903721649904509
  0
CIRCLE
  8
_1-1_
  6
CONTINUOUS
 62
    7
 10
203.36636105099242
 20
196.83464256492823
 40
0.1903721649904509
  0
CIRCLE
  8
_1-1_
  6
CONTINUOUS
 62
    7
 10
198.92414814717063
 20
194.23772451039909
 40
0.1903721649904509
  0
CIRCLE
  8
_1-1_
  6
CONTINUOUS
 62
    7
 10
200.4048775337838
 20
194.91078557194891
 40
0.1903721649904509
  0
CIRCLE
  8
_1-1_
  6
CONTINUOUS
 62
    7
 10
200.53948479729732
 20
187.77627893396328
 40
0.1903721649904509
  0
CIRCLE
  8
_1-1_
  6
CONTINUOUS
 62
    7
 10
199.86642373574747
 20
185.08400994378169
 40
0.1903721649904509
  0
CIRCLE
  8
_1-1_
  6
CONTINUOUS
 62
    7
 10
199.73180410024284
 20
183.60325581318625
 40
0.1903721649904509
  0
CIRCLE
  8
_1-1_
  6
CONTINUOUS
 62
    7
 10
195.55881809543919
 20
184.54555614574537
 40
0.1903721649904509
  0
CIRCLE
  8
_1-1_
  6
CONTINUOUS
 62
    7
 10
185.19358866923565
 20
190.60316755964951
 40
0.1903721649904509
  0
CIRCLE
  8
_1-1_
  6
CONTINUOUS
 62
    7
 10
185.46280319626268
 20
189.52625996357688
 40
0.1903721649904509
  0
CIRCLE
  8
_1-1_
  6
CONTINUOUS
 62
    7
 10
186.94353258287586
 20
190.19932102512669
 40
0.1903721649904509
  0
ARC
  8
_1-1_
  6
CONTINUOUS
 62
    7
 10
197.51101932010135
 20
215.33767287795609
 40
0.8987746045396135
 50
7.3836669921875
 51
172.61633300781253
  0
CIRCLE
  8
_1-0_
  6
CONTINUOUS
 62
    7
 10
29.27997486011401
 20
98.008711531355573
 40
0.1330483926309121
  0
CIRCLE
  8
_1-0_
  6
CONTINUOUS
 62
    7
 10
32.473130097260338
 20
99.20614706503379
 40
0.1330483926309121
  0
CIRCLE
  8
_1-0_
  6
CONTINUOUS
 62
    7
 10
31.940936526736692
 20
97.609566353462839
 40
0.1330483926309121
  0
CIRCLE
  8
_1-0_
  6
CONTINUOUS
 62
    7
 10
30.610455693425365
 20
95.87993724926099
 40
0.1330483926309121
  0
CIRCLE
  8
_1-0_
  6
CONTINUOUS
 62
    7
 10
27.949494026802682
 20
95.613846649994727
 40
0.1330483926309121
  0
CIRCLE
  8
_1-0_
  6
CONTINUOUS
 62
    7
 10
29.413023252744949
 20
96.545179212415547
 40
0.1330483926309121
  0
CIRCLE
  8
_1-0_
  6
CONTINUOUS
 62
    7
 10
29.812168430637655
 20
98.407856709248321
 40
0.1330483926309121
  0
CIRCLE
  8
_1-0_
  6
CONTINUOUS
 62
    7
 10
33.138372060414895
 20
99.472237664300053
 40
0.1330483926309121
  0
CIRCLE
  8
_1-0_
  6
CONTINUOUS
 62
    7
 10
36.597620989825259
 20
100.40357641271643
 40
0.1330483926309121
  0
CIRCLE
  8
_1-0_
  6
CONTINUOUS
 62
    7
 10
41.121257060282943
 20
101.73405415302999
 40
0.1330483926309121
  0
CIRCLE
  8
_1-0_
  6
CONTINUOUS
 62
    7
 10
45.77794152337151
 20
103.19758647197003
 40
0.1330483926309121
  0
CIRCLE
  8
_1-0_
  6
CONTINUOUS
 62
    7
 10
50.035480808567343
 20
104.92721557617187
 40
0.1330483926309121
  0
CIRCLE
  8
_1-0_
  6
CONTINUOUS
 62
    7
 10
44.447457597062396
 20
104.39502200564823
 40
0.1330483926309121
  0
CIRCLE
  8
_1-0_
  6
CONTINUOUS
 62
    7
 10
40.456015097128386
 20
102.79844129407729
 40
0.1330483926309121
  0
CIRCLE
  8
_1-0_
  6
CONTINUOUS
 62
    7
 10
36.597620989825259
 20
99.20614706503379
 40
0.1330483926309121
  0
CIRCLE
  8
_1-0_
  6
CONTINUOUS
 62
    7
 10
33.803610930571693
 20
97.74261474609375
 40
0.1330483926309121
  0
CIRCLE
  8
_1-0_
  6
CONTINUOUS
 62
    7
 10
35.001043371252109
 20
100.53662480534734
 40
0.1330483926309121
  0
CIRCLE
  8
_1-0_
  6
CONTINUOUS
 62
    7
 10
35.932382119668489
 20
101.8671025456609
 40
0.1330483926309121
  0
CIRCLE
  8
_1-0_
  6
CONTINUOUS
 62
    7
 10
39.12553426381703
 20
102.00015093829181
 40
0.1330483926309121
  0
CIRCLE
  8
_1-0_
  6
CONTINUOUS
 62
    7
 10
39.25858265644797
 20
99.605286056930964
 40
0.1330483926309121
  0
CIRCLE
  8
_1-0_
  6
CONTINUOUS
 62
    7
 10
33.404465752678959
 20
100.93576998324008
 40
0.1330483926309121
  0
CIRCLE
  8
_1-0_
  6
CONTINUOUS
 62
    7
 10
41.387353845544766
 20
104.26197361301732
 40
0.1330483926309121
  0
CIRCLE
  8
_1-0_
  6
CONTINUOUS
 62
    7
 10
45.112699560216953
 20
105.85854195259714
 40
0.1330483926309121
  0
CIRCLE
  8
_1-0_
  6
CONTINUOUS
 62
    7
 10
47.507564441577813
 20
106.78988070101352
 40
0.1330483926309121
  0
CIRCLE
  8
_1-0_
  6
CONTINUOUS
 62
    7
 10
50.301574500831407
 20
107.85426784206082
 40
0.1330483926309121
  0
CIRCLE
  8
_1-0_
  6
CONTINUOUS
 62
    7
 10
54.426071579391902
 20
109.58389694626267
 40
0.1330483926309121
  0
CIRCLE
  8
_1-0_
  6
CONTINUOUS
 62
    7
 10
59.082752949482682
 20
111.57962283572635
 40
0.1330483926309121
  0
CIRCLE
  8
_1-0_
  6
CONTINUOUS
 62
    7
 10
56.9539786673881
 20
110.9143808725718
 40
0.1330483926309121
  0
CIRCLE
  8
_1-0_
  6
CONTINUOUS
 62
    7
 10
53.09558765308276
 20
109.58389694626267
 40
0.1330483926309121
  0
CIRCLE
  8
_1-0_
  6
CONTINUOUS
 62
    7
 10
52.829490867820937
 20
107.45512266416809
 40
0.1330483926309121
  0
CIRCLE
  8
_1-0_
  6
CONTINUOUS
 62
    7
 10
51.632055334142734
 20
105.72549355996622
 40
0.1330483926309121
  0
CIRCLE
  8
_1-0_
  6
CONTINUOUS
 62
    7
 10
49.370238845412814
 20
105.19331236143371
 40
0.1330483926309121
  0
CIRCLE
  8
_1-0_
  6
CONTINUOUS
 62
    7
 10
47.241470749313777
 20
104.52807039827914
 40
0.1330483926309121
  0
CIRCLE
  8
_1-0_
  6
CONTINUOUS
 62
    7
 10
42.717831585858335
 20
102.26624772355363
 40
0.1330483926309121
  0
CIRCLE
  8
_1-0_
  6
CONTINUOUS
 62
    7
 10
42.45173789359427
 20
101.33490897513725
 40
0.1330483926309121
  0
CIRCLE
  8
_1-0_
  6
CONTINUOUS
 62
    7
 10
43.649170334274714
 20
104.39502200564823
 40
0.1330483926309121
  0
CIRCLE
  8
_1-0_
  6
CONTINUOUS
 62
    7
 10
38.593343786291172
 20
103.06453807933912
 40
0.1330483926309121
  0
CIRCLE
  8
_1-0_
  6
CONTINUOUS
 62
    7
 10
64.404676282728047
 20
112.24486479888091
 40
0.1330483926309121
  0
CIRCLE
  8
_1-0_
  6
CONTINUOUS
 62
    7
 10
67.863922119140625
 20
113.17620354729731
 40
0.1330483926309121
  0
CIRCLE
  8
_1-0_
  6
CONTINUOUS
 62
    7
 10
72.387561282596096
 20
114.5066751016153
 40
0.1330483926309121
  0
CIRCLE
  8
_1-0_
  6
CONTINUOUS
 62
    7
 10
67.863922119140625
 20
111.97876801361909
 40
0.1330483926309121
  0
CIRCLE
  8
_1-0_
  6
CONTINUOUS
 62
    7
 10
65.069918245882604
 20
110.51523569467906
 40
0.1330483926309121
  0
CIRCLE
  8
_1-0_
  6
CONTINUOUS
 62
    7
 10
66.267347593565262
 20
113.30925193992822
 40
0.1330483926309121
  0
CIRCLE
  8
_1-0_
  6
CONTINUOUS
 62
    7
 10
67.198686341981613
 20
114.63972349424621
 40
0.1330483926309121
  0
CIRCLE
  8
_1-0_
  6
CONTINUOUS
 62
    7
 10
70.39184157912797
 20
114.77277188687712
 40
0.1330483926309121
  0
CIRCLE
  8
_1-0_
  6
CONTINUOUS
 62
    7
 10
70.524889971758853
 20
112.37791319151184
 40
0.1330483926309121
  0
CIRCLE
  8
_1-0_
  6
CONTINUOUS
 62
    7
 10
64.67077306798987
 20
113.70839711782095
 40
0.1330483926309121
  0
CIRCLE
  8
_1-0_
  6
CONTINUOUS
 62
    7
 10
73.984135808171459
 20
115.03886867213895
 40
0.1330483926309121
  0
CIRCLE
  8
_1-0_
  6
CONTINUOUS
 62
    7
 10
73.718039022909636
 20
114.10752992372255
 40
0.1330483926309121
  0
CIRCLE
  8
_1-0_
  6
CONTINUOUS
 62
    7
 10
52.031200512035468
 20
107.85426784206082
 40
0.1330483926309121
  0
CIRCLE
  8
_1-0_
  6
CONTINUOUS
 62
    7
 10
55.490446348448074
 20
108.7856065904772
 40
0.1330483926309121
  0
CIRCLE
  8
_1-0_
  6
CONTINUOUS
 62
    7
 10
60.014085511903517
 20
110.11609051678633
 40
0.1330483926309121
  0
CIRCLE
  8
_1-0_
  6
CONTINUOUS
 62
    7
 10
55.490446348448074
 20
107.58818342879013
 40
0.1330483926309121
  0
CIRCLE
  8
_1-0_
  6
CONTINUOUS
 62
    7
 10
52.696442475190054
 20
106.12465110985009
 40
0.1330483926309121
  0
CIRCLE
  8
_1-0_
  6
CONTINUOUS
 62
    7
 10
53.893871822872683
 20
108.91865498310811
 40
0.1330483926309121
  0
CIRCLE
  8
_1-0_
  6
CONTINUOUS
 62
    7
 10
54.825210571289063
 20
110.24913890941724
 40
0.1330483926309121
  0
CIRCLE
  8
_1-0_
  6
CONTINUOUS
 62
    7
 10
58.018365808435391
 20
110.38218730204815
 40
0.1330483926309121
  0
CIRCLE
  8
_1-0_
  6
CONTINUOUS
 62
    7
 10
58.151414201066302
 20
107.98731623469173
 40
0.1330483926309121
  0
CIRCLE
  8
_1-0_
  6
CONTINUOUS
 62
    7
 10
52.297297297297291
 20
109.31780016100085
 40
0.1330483926309121
  0
CIRCLE
  8
_1-0_
  6
CONTINUOUS
 62
    7
 10
61.61066003747888
 20
110.64828408730997
 40
0.1330483926309121
  0
CIRCLE
  8
_1-0_
  6
CONTINUOUS
 62
    7
 10
61.344563252217057
 20
109.71694533889358
 40
0.1330483926309121
  0
CIRCLE
  8
_1-0_
  6
CONTINUOUS
 62
    7
 10
73.185851638381564
 20
117.43372736750423
 40
0.1330483926309121
  0
CIRCLE
  8
_1-0_
  6
CONTINUOUS
 62
    7
 10
76.645103660789687
 20
118.36506611592061
 40
0.1330483926309121
  0
CIRCLE
  8
_1-0_
  6
CONTINUOUS
 62
    7
 10
81.168736638249584
 20
119.69555004222974
 40
0.1330483926309121
  0
CIRCLE
  8
_1-0_
  6
CONTINUOUS
 62
    7
 10
76.645103660789687
 20
117.16764295423354
 40
0.1330483926309121
  0
CIRCLE
  8
_1-0_
  6
CONTINUOUS
 62
    7
 10
73.851087415540547
 20
115.7041106352935
 40
0.1330483926309121
  0
CIRCLE
  8
_1-0_
  6
CONTINUOUS
 62
    7
 10
75.04852294921875
 20
118.49811450855152
 40
0.1330483926309121
  0
CIRCLE
  8
_1-0_
  6
CONTINUOUS
 62
    7
 10
75.979861697635158
 20
119.82859843486065
 40
0.1330483926309121
  0
CIRCLE
  8
_1-0_
  6
CONTINUOUS
 62
    7
 10
79.173010748785885
 20
119.96164682749156
 40
0.1330483926309121
  0
CIRCLE
  8
_1-0_
  6
CONTINUOUS
 62
    7
 10
79.306059141416824
 20
117.56677576013514
 40
0.1330483926309121
  0
CIRCLE
  8
_1-0_
  6
CONTINUOUS
 62
    7
 10
73.451942237647813
 20
118.89725968644426
 40
0.1330483926309121
  0
CIRCLE
  8
_1-0_
  6
CONTINUOUS
 62
    7
 10
82.765311163824961
 20
120.22774361275339
 40
0.1330483926309121
  0
CIRCLE
  8
_1-0_
  6
CONTINUOUS
 62
    7
 10
82.499220564558698
 20
119.29640486433701
 40
0.1330483926309121
  0
CIRCLE
  8
_1-0_
  6
CONTINUOUS
 62
    7
 10
63.207240749049845
 20
113.84144551045186
 40
0.1330483926309121
  0
CIRCLE
  8
_1-0_
  6
CONTINUOUS
 62
    7
 10
66.666486585462422
 20
114.77278425886826
 40
0.1330483926309121
  0
CIRCLE
  8
_1-0_
  6
CONTINUOUS
 62
    7
 10
71.190125748917865
 20
116.10325581318624
 40
0.1330483926309121
  0
CIRCLE
  8
_1-0_
  6
CONTINUOUS
 62
    7
 10
66.666486585462422
 20
113.57534872519004
 40
0.1330483926309121
  0
CIRCLE
  8
_1-0_
  6
CONTINUOUS
 62
    7
 10
63.872482712204402
 20
112.11181640625
 40
0.1330483926309121
  0
CIRCLE
  8
_1-0_
  6
CONTINUOUS
 62
    7
 10
65.069912059887031
 20
114.90583265149917
 40
0.1330483926309121
  0
CIRCLE
  8
_1-0_
  6
CONTINUOUS
 62
    7
 10
66.001250808303439
 20
116.23630420581715
 40
0.1330483926309121
  0
CIRCLE
  8
_1-0_
  6
CONTINUOUS
 62
    7
 10
69.194406045449739
 20
116.36935259844806
 40
0.1330483926309121
  0
CIRCLE
  8
_1-0_
  6
CONTINUOUS
 62
    7
 10
69.327454438080679
 20
113.97449390308277
 40
0.1330483926309121
  0
CIRCLE
  8
_1-0_
  6
CONTINUOUS
 62
    7
 10
63.473337534311668
 20
115.3049778293919
 40
0.1330483926309121
  0
CIRCLE
  8
_1-0_
  6
CONTINUOUS
 62
    7
 10
72.786700274493228
 20
116.63544938370988
 40
0.1330483926309121
  0
CIRCLE
  8
_1-0_
  6
CONTINUOUS
 62
    7
 10
72.520603489231405
 20
115.7041106352935
 40
0.1330483926309121
  0
CIRCLE
  8
_1-0_
  6
CONTINUOUS
 62
    7
 10
88.619434253589532
 20
123.42090503589527
 40
0.1330483926309121
  0
CIRCLE
  8
_1-0_
  6
CONTINUOUS
 62
    7
 10
92.078680090002123
 20
124.35224378431167
 40
0.1330483926309121
  0
CIRCLE
  8
_1-0_
  6
CONTINUOUS
 62
    7
 10
96.602319253457566
 20
125.68271533862965
 40
0.1330483926309121
  0
CIRCLE
  8
_1-0_
  6
CONTINUOUS
 62
    7
 10
92.078680090002123
 20
123.15480825063345
 40
0.1330483926309121
  0
CIRCLE
  8
_1-0_
  6
CONTINUOUS
 62
    7
 10
89.284676216744089
 20
121.69127593169343
 40
0.1330483926309121
  0
CIRCLE
  8
_1-0_
  6
CONTINUOUS
 62
    7
 10
90.482105564426732
 20
124.48529217694258
 40
0.1330483926309121
  0
CIRCLE
  8
_1-0_
  6
CONTINUOUS
 62
    7
 10
91.413444312843126
 20
125.81576373126056
 40
0.1330483926309121
  0
CIRCLE
  8
_1-0_
  6
CONTINUOUS
 62
    7
 10
94.606599549989454
 20
125.94881212389147
 40
0.1330483926309121
  0
CIRCLE
  8
_1-0_
  6
CONTINUOUS
 62
    7
 10
94.739647942620365
 20
123.55395342852619
 40
0.1330483926309121
  0
CIRCLE
  8
_1-0_
  6
CONTINUOUS
 62
    7
 10
88.885531038851354
 20
124.88443735483531
 40
0.1330483926309121
  0
CIRCLE
  8
_1-0_
  6
CONTINUOUS
 62
    7
 10
98.198893779032943
 20
126.21490890915329
 40
0.1330483926309121
  0
CIRCLE
  8
_1-0_
  6
CONTINUOUS
 62
    7
 10
97.93279699377112
 20
125.28357016073691
 40
0.1330483926309121
  0
CIRCLE
  8
_1-0_
  6
CONTINUOUS
 62
    7
 10
78.507781157622475
 20
121.29213075380068
 40
0.1330483926309121
  0
CIRCLE
  8
_1-0_
  6
CONTINUOUS
 62
    7
 10
81.967026994035052
 20
122.22346950221707
 40
0.1330483926309121
  0
CIRCLE
  8
_1-0_
  6
CONTINUOUS
 62
    7
 10
86.490666157490509
 20
123.55395342852619
 40
0.1330483926309121
  0
CIRCLE
  8
_1-0_
  6
CONTINUOUS
 62
    7
 10
81.967026994035052
 20
121.02604634052999
 40
0.1330483926309121
  0
CIRCLE
  8
_1-0_
  6
CONTINUOUS
 62
    7
 10
79.173023120777032
 20
119.56251402158996
 40
0.1330483926309121
  0
CIRCLE
  8
_1-0_
  6
CONTINUOUS
 62
    7
 10
80.370452468459689
 20
122.35651789484798
 40
0.1330483926309121
  0
CIRCLE
  8
_1-0_
  6
CONTINUOUS
 62
    7
 10
81.30179121687604
 20
123.6870018211571
 40
0.1330483926309121
  0
CIRCLE
  8
_1-0_
  6
CONTINUOUS
 62
    7
 10
84.494946454022383
 20
123.82005021378801
 40
0.1330483926309121
  0
CIRCLE
  8
_1-0_
  6
CONTINUOUS
 62
    7
 10
84.627994846653294
 20
121.42517914643159
 40
0.1330483926309121
  0
CIRCLE
  8
_1-0_
  6
CONTINUOUS
 62
    7
 10
78.773877942884297
 20
122.75566307274072
 40
0.1330483926309121
  0
CIRCLE
  8
_1-0_
  6
CONTINUOUS
 62
    7
 10
88.087240683065886
 20
124.08614699904984
 40
0.1330483926309121
  0
CIRCLE
  8
_1-0_
  6
CONTINUOUS
 62
    7
 10
87.821143897804063
 20
123.15480825063345
 40
0.1330483926309121
  0
CIRCLE
  8
_1-0_
  6
CONTINUOUS
 62
    7
 10
107.11312371331293
 20
133.26646134660052
 40
0.1330483926309121
  0
CIRCLE
  8
_1-0_
  6
CONTINUOUS
 62
    7
 10
110.57236954972551
 20
134.1978000950169
 40
0.1330483926309121
  0
CIRCLE
  8
_1-0_
  6
CONTINUOUS
 62
    7
 10
115.09601489917652
 20
135.52828402132602
 40
0.1330483926309121
  0
CIRCLE
  8
_1-0_
  6
CONTINUOUS
 62
    7
 10
110.57236954972551
 20
133.00037693332982
 40
0.1330483926309121
  0
CIRCLE
  8
_1-0_
  6
CONTINUOUS
 62
    7
 10
107.77836567646749
 20
131.53684461438979
 40
0.1330483926309121
  0
CIRCLE
  8
_1-0_
  6
CONTINUOUS
 62
    7
 10
108.97578883815457
 20
134.33084848764781
 40
0.1330483926309121
  0
CIRCLE
  8
_1-0_
  6
CONTINUOUS
 62
    7
 10
109.90712758657095
 20
135.66133241395693
 40
0.1330483926309121
  0
CIRCLE
  8
_1-0_
  6
CONTINUOUS
 62
    7
 10
113.10028900971284
 20
135.79438080658784
 40
0.1330483926309121
  0
CIRCLE
  8
_1-0_
  6
CONTINUOUS
 62
    7
 10
113.23333740234375
 20
133.39950973923143
 40
0.1330483926309121
  0
CIRCLE
  8
_1-0_
  6
CONTINUOUS
 62
    7
 10
107.37922049857475
 20
134.72999366554055
 40
0.1330483926309121
  0
CIRCLE
  8
_1-0_
  6
CONTINUOUS
 62
    7
 10
116.69258323875634
 20
136.06047759184966
 40
0.1330483926309121
  0
CIRCLE
  8
_1-0_
  6
CONTINUOUS
 62
    7
 10
116.42648645349452
 20
135.12913884343328
 40
0.1330483926309121
  0
CIRCLE
  8
_1-0_
  6
CONTINUOUS
 62
    7
 10
94.473551157358543
 20
126.74709010768582
 40
0.1330483926309121
  0
CIRCLE
  8
_1-0_
  6
CONTINUOUS
 62
    7
 10
97.93279699377112
 20
127.6784288561022
 40
0.1330483926309121
  0
CIRCLE
  8
_1-0_
  6
CONTINUOUS
 62
    7
 10
102.45643615722656
 20
129.00891278241133
 40
0.1330483926309121
  0
CIRCLE
  8
_1-0_
  6
CONTINUOUS
 62
    7
 10
97.93279699377112
 20
126.48100569441513
 40
0.1330483926309121
  0
CIRCLE
  8
_1-0_
  6
CONTINUOUS
 62
    7
 10
95.1387931205131
 20
125.01747337547509
 40
0.1330483926309121
  0
CIRCLE
  8
_1-0_
  6
CONTINUOUS
 62
    7
 10
96.336222468195743
 20
127.81147724873311
 40
0.1330483926309121
  0
CIRCLE
  8
_1-0_
  6
CONTINUOUS
 62
    7
 10
97.267561216612123
 20
129.14196117504224
 40
0.1330483926309121
  0
CIRCLE
  8
_1-0_
  6
CONTINUOUS
 62
    7
 10
100.46071645375845
 20
129.27500956767315
 40
0.1330483926309121
  0
CIRCLE
  8
_1-0_
  6
CONTINUOUS
 62
    7
 10
100.59376484638936
 20
126.88013850031673
 40
0.1330483926309121
  0
CIRCLE
  8
_1-0_
  6
CONTINUOUS
 62
    7
 10
94.739647942620365
 20
128.21062242662586
 40
0.1330483926309121
  0
CIRCLE
  8
_1-0_
  6
CONTINUOUS
 62
    7
 10
104.05301068280195
 20
129.54110635293497
 40
0.1330483926309121
  0
CIRCLE
  8
_1-0_
  6
CONTINUOUS
 62
    7
 10
103.78691389754012
 20
128.60976760451859
 40
0.1330483926309121
  0
CIRCLE
  8
_1-0_
  6
CONTINUOUS
 62
    7
 10
116.42648645349452
 20
137.65705830342063
 40
0.1330483926309121
  0
CIRCLE
  8
_1-0_
  6
CONTINUOUS
 62
    7
 10
119.8857322899071
 20
138.58839705183701
 40
0.1330483926309121
  0
CIRCLE
  8
_1-0_
  6
CONTINUOUS
 62
    7
 10
124.40937763935811
 20
139.918868606155
 40
0.1330483926309121
  0
CIRCLE
  8
_1-0_
  6
CONTINUOUS
 62
    7
 10
119.8857322899071
 20
137.3909615181588
 40
0.1330483926309121
  0
CIRCLE
  8
_1-0_
  6
CONTINUOUS
 62
    7
 10
117.09172841664908
 20
135.92742919921875
 40
0.1330483926309121
  0
CIRCLE
  8
_1-0_
  6
CONTINUOUS
 62
    7
 10
118.28915157833616
 20
138.72144544446792
 40
0.1330483926309121
  0
CIRCLE
  8
_1-0_
  6
CONTINUOUS
 62
    7
 10
119.22049032675254
 20
140.05191699878591
 40
0.1330483926309121
  0
CIRCLE
  8
_1-0_
  6
CONTINUOUS
 62
    7
 10
122.41365174989443
 20
140.18496539141682
 40
0.1330483926309121
  0
CIRCLE
  8
_1-0_
  6
CONTINUOUS
 62
    7
 10
122.54670014252534
 20
137.79010669605154
 40
0.1330483926309121
  0
CIRCLE
  8
_1-0_
  6
CONTINUOUS
 62
    7
 10
116.69258323875634
 20
139.12059062236065
 40
0.1330483926309121
  0
CIRCLE
  8
_1-0_
  6
CONTINUOUS
 62
    7
 10
126.00594597893793
 20
140.45106217667865
 40
0.1330483926309121
  0
CIRCLE
  8
_1-0_
  6
CONTINUOUS
 62
    7
 10
125.73984919367611
 20
139.51972342826227
 40
0.1330483926309121
  0
CIRCLE
  8
_1-0_
  6
CONTINUOUS
 62
    7
 10
125.34070401578337
 20
140.4510498046875
 40
0.1330483926309121
  0
CIRCLE
  8
_1-0_
  6
CONTINUOUS
 62
    7
 10
128.79994985219597
 20
141.38238855310388
 40
0.1330483926309121
  0
CIRCLE
  8
_1-0_
  6
CONTINUOUS
 62
    7
 10
133.32359520164698
 20
142.71287247941302
 40
0.1330483926309121
  0
CIRCLE
  8
_1-0_
  6
CONTINUOUS
 62
    7
 10
128.79994985219597
 20
140.18496539141682
 40
0.1330483926309121
  0
CIRCLE
  8
_1-0_
  6
CONTINUOUS
 62
    7
 10
126.00594597893793
 20
138.72143307247677
 40
0.1330483926309121
  0
CIRCLE
  8
_1-0_
  6
CONTINUOUS
 62
    7
 10
127.203369140625
 20
141.51543694573479
 40
0.1330483926309121
  0
CIRCLE
  8
_1-0_
  6
CONTINUOUS
 62
    7
 10
128.13470788904138
 20
142.84592087204393
 40
0.1330483926309121
  0
CIRCLE
  8
_1-0_
  6
CONTINUOUS
 62
    7
 10
131.32786931218328
 20
142.97896926467484
 40
0.1330483926309121
  0
CIRCLE
  8
_1-0_
  6
CONTINUOUS
 62
    7
 10
131.46091770481419
 20
140.58409819731841
 40
0.1330483926309121
  0
CIRCLE
  8
_1-0_
  6
CONTINUOUS
 62
    7
 10
125.6068008010452
 20
141.91458212362755
 40
0.1330483926309121
  0
CIRCLE
  8
_1-0_
  6
CONTINUOUS
 62
    7
 10
134.92016354122677
 20
143.24506604993667
 40
0.1330483926309121
  0
CIRCLE
  8
_1-0_
  6
CONTINUOUS
 62
    7
 10
134.65406675596495
 20
142.31372730152029
 40
0.1330483926309121
  0
CIRCLE
  8
_1-0_
  6
CONTINUOUS
 62
    7
 10
140.37516001108531
 20
148.30090496991133
 40
0.1330483926309121
  0
CIRCLE
  8
_1-0_
  6
CONTINUOUS
 62
    7
 10
143.83440584749789
 20
149.23224371832771
 40
0.1330483926309121
  0
CIRCLE
  8
_1-0_
  6
CONTINUOUS
 62
    7
 10
148.35803882495779
 20
150.5627152726457
 40
0.1330483926309121
  0
CIRCLE
  8
_1-0_
  6
CONTINUOUS
 62
    7
 10
143.83440584749789
 20
148.03480818464951
 40
0.1330483926309121
  0
CIRCLE
  8
_1-0_
  6
CONTINUOUS
 62
    7
 10
141.04038960224875
 20
146.57127586570948
 40
0.1330483926309121
  0
CIRCLE
  8
_1-0_
  6
CONTINUOUS
 62
    7
 10
142.23782513592695
 20
149.36529211095862
 40
0.1330483926309121
  0
CIRCLE
  8
_1-0_
  6
CONTINUOUS
 62
    7
 10
143.16916388434333
 20
150.69576366527662
 40
0.1330483926309121
  0
CIRCLE
  8
_1-0_
  6
CONTINUOUS
 62
    7
 10
146.36231293549409
 20
150.82881205790753
 40
0.1330483926309121
  0
CIRCLE
  8
_1-0_
  6
CONTINUOUS
 62
    7
 10
146.495361328125
 20
148.43395336254224
 40
0.1330483926309121
  0
CIRCLE
  8
_1-0_
  6
CONTINUOUS
 62
    7
 10
140.64124442435602
 20
149.76443728885135
 40
0.1330483926309121
  0
CIRCLE
  8
_1-0_
  6
CONTINUOUS
 62
    7
 10
149.95461953652872
 20
151.09490884316935
 40
0.1330483926309121
  0
CIRCLE
  8
_1-0_
  6
CONTINUOUS
 62
    7
 10
149.6885227512669
 20
150.16357009475297
 40
0.1330483926309121
  0
CIRCLE
  8
_1-0_
  6
CONTINUOUS
 62
    7
 10
133.05749841638513
 20
143.6442112278294
 40
0.1330483926309121
  0
CIRCLE
  8
_1-0_
  6
CONTINUOUS
 62
    7
 10
136.51674425279774
 20
144.57554997624578
 40
0.1330483926309121
  0
CIRCLE
  8
_1-0_
  6
CONTINUOUS
 62
    7
 10
141.0403772302576
 20
145.9060339025549
 40
0.1330483926309121
  0
CIRCLE
  8
_1-0_
  6
CONTINUOUS
 62
    7
 10
136.51674425279774
 20
143.3781268145587
 40
0.1330483926309121
  0
CIRCLE
  8
_1-0_
  6
CONTINUOUS
 62
    7
 10
133.72274037953972
 20
141.91459449561867
 40
0.1330483926309121
  0
CIRCLE
  8
_1-0_
  6
CONTINUOUS
 62
    7
 10
134.92017591321792
 20
144.70859836887669
 40
0.1330483926309121
  0
CIRCLE
  8
_1-0_
  6
CONTINUOUS
 62
    7
 10
135.8515146616343
 20
146.03908229518581
 40
0.1330483926309121
  0
CIRCLE
  8
_1-0_
  6
CONTINUOUS
 62
    7
 10
139.04466371278505
 20
146.17213068781672
 40
0.1330483926309121
  0
CIRCLE
  8
_1-0_
  6
CONTINUOUS
 62
    7
 10
139.17771210541596
 20
143.77725962046031
 40
0.1330483926309121
  0
CIRCLE
  8
_1-0_
  6
CONTINUOUS
 62
    7
 10
133.32359520164698
 20
145.10774354676943
 40
0.1330483926309121
  0
CIRCLE
  8
_1-0_
  6
CONTINUOUS
 62
    7
 10
142.63695794182854
 20
146.43822747307857
 40
0.1330483926309121
  0
CIRCLE
  8
_1-0_
  6
CONTINUOUS
 62
    7
 10
142.37086115656672
 20
145.50688872466216
 40
0.1330483926309121
  0
CIRCLE
  8
_1-0_
  6
CONTINUOUS
 62
    7
 10
157.00615960198482
 20
154.82025146484375
 40
0.1330483926309121
  0
CIRCLE
  8
_1-0_
  6
CONTINUOUS
 62
    7
 10
160.4654054383974
 20
155.75159021326013
 40
0.1330483926309121
  0
CIRCLE
  8
_1-0_
  6
CONTINUOUS
 62
    7
 10
164.98903841585727
 20
157.08207413956927
 40
0.1330483926309121
  0
CIRCLE
  8
_1-0_
  6
CONTINUOUS
 62
    7
 10
160.4654054383974
 20
154.55416705157307
 40
0.1330483926309121
  0
CIRCLE
  8
_1-0_
  6
CONTINUOUS
 62
    7
 10
157.67138919314823
 20
153.09063473263302
 40
0.1330483926309121
  0
CIRCLE
  8
_1-0_
  6
CONTINUOUS
 62
    7
 10
158.86882472682643
 20
155.88463860589107
 40
0.1330483926309121
  0
CIRCLE
  8
_1-0_
  6
CONTINUOUS
 62
    7
 10
159.80016347524284
 20
157.21512253220018
 40
0.1330483926309121
  0
CIRCLE
  8
_1-0_
  6
CONTINUOUS
 62
    7
 10
162.99331252639359
 20
157.34817092483109
 40
0.1330483926309121
  0
CIRCLE
  8
_1-0_
  6
CONTINUOUS
 62
    7
 10
163.12636091902451
 20
154.95329985747466
 40
0.1330483926309121
  0
CIRCLE
  8
_1-0_
  6
CONTINUOUS
 62
    7
 10
157.2722440152555
 20
156.2837837837838
 40
0.1330483926309121
  0
CIRCLE
  8
_1-0_
  6
CONTINUOUS
 62
    7
 10
166.58561912742823
 20
157.61426771009292
 40
0.1330483926309121
  0
CIRCLE
  8
_1-0_
  6
CONTINUOUS
 62
    7
 10
166.31952234216641
 20
156.68292896167654
 40
0.1330483926309121
  0
CIRCLE
  8
_1-0_
  6
CONTINUOUS
 62
    7
 10
148.62413561021961
 20
151.89321157094597
 40
0.1330483926309121
  0
CIRCLE
  8
_1-0_
  6
CONTINUOUS
 62
    7
 10
152.08338144663219
 20
152.82455031936234
 40
0.1330483926309121
  0
CIRCLE
  8
_1-0_
  6
CONTINUOUS
 62
    7
 10
156.60701442409206
 20
154.15502187368034
 40
0.1330483926309121
  0
CIRCLE
  8
_1-0_
  6
CONTINUOUS
 62
    7
 10
152.08338144663219
 20
151.62711478568414
 40
0.1330483926309121
  0
CIRCLE
  8
_1-0_
  6
CONTINUOUS
 62
    7
 10
149.28936520138302
 20
150.16358246674409
 40
0.1330483926309121
  0
CIRCLE
  8
_1-0_
  6
CONTINUOUS
 62
    7
 10
150.48680073506125
 20
152.95759871199326
 40
0.1330483926309121
  0
CIRCLE
  8
_1-0_
  6
CONTINUOUS
 62
    7
 10
151.41813948347763
 20
154.28807026631125
 40
0.1330483926309121
  0
CIRCLE
  8
_1-0_
  6
CONTINUOUS
 62
    7
 10
154.61128853462839
 20
154.42111865894216
 40
0.1330483926309121
  0
CIRCLE
  8
_1-0_
  6
CONTINUOUS
 62
    7
 10
154.7443369272593
 20
152.02625996357688
 40
0.1330483926309121
  0
CIRCLE
  8
_1-0_
  6
CONTINUOUS
 62
    7
 10
148.89022002349029
 20
153.35674388988599
 40
0.1330483926309121
  0
CIRCLE
  8
_1-0_
  6
CONTINUOUS
 62
    7
 10
158.20359513566302
 20
154.68721544420399
 40
0.1330483926309121
  0
CIRCLE
  8
_1-0_
  6
CONTINUOUS
 62
    7
 10
157.9374983504012
 20
153.75587669578761
 40
0.1330483926309121
  0
CIRCLE
  8
_1-0_
  6
CONTINUOUS
 62
    7
 10
178.02778089368667
 20
164.93190456081081
 40
0.1330483926309121
  0
CIRCLE
  8
_1-0_
  6
CONTINUOUS
 62
    7
 10
181.48702673009925
 20
165.86324330922722
 40
0.1330483926309121
  0
CIRCLE
  8
_1-0_
  6
CONTINUOUS
 62
    7
 10
186.01065970755914
 20
167.19372723553633
 40
0.1330483926309121
  0
CIRCLE
  8
_1-0_
  6
CONTINUOUS
 62
    7
 10
181.48702673009925
 20
164.66582014754013
 40
0.1330483926309121
  0
CIRCLE
  8
_1-0_
  6
CONTINUOUS
 62
    7
 10
178.69301048485011
 20
163.20228782860011
 40
0.1330483926309121
  0
CIRCLE
  8
_1-0_
  6
CONTINUOUS
 62
    7
 10
179.89044601852831
 20
165.99629170185813
 40
0.1330483926309121
  0
CIRCLE
  8
_1-0_
  6
CONTINUOUS
 62
    7
 10
180.82178476694469
 20
167.32677562816724
 40
0.1330483926309121
  0
CIRCLE
  8
_1-0_
  6
CONTINUOUS
 62
    7
 10
184.01493381809544
 20
167.45982402079815
 40
0.1330483926309121
  0
CIRCLE
  8
_1-0_
  6
CONTINUOUS
 62
    7
 10
184.14798221072635
 20
165.06495295344172
 40
0.1330483926309121
  0
CIRCLE
  8
_1-0_
  6
CONTINUOUS
 62
    7
 10
178.29386530695737
 20
166.39543687975086
 40
0.1330483926309121
  0
CIRCLE
  8
_1-0_
  6
CONTINUOUS
 62
    7
 10
187.60724041913008
 20
167.72592080605997
 40
0.1330483926309121
  0
CIRCLE
  8
_1-0_
  6
CONTINUOUS
 62
    7
 10
187.34114363386826
 20
166.79458205764359
 40
0.1330483926309121
  0
CIRCLE
  8
_1-0_
  6
CONTINUOUS
 62
    7
 10
166.45259547877956
 20
159.21084842166385
 40
0.1330483926309121
  0
CIRCLE
  8
_1-0_
  6
CONTINUOUS
 62
    7
 10
169.91184131519216
 20
160.14218717008023
 40
0.1330483926309121
  0
CIRCLE
  8
_1-0_
  6
CONTINUOUS
 62
    7
 10
174.43547429265203
 20
161.47267109638938
 40
0.1330483926309121
  0
CIRCLE
  8
_1-0_
  6
CONTINUOUS
 62
    7
 10
169.91184131519216
 20
158.94476400839318
 40
0.1330483926309121
  0
CIRCLE
  8
_1-0_
  6
CONTINUOUS
 62
    7
 10
167.117825069943
 20
157.48123168945312
 40
0.1330483926309121
  0
CIRCLE
  8
_1-0_
  6
CONTINUOUS
 62
    7
 10
168.3152606036212
 20
160.27523556271115
 40
0.1330483926309121
  0
CIRCLE
  8
_1-0_
  6
CONTINUOUS
 62
    7
 10
169.24659935203761
 20
161.60571948902029
 40
0.1330483926309121
  0
CIRCLE
  8
_1-0_
  6
CONTINUOUS
 62
    7
 10
172.43974840318836
 20
161.7387678816512
 40
0.1330483926309121
  0
CIRCLE
  8
_1-0_
  6
CONTINUOUS
 62
    7
 10
172.57279679581927
 20
159.34389681429477
 40
0.1330483926309121
  0
CIRCLE
  8
_1-0_
  6
CONTINUOUS
 62
    7
 10
166.71867989205026
 20
160.67438074060391
 40
0.1330483926309121
  0
CIRCLE
  8
_1-0_
  6
CONTINUOUS
 62
    7
 10
176.032055004223
 20
162.00486466691302
 40
0.1330483926309121
  0
CIRCLE
  8
_1-0_
  6
CONTINUOUS
 62
    7
 10
175.76595821896115
 20
161.07352591849664
 40
0.1330483926309121
  0
CIRCLE
  8
_1-0_
  6
CONTINUOUS
 62
    7
 10
188.40553077491555
 20
169.58859830289273
 40
0.1330483926309121
  0
CIRCLE
  8
_1-0_
  6
CONTINUOUS
 62
    7
 10
191.86477661132812
 20
170.51993705130914
 40
0.1330483926309121
  0
CIRCLE
  8
_1-0_
  6
CONTINUOUS
 62
    7
 10
196.38840958878802
 20
171.85042097761826
 40
0.1330483926309121
  0
CIRCLE
  8
_1-0_
  6
CONTINUOUS
 62
    7
 10
191.86477661132812
 20
169.32251388962206
 40
0.1330483926309121
  0
CIRCLE
  8
_1-0_
  6
CONTINUOUS
 62
    7
 10
189.07076036607899
 20
167.85898157068203
 40
0.1330483926309121
  0
CIRCLE
  8
_1-0_
  6
CONTINUOUS
 62
    7
 10
190.26819589975719
 20
170.65298544394005
 40
0.1330483926309121
  0
CIRCLE
  8
_1-0_
  6
CONTINUOUS
 62
    7
 10
191.19953464817357
 20
171.98346937024917
 40
0.1330483926309121
  0
CIRCLE
  8
_1-0_
  6
CONTINUOUS
 62
    7
 10
194.39268369932432
 20
172.11651776288008
 40
0.1330483926309121
  0
CIRCLE
  8
_1-0_
  6
CONTINUOUS
 62
    7
 10
194.52573209195523
 20
169.72164669552365
 40
0.1330483926309121
  0
CIRCLE
  8
_1-0_
  6
CONTINUOUS
 62
    7
 10
188.67161518818625
 20
171.05213062183279
 40
0.1330483926309121
  0
CIRCLE
  8
_1-0_
  6
CONTINUOUS
 62
    7
 10
197.98499030035896
 20
172.3826145481419
 40
0.1330483926309121
  0
CIRCLE
  8
_1-0_
  6
CONTINUOUS
 62
    7
 10
197.71889351509714
 20
171.45127579972552
 40
0.1330483926309121
  0
CIRCLE
  8
_1-0_
  6
CONTINUOUS
 62
    7
 10
170.57709565033784
 20
161.47267109638938
 40
0.1330483926309121
  0
CIRCLE
  8
_1-0_
  6
CONTINUOUS
 62
    7
 10
174.03634148675044
 20
162.40400984480576
 40
0.1330483926309121
  0
CIRCLE
  8
_1-0_
  6
CONTINUOUS
 62
    7
 10
178.55997446421031
 20
163.73448139912375
 40
0.1330483926309121
  0
CIRCLE
  8
_1-0_
  6
CONTINUOUS
 62
    7
 10
174.03634148675044
 20
161.20657431112755
 40
0.1330483926309121
  0
CIRCLE
  8
_1-0_
  6
CONTINUOUS
 62
    7
 10
171.24232524150128
 20
159.7430419921875
 40
0.1330483926309121
  0
CIRCLE
  8
_1-0_
  6
CONTINUOUS
 62
    7
 10
172.43976077517948
 20
162.53705823743667
 40
0.1330483926309121
  0
CIRCLE
  8
_1-0_
  6
CONTINUOUS
 62
    7
 10
173.37109952359586
 20
163.86752979175466
 40
0.1330483926309121
  0
CIRCLE
  8
_1-0_
  6
CONTINUOUS
 62
    7
 10
176.56424857474664
 20
164.00057818438557
 40
0.1330483926309121
  0
CIRCLE
  8
_1-0_
  6
CONTINUOUS
 62
    7
 10
176.69729696737755
 20
161.60571948902029
 40
0.1330483926309121
  0
CIRCLE
  8
_1-0_
  6
CONTINUOUS
 62
    7
 10
170.84318006360854
 20
162.9362034153294
 40
0.1330483926309121
  0
CIRCLE
  8
_1-0_
  6
CONTINUOUS
 62
    7
 10
180.15655517578125
 20
164.2666749696474
 40
0.1330483926309121
  0
CIRCLE
  8
_1-0_
  6
CONTINUOUS
 62
    7
 10
179.89045839051943
 20
163.33533622123102
 40
0.1330483926309121
  0
CIRCLE
  8
_1-0_
  6
CONTINUOUS
 62
    7
 10
99.482425998997044
 20
129.9809553816512
 40
0.1330483926309121
  0
CIRCLE
  8
_1-0_
  6
CONTINUOUS
 62
    7
 10
102.94167183540964
 20
130.91229413006758
 40
0.1330483926309121
  0
CIRCLE
  8
_1-0_
  6
CONTINUOUS
 62
    7
 10
107.46531718486065
 20
132.24277805637669
 40
0.1330483926309121
  0
CIRCLE
  8
_1-0_
  6
CONTINUOUS
 62
    7
 10
102.94167183540964
 20
129.7148709683805
 40
0.1330483926309121
  0
CIRCLE
  8
_1-0_
  6
CONTINUOUS
 62
    7
 10
100.14766796215162
 20
128.25133864944047
 40
0.1330483926309121
  0
CIRCLE
  8
_1-0_
  6
CONTINUOUS
 62
    7
 10
101.34509730983426
 20
131.04534252269849
 40
0.1330483926309121
  0
CIRCLE
  8
_1-0_
  6
CONTINUOUS
 62
    7
 10
102.27643605825064
 20
132.3758264490076
 40
0.1330483926309121
  0
CIRCLE
  8
_1-0_
  6
CONTINUOUS
 62
    7
 10
105.46959129539697
 20
132.50887484163852
 40
0.1330483926309121
  0
CIRCLE
  8
_1-0_
  6
CONTINUOUS
 62
    7
 10
105.60263968802788
 20
130.11400377428211
 40
0.1330483926309121
  0
CIRCLE
  8
_1-0_
  6
CONTINUOUS
 62
    7
 10
99.748522784258867
 20
131.44448770059122
 40
0.1330483926309121
  0
CIRCLE
  8
_1-0_
  6
CONTINUOUS
 62
    7
 10
109.06188552444046
 20
132.77497162690034
 40
0.1330483926309121
  0
CIRCLE
  8
_1-0_
  6
CONTINUOUS
 62
    7
 10
108.79578873917863
 20
131.84363287848396
 40
0.1330483926309121
  0
CIRCLE
  8
_1-0_
  6
CONTINUOUS
 62
    7
 10
111.60858566696579
 20
134.35433052681589
 40
0.1330483926309121
  0
CIRCLE
  8
_1-0_
  6
CONTINUOUS
 62
    7
 10
115.06783150337839
 20
135.28566927523227
 40
0.1330483926309121
  0
CIRCLE
  8
_1-0_
  6
CONTINUOUS
 62
    7
 10
119.5914768528294
 20
136.61615320154138
 40
0.1330483926309121
  0
CIRCLE
  8
_1-0_
  6
CONTINUOUS
 62
    7
 10
115.06783150337839
 20
134.08824611354518
 40
0.1330483926309121
  0
CIRCLE
  8
_1-0_
  6
CONTINUOUS
 62
    7
 10
112.27382763012037
 20
132.62471379460516
 40
0.1330483926309121
  0
CIRCLE
  8
_1-0_
  6
CONTINUOUS
 62
    7
 10
113.47125079180744
 20
135.41871766786318
 40
0.1330483926309121
  0
CIRCLE
  8
_1-0_
  6
CONTINUOUS
 62
    7
 10
114.40258954022383
 20
136.74920159417229
 40
0.1330483926309121
  0
CIRCLE
  8
_1-0_
  6
CONTINUOUS
 62
    7
 10
117.59575096336572
 20
136.88224998680323
 40
0.1330483926309121
  0
CIRCLE
  8
_1-0_
  6
CONTINUOUS
 62
    7
 10
117.72879935599663
 20
134.4873789194468
 40
0.1330483926309121
  0
CIRCLE
  8
_1-0_
  6
CONTINUOUS
 62
    7
 10
111.87468245222763
 20
135.81786284575591
 40
0.1330483926309121
  0
CIRCLE
  8
_1-0_
  6
CONTINUOUS
 62
    7
 10
121.18804519240922
 20
137.14834677206505
 40
0.1330483926309121
  0
CIRCLE
  8
_1-0_
  6
CONTINUOUS
 62
    7
 10
120.92194840714738
 20
136.21700802364865
 40
0.1330483926309121
  0
CIRCLE
  8
_1-0_
  6
CONTINUOUS
 62
    7
 10
202.25976067620357
 20
170.07852915171031
 40
0.1330483926309121
  0
CIRCLE
  8
_1-0_
  6
CONTINUOUS
 62
    7
 10
205.71900651261615
 20
169.81244473843961
 40
0.1330483926309121
  0
CIRCLE
  8
_1-0_
  6
CONTINUOUS
 62
    7
 10
204.38853495829815
 20
169.41329956054687
 40
0.1330483926309121
  0
CIRCLE
  8
_1-0_
  6
CONTINUOUS
 62
    7
 10
200.32977954761404
 20
172.43738535288219
 40
0.1330483926309121
  0
CIRCLE
  8
_1-0_
  6
CONTINUOUS
 62
    7
 10
203.78902538402662
 20
172.17130093961148
 40
0.1330483926309121
  0
CIRCLE
  8
_1-0_
  6
CONTINUOUS
 62
    7
 10
202.45855382970862
 20
171.77215576171875
 40
0.1330483926309121
  0
CIRCLE
  8
_1-0_
  6
CONTINUOUS
 62
    7
 10
205.90527921109586
 20
169.00631054027662
 40
0.1330483926309121
  0
CIRCLE
  8
_1-0_
  6
CONTINUOUS
 62
    7
 10
209.36452504750847
 20
168.74022612700591
 40
0.1330483926309121
  0
CIRCLE
  8
_1-0_
  6
CONTINUOUS
 62
    7
 10
208.03404112119932
 20
168.34108094911318
 40
0.1330483926309121
  0
CIRCLE
  8
_1-0_
  6
CONTINUOUS
 62
    7
 10
207.40638526710305
 20
166.43299824482688
 40
0.1330483926309121
  0
CIRCLE
  8
_1-0_
  6
CONTINUOUS
 62
    7
 10
210.86564347550677
 20
166.16691383155617
 40
0.1330483926309121
  0
CIRCLE
  8
_1-0_
  6
CONTINUOUS
 62
    7
 10
209.53515954919766
 20
165.76776865366344
 40
0.1330483926309121
  0
CIRCLE
  8
_1-0_
  6
CONTINUOUS
 62
    7
 10
207.19192917282518
 20
166.00412317224453
 40
0.1330483926309121
  0
CIRCLE
  8
_1-0_
  6
CONTINUOUS
 62
    7
 10
210.65116263724664
 20
165.73803875897383
 40
0.1330483926309121
  0
CIRCLE
  8
_1-0_
  6
CONTINUOUS
 62
    7
 10
209.32070345491977
 20
165.33889358108109
 40
0.1330483926309121
  0
CIRCLE
  8
_1-0_
  6
CONTINUOUS
 62
    7
 10
203.76085436021961
 20
167.71966057854732
 40
0.1330483926309121
  0
CIRCLE
  8
_1-0_
  6
CONTINUOUS
 62
    7
 10
207.22010019663219
 20
167.45357616527662
 40
0.1330483926309121
  0
CIRCLE
  8
_1-0_
  6
CONTINUOUS
 62
    7
 10
205.88962864231419
 20
167.05443098738388
 40
0.1330483926309121
  0
CIRCLE
  8
_1-0_
  6
CONTINUOUS
 62
    7
 10
208.04970406197214
 20
169.22075426256336
 40
0.1330483926309121
  0
CIRCLE
  8
_1-0_
  6
CONTINUOUS
 62
    7
 10
211.50893752639359
 20
168.95466984929266
 40
0.1330483926309121
  0
CIRCLE
  8
_1-0_
  6
CONTINUOUS
 62
    7
 10
210.17847834406675
 20
168.55552467139992
 40
0.1330483926309121
  0
CIRCLE
  8
_1-0_
  6
CONTINUOUS
 62
    7
 10
212.33855376372466
 20
166.21856689453125
 40
0.1330483926309121
  0
CIRCLE
  8
_1-0_
  6
CONTINUOUS
 62
    7
 10
215.79781197212839
 20
165.95248248126057
 40
0.1330483926309121
  0
CIRCLE
  8
_1-0_
  6
CONTINUOUS
 62
    7
 10
214.46732804581927
 20
165.55333730336784
 40
0.1330483926309121
  0
CIRCLE
  8
_1-0_
  6
CONTINUOUS
 62
    7
 10
220.48734097867401
 20
163.21636715450802
 40
0.1330483926309121
  0
CIRCLE
  8
_1-0_
  6
CONTINUOUS
 62
    7
 10
223.94659918707771
 20
162.95028274123734
 40
0.1330483926309121
  0
CIRCLE
  8
_1-0_
  6
CONTINUOUS
 62
    7
 10
222.61611526076859
 20
162.55113756334461
 40
0.1330483926309121
  0
CIRCLE
  8
_1-0_
  6
CONTINUOUS
 62
    7
 10
218.12849714949326
 20
162.57304835963893
 40
0.1330483926309121
  0
CIRCLE
  8
_1-0_
  6
CONTINUOUS
 62
    7
 10
221.58775535789698
 20
162.30696394636826
 40
0.1330483926309121
  0
CIRCLE
  8
_1-0_
  6
CONTINUOUS
 62
    7
 10
220.25727143158784
 20
161.90781876847552
 40
0.1330483926309121
  0
CIRCLE
  8
_1-0_
  6
CONTINUOUS
 62
    7
 10
214.26853489231419
 20
163.21636715450802
 40
0.1330483926309121
  0
CIRCLE
  8
_1-0_
  6
CONTINUOUS
 62
    7
 10
217.72779310071792
 20
162.95028274123734
 40
0.1330483926309121
  0
CIRCLE
  8
_1-0_
  6
CONTINUOUS
 62
    7
 10
216.3973091744088
 20
162.55113756334461
 40
0.1330483926309121
  0
CIRCLE
  8
_1-0_
  6
CONTINUOUS
 62
    7
 10
213.83964744774073
 20
165.57523572767104
 40
0.1330483926309121
  0
CIRCLE
  8
_1-0_
  6
CONTINUOUS
 62
    7
 10
217.29888091216216
 20
165.30915131440034
 40
0.1330483926309121
  0
CIRCLE
  8
_1-0_
  6
CONTINUOUS
 62
    7
 10
215.96842172983531
 20
164.9100061365076
 40
0.1330483926309121
  0
CIRCLE
  8
_1-0_
  6
CONTINUOUS
 62
    7
 10
217.4851536106419
 20
164.074142043655
 40
0.1330483926309121
  0
CIRCLE
  8
_1-0_
  6
CONTINUOUS
 62
    7
 10
220.94441181904563
 20
163.8080576303843
 40
0.1330483926309121
  0
CIRCLE
  8
_1-0_
  6
CONTINUOUS
 62
    7
 10
219.61392789273651
 20
163.40891245249156
 40
0.1330483926309121
  0
CIRCLE
  8
_1-0_
  6
CONTINUOUS
 62
    7
 10
221.13068451752534
 20
162.35860463735222
 40
0.1330483926309121
  0
CIRCLE
  8
_1-0_
  6
CONTINUOUS
 62
    7
 10
224.58994272592906
 20
162.09252022408151
 40
0.1330483926309121
  0
CIRCLE
  8
_1-0_
  6
CONTINUOUS
 62
    7
 10
223.25945879961995
 20
161.69337504618878
 40
0.1330483926309121
  0
CIRCLE
  8
_1-0_
  6
CONTINUOUS
 62
    7
 10
225.41950947529563
 20
159.57084861961573
 40
0.1330483926309121
  0
CIRCLE
  8
_1-0_
  6
CONTINUOUS
 62
    7
 10
228.87876768369935
 20
159.30476420634503
 40
0.1330483926309121
  0
CIRCLE
  8
_1-0_
  6
CONTINUOUS
 62
    7
 10
227.54828375739021
 20
158.90561902845229
 40
0.1330483926309121
  0
CIRCLE
  8
_1-0_
  6
CONTINUOUS
 62
    7
 10
220.27290962837839
 20
159.99973606418919
 40
0.1330483926309121
  0
CIRCLE
  8
_1-0_
  6
CONTINUOUS
 62
    7
 10
223.73216783678211
 20
159.73365165091852
 40
0.1330483926309121
  0
CIRCLE
  8
_1-0_
  6
CONTINUOUS
 62
    7
 10
222.401683910473
 20
159.33450647302578
 40
0.1330483926309121
  0
CIRCLE
  8
_1-0_
  6
CONTINUOUS
 62
    7
 10
225.84842166385135
 20
160.21417978647594
 40
0.1330483926309121
  0
CIRCLE
  8
_1-0_
  6
CONTINUOUS
 62
    7
 10
229.30767987225508
 20
159.94809537320523
 40
0.1330483926309121
  0
CIRCLE
  8
_1-0_
  6
CONTINUOUS
 62
    7
 10
227.97719594594597
 20
159.5489501953125
 40
0.1330483926309121
  0
CIRCLE
  8
_1-0_
  6
CONTINUOUS
 62
    7
 10
228.42172158730997
 20
159.78529234190245
 40
0.1330483926309121
  0
CIRCLE
  8
_1-0_
  6
CONTINUOUS
 62
    7
 10
231.88095505173143
 20
159.51920792863177
 40
0.1330483926309121
  0
CIRCLE
  8
_1-0_
  6
CONTINUOUS
 62
    7
 10
230.55049586940459
 20
159.12006275073904
 40
0.1330483926309121
  0
CIRCLE
  8
_1-0_
  6
CONTINUOUS
 62
    7
 10
230.35170271589951
 20
156.56866125158362
 40
0.1330483926309121
  0
CIRCLE
  8
_1-0_
  6
CONTINUOUS
 62
    7
 10
233.81093618032097
 20
156.30257683831294
 40
0.1330483926309121
  0
CIRCLE
  8
_1-0_
  6
CONTINUOUS
 62
    7
 10
232.48047699799409
 20
155.90343166042018
 40
0.1330483926309121
  0
CIRCLE
  8
_1-0_
  6
CONTINUOUS
 62
    7
 10
229.06504038217906
 20
156.35421752929687
 40
0.1330483926309121
  0
CIRCLE
  8
_1-0_
  6
CONTINUOUS
 62
    7
 10
232.52429859058279
 20
156.0881331160262
 40
0.1330483926309121
  0
CIRCLE
  8
_1-0_
  6
CONTINUOUS
 62
    7
 10
231.19381466427367
 20
155.68898793813347
 40
0.1330483926309121
  0
CIRCLE
  8
_1-0_
  6
CONTINUOUS
 62
    7
 10
232.06722775021117
 20
156.56866125158362
 40
0.1330483926309121
  0
CIRCLE
  8
_1-0_
  6
CONTINUOUS
 62
    7
 10
235.52648595861487
 20
156.30257683831294
 40
0.1330483926309121
  0
CIRCLE
  8
_1-0_
  6
CONTINUOUS
 62
    7
 10
234.19600203230576
 20
155.90343166042018
 40
0.1330483926309121
  0
CIRCLE
  8
_1-0_
  6
CONTINUOUS
 62
    7
 10
227.99283414273651
 20
156.78310497387037
 40
0.1330483926309121
  0
CIRCLE
  8
_1-0_
  6
CONTINUOUS
 62
    7
 10
231.45209235114021
 20
156.51702056059966
 40
0.1330483926309121
  0
CIRCLE
  8
_1-0_
  6
CONTINUOUS
 62
    7
 10
230.12160842483109
 20
156.11787538270693
 40
0.1330483926309121
  0
CIRCLE
  8
_1-0_
  6
CONTINUOUS
 62
    7
 10
232.49611519478464
 20
158.06975493559966
 40
0.1330483926309121
  0
CIRCLE
  8
_1-0_
  6
CONTINUOUS
 62
    7
 10
235.95534865920609
 20
157.80367052232899
 40
0.1330483926309121
  0
CIRCLE
  8
_1-0_
  6
CONTINUOUS
 62
    7
 10
234.62488947687925
 20
157.40452534443625
 40
0.1330483926309121
  0
CIRCLE
  8
_1-0_
  6
CONTINUOUS
 62
    7
 10
237.21385234111065
 20
155.49645501214107
 40
0.1330483926309121
  0
CIRCLE
  8
_1-0_
  6
CONTINUOUS
 62
    7
 10
240.67308580553211
 20
155.23037059887037
 40
0.1330483926309121
  0
CIRCLE
  8
_1-0_
  6
CONTINUOUS
 62
    7
 10
239.34262662320526
 20
154.83122542097763
 40
0.1330483926309121
  0
CIRCLE
  8
_1-0_
  6
CONTINUOUS
 62
    7
 10
236.3560774519637
 20
154.85312384528083
 40
0.1330483926309121
  0
CIRCLE
  8
_1-0_
  6
CONTINUOUS
 62
    7
 10
239.81531091638516
 20
154.58703943201013
 40
0.1330483926309121
  0
CIRCLE
  8
_1-0_
  6
CONTINUOUS
 62
    7
 10
238.48485173405828
 20
154.1878942541174
 40
0.1330483926309121
  0
CIRCLE
  8
_1-0_
  6
CONTINUOUS
 62
    7
 10
236.3560774519637
 20
153.995361328125
 40
0.1330483926309121
  0
CIRCLE
  8
_1-0_
  6
CONTINUOUS
 62
    7
 10
239.81531091638516
 20
153.72927691485432
 40
0.1330483926309121
  0
CIRCLE
  8
_1-0_
  6
CONTINUOUS
 62
    7
 10
238.48485173405828
 20
153.33013173696159
 40
0.1330483926309121
  0
CIRCLE
  8
_1-0_
  6
CONTINUOUS
 62
    7
 10
243.43268317145271
 20
151.63649275496201
 40
0.1330483926309121
  0
CIRCLE
  8
_1-0_
  6
CONTINUOUS
 62
    7
 10
246.89194137985643
 20
151.3704083416913
 40
0.1330483926309121
  0
CIRCLE
  8
_1-0_
  6
CONTINUOUS
 62
    7
 10
245.56145745354732
 20
150.97126316379857
 40
0.1330483926309121
  0
CIRCLE
  8
_1-0_
  6
CONTINUOUS
 62
    7
 10
240.85935850401185
 20
151.8509241052576
 40
0.1330483926309121
  0
CIRCLE
  8
_1-0_
  6
CONTINUOUS
 62
    7
 10
244.31861671241555
 20
151.58483969198693
 40
0.1330483926309121
  0
CIRCLE
  8
_1-0_
  6
CONTINUOUS
 62
    7
 10
242.98813278610643
 20
151.18569451409419
 40
0.1330483926309121
  0
CIRCLE
  8
_1-0_
  6
CONTINUOUS
 62
    7
 10
241.9315647434544
 20
153.35203016126479
 40
0.1330483926309121
  0
CIRCLE
  8
_1-0_
  6
CONTINUOUS
 62
    7
 10
245.39082295185813
 20
153.08594574799409
 40
0.1330483926309121
  0
CIRCLE
  8
_1-0_
  6
CONTINUOUS
 62
    7
 10
244.06033902554901
 20
152.68680057010135
 40
0.1330483926309121
  0
CIRCLE
  8
_1-0_
  6
CONTINUOUS
 62
    7
 10
238.28605858055323
 20
152.70869899440456
 40
0.1330483926309121
  0
CIRCLE
  8
_1-0_
  6
CONTINUOUS
 62
    7
 10
241.74529204497466
 20
152.44261458113388
 40
0.1330483926309121
  0
CIRCLE
  8
_1-0_
  6
CONTINUOUS
 62
    7
 10
240.41483286264781
 20
152.04346940324115
 40
0.1330483926309121
  0
CIRCLE
  8
_1-0_
  6
CONTINUOUS
 62
    7
 10
244.74750415698904
 20
152.442626953125
 40
0.1330483926309121
  0
CIRCLE
  8
_1-0_
  6
CONTINUOUS
 62
    7
 10
249.43703316353464
 20
149.70651162637247
 40
0.1330483926309121
  0
CIRCLE
  8
_1-0_
  6
CONTINUOUS
 62
    7
 10
252.89629137193836
 20
149.44042721310177
 40
0.1330483926309121
  0
CIRCLE
  8
_1-0_
  6
CONTINUOUS
 62
    7
 10
251.56580744562925
 20
149.04128203520904
 40
0.1330483926309121
  0
CIRCLE
  8
_1-0_
  6
CONTINUOUS
 62
    7
 10
247.07818933435391
 20
149.06319283150339
 40
0.1330483926309121
  0
CIRCLE
  8
_1-0_
  6
CONTINUOUS
 62
    7
 10
250.5374475427576
 20
148.79710841823268
 40
0.1330483926309121
  0
CIRCLE
  8
_1-0_
  6
CONTINUOUS
 62
    7
 10
249.20696361644849
 20
148.39796324033995
 40
0.1330483926309121
  0
CIRCLE
  8
_1-0_
  6
CONTINUOUS
 62
    7
 10
246.67748528557857
 20
149.44042721310177
 40
0.1330483926309121
  0
CIRCLE
  8
_1-0_
  6
CONTINUOUS
 62
    7
 10
245.34700135926943
 20
149.04128203520904
 40
0.1330483926309121
  0
CIRCLE
  8
_1-0_
  6
CONTINUOUS
 62
    7
 10
246.24857309702281
 20
151.79929578626479
 40
0.1330483926309121
  0
CIRCLE
  8
_1-0_
  6
CONTINUOUS
 62
    7
 10
244.91811391469597
 20
151.40015060837206
 40
0.1330483926309121
  0
CIRCLE
  8
_1-0_
  6
CONTINUOUS
 62
    7
 10
246.43484579550255
 20
150.56428651551943
 40
0.1330483926309121
  0
CIRCLE
  8
_1-0_
  6
CONTINUOUS
 62
    7
 10
249.89410400390625
 20
150.29820210224875
 40
0.1330483926309121
  0
CIRCLE
  8
_1-0_
  6
CONTINUOUS
 62
    7
 10
248.56362007759714
 20
149.89905692435602
 40
0.1330483926309121
  0
CIRCLE
  8
_1-0_
  6
CONTINUOUS
 62
    7
 10
250.08037670238599
 20
148.84874910921664
 40
0.1330483926309121
  0
CIRCLE
  8
_1-0_
  6
CONTINUOUS
 62
    7
 10
253.53963491078972
 20
148.58266469594597
 40
0.1330483926309121
  0
CIRCLE
  8
_1-0_
  6
CONTINUOUS
 62
    7
 10
252.2091509844806
 20
148.18351951805323
 40
0.1330483926309121
  0
CIRCLE
  8
_1-0_
  6
CONTINUOUS
 62
    7
 10
254.36920166015625
 20
146.06099309148016
 40
0.1330483926309121
  0
CIRCLE
  8
_1-0_
  6
CONTINUOUS
 62
    7
 10
257.82845986856
 20
145.79490867820948
 40
0.1330483926309121
  0
CIRCLE
  8
_1-0_
  6
CONTINUOUS
 62
    7
 10
256.49797594225083
 20
145.39576350031672
 40
0.1330483926309121
  0
CIRCLE
  8
_1-0_
  6
CONTINUOUS
 62
    7
 10
249.22260181323904
 20
146.48988053605365
 40
0.1330483926309121
  0
CIRCLE
  8
_1-0_
  6
CONTINUOUS
 62
    7
 10
252.68186002164276
 20
146.22379612278294
 40
0.1330483926309121
  0
CIRCLE
  8
_1-0_
  6
CONTINUOUS
 62
    7
 10
251.35137609533362
 20
145.82465094489021
 40
0.1330483926309121
  0
CIRCLE
  8
_1-0_
  6
CONTINUOUS
 62
    7
 10
254.79811384871201
 20
146.70432425834039
 40
0.1330483926309121
  0
CIRCLE
  8
_1-0_
  6
CONTINUOUS
 62
    7
 10
258.25737205711573
 20
146.43823984506969
 40
0.1330483926309121
  0
CIRCLE
  8
_1-0_
  6
CONTINUOUS
 62
    7
 10
256.92688813080662
 20
146.03909466717695
 40
0.1330483926309121
  0
CIRCLE
  8
_1-0_
  6
CONTINUOUS
 62
    7
 10
257.37141377217063
 20
146.2754368137669
 40
0.1330483926309121
  0
CIRCLE
  8
_1-0_
  6
CONTINUOUS
 62
    7
 10
260.83064723659209
 20
146.0093524004962
 40
0.1330483926309121
  0
CIRCLE
  8
_1-0_
  6
CONTINUOUS
 62
    7
 10
259.50018805426521
 20
145.61020722260346
 40
0.1330483926309121
  0
CIRCLE
  8
_1-0_
  6
CONTINUOUS
 62
    7
 10
259.30139490076016
 20
143.05880572344807
 40
0.1330483926309121
  0
CIRCLE
  8
_1-0_
  6
CONTINUOUS
 62
    7
 10
262.76062836518162
 20
142.79272131017737
 40
0.1330483926309121
  0
CIRCLE
  8
_1-0_
  6
CONTINUOUS
 62
    7
 10
261.43016918285474
 20
142.39357613228464
 40
0.1330483926309121
  0
CIRCLE
  8
_1-0_
  6
CONTINUOUS
 62
    7
 10
258.01473256703969
 20
142.84436200116133
 40
0.1330483926309121
  0
CIRCLE
  8
_1-0_
  6
CONTINUOUS
 62
    7
 10
261.47399077544344
 20
142.57827758789062
 40
0.1330483926309121
  0
CIRCLE
  8
_1-0_
  6
CONTINUOUS
 62
    7
 10
260.14350684913433
 20
142.17913240999789
 40
0.1330483926309121
  0
CIRCLE
  8
_1-0_
  6
CONTINUOUS
 62
    7
 10
261.01691993507183
 20
143.05880572344807
 40
0.1330483926309121
  0
CIRCLE
  8
_1-0_
  6
CONTINUOUS
 62
    7
 10
264.47617814347552
 20
142.79272131017737
 40
0.1330483926309121
  0
CIRCLE
  8
_1-0_
  6
CONTINUOUS
 62
    7
 10
263.14569421716641
 20
142.39357613228464
 40
0.1330483926309121
  0
CIRCLE
  8
_1-0_
  6
CONTINUOUS
 62
    7
 10
256.94252632759714
 20
143.27324944573479
 40
0.1330483926309121
  0
CIRCLE
  8
_1-0_
  6
CONTINUOUS
 62
    7
 10
260.40178453600083
 20
143.00716503246412
 40
0.1330483926309121
  0
CIRCLE
  8
_1-0_
  6
CONTINUOUS
 62
    7
 10
259.07130060969172
 20
142.60801985457138
 40
0.1330483926309121
  0
CIRCLE
  8
_1-0_
  6
CONTINUOUS
 62
    7
 10
261.44580737964526
 20
144.55989940746412
 40
0.1330483926309121
  0
CIRCLE
  8
_1-0_
  6
CONTINUOUS
 62
    7
 10
264.90504084406672
 20
144.29381499419341
 40
0.1330483926309121
  0
CIRCLE
  8
_1-0_
  6
CONTINUOUS
 62
    7
 10
263.5745816617399
 20
143.89466981630068
 40
0.1330483926309121
  0
CIRCLE
  8
_1-0_
  6
CONTINUOUS
 62
    7
 10
266.1635445259713
 20
141.9865994840055
 40
0.1330483926309121
  0
CIRCLE
  8
_1-0_
  6
CONTINUOUS
 62
    7
 10
269.62277799039276
 20
141.72051507073479
 40
0.1330483926309121
  0
CIRCLE
  8
_1-0_
  6
CONTINUOUS
 62
    7
 10
268.29231880806589
 20
141.32136989284206
 40
0.1330483926309121
  0
CIRCLE
  8
_1-0_
  6
CONTINUOUS
 62
    7
 10
265.30576963682432
 20
141.34326831714529
 40
0.1330483926309121
  0
CIRCLE
  8
_1-0_
  6
CONTINUOUS
 62
    7
 10
268.76500310124578
 20
141.07718390387458
 40
0.1330483926309121
  0
CIRCLE
  8
_1-0_
  6
CONTINUOUS
 62
    7
 10
267.43454391891896
 20
140.67803872598185
 40
0.1330483926309121
  0
CIRCLE
  8
_1-0_
  6
CONTINUOUS
 62
    7
 10
265.30576963682432
 20
140.48550579998945
 40
0.1330483926309121
  0
CIRCLE
  8
_1-0_
  6
CONTINUOUS
 62
    7
 10
268.76500310124578
 20
140.21942138671875
 40
0.1330483926309121
  0
CIRCLE
  8
_1-0_
  6
CONTINUOUS
 62
    7
 10
267.43454391891896
 20
139.82027620882602
 40
0.1330483926309121
  0
CIRCLE
  8
_1-0_
  6
CONTINUOUS
 62
    7
 10
269.8090506888725
 20
138.34106857712206
 40
0.1330483926309121
  0
CIRCLE
  8
_1-0_
  6
CONTINUOUS
 62
    7
 10
270.88125692831505
 20
139.84217463312922
 40
0.1330483926309121
  0
CIRCLE
  8
_1-0_
  6
CONTINUOUS
 62
    7
 10
267.23575076541385
 20
139.19884346626901
 40
0.1330483926309121
  0
CIRCLE
  8
_1-0_
  6
CONTINUOUS
 62
    7
 10
270.69498422983531
 20
138.93275905299831
 40
0.1330483926309121
  0
CIRCLE
  8
_1-0_
  6
CONTINUOUS
 62
    7
 10
269.36452504750844
 20
138.53361387510557
 40
0.1330483926309121
  0
CIRCLE
  8
_1-0_
  6
CONTINUOUS
 62
    7
 10
288.7081579259924
 20
132.07060942778716
 40
0.1330483926309121
  0
CIRCLE
  8
_1-0_
  6
CONTINUOUS
 62
    7
 10
293.39768693253802
 20
129.33449410103464
 40
0.1330483926309121
  0
CIRCLE
  8
_1-0_
  6
CONTINUOUS
 62
    7
 10
296.85694514094172
 20
129.06840968776393
 40
0.1330483926309121
  0
CIRCLE
  8
_1-0_
  6
CONTINUOUS
 62
    7
 10
295.5264612146326
 20
128.6692645098712
 40
0.1330483926309121
  0
CIRCLE
  8
_1-0_
  6
CONTINUOUS
 62
    7
 10
291.03884310335729
 20
128.69117530616555
 40
0.1330483926309121
  0
CIRCLE
  8
_1-0_
  6
CONTINUOUS
 62
    7
 10
294.49810131176099
 20
128.42509089289484
 40
0.1330483926309121
  0
CIRCLE
  8
_1-0_
  6
CONTINUOUS
 62
    7
 10
293.16761738545188
 20
128.02594571500211
 40
0.1330483926309121
  0
CIRCLE
  8
_1-0_
  6
CONTINUOUS
 62
    7
 10
290.63813905458193
 20
129.06840968776393
 40
0.1330483926309121
  0
CIRCLE
  8
_1-0_
  6
CONTINUOUS
 62
    7
 10
289.30765512827281
 20
128.6692645098712
 40
0.1330483926309121
  0
CIRCLE
  8
_1-0_
  6
CONTINUOUS
 62
    7
 10
290.2092268660262
 20
131.42727826092695
 40
0.1330483926309121
  0
CIRCLE
  8
_1-0_
  6
CONTINUOUS
 62
    7
 10
288.87876768369932
 20
131.02813308303422
 40
0.1330483926309121
  0
CIRCLE
  8
_1-0_
  6
CONTINUOUS
 62
    7
 10
290.39549956450594
 20
130.19226899018159
 40
0.1330483926309121
  0
CIRCLE
  8
_1-0_
  6
CONTINUOUS
 62
    7
 10
293.85475777290964
 20
129.92618457691091
 40
0.1330483926309121
  0
CIRCLE
  8
_1-0_
  6
CONTINUOUS
 62
    7
 10
292.52427384660052
 20
129.52703939901818
 40
0.1330483926309121
  0
CIRCLE
  8
_1-0_
  6
CONTINUOUS
 62
    7
 10
294.04103047138938
 20
128.4767315838788
 40
0.1330483926309121
  0
CIRCLE
  8
_1-0_
  6
CONTINUOUS
 62
    7
 10
297.50028867979307
 20
128.21064717060813
 40
0.1330483926309121
  0
CIRCLE
  8
_1-0_
  6
CONTINUOUS
 62
    7
 10
296.16980475348396
 20
127.81150199271538
 40
0.1330483926309121
  0
CIRCLE
  8
_1-0_
  6
CONTINUOUS
 62
    7
 10
298.32985542915964
 20
125.68897556614232
 40
0.1330483926309121
  0
CIRCLE
  8
_1-0_
  6
CONTINUOUS
 62
    7
 10
301.78911363756339
 20
125.42289115287163
 40
0.1330483926309121
  0
CIRCLE
  8
_1-0_
  6
CONTINUOUS
 62
    7
 10
300.45862971125422
 20
125.02374597497889
 40
0.1330483926309121
  0
CIRCLE
  8
_1-0_
  6
CONTINUOUS
 62
    7
 10
293.1832555822424
 20
126.11786301071579
 40
0.1330483926309121
  0
CIRCLE
  8
_1-0_
  6
CONTINUOUS
 62
    7
 10
296.64251379064615
 20
125.8517785974451
 40
0.1330483926309121
  0
CIRCLE
  8
_1-0_
  6
CONTINUOUS
 62
    7
 10
295.31202986433703
 20
125.45263341955237
 40
0.1330483926309121
  0
CIRCLE
  8
_1-0_
  6
CONTINUOUS
 62
    7
 10
298.75876761771536
 20
126.33230673300254
 40
0.1330483926309121
  0
CIRCLE
  8
_1-0_
  6
CONTINUOUS
 62
    7
 10
302.21802582611912
 20
126.06622231973185
 40
0.1330483926309121
  0
CIRCLE
  8
_1-0_
  6
CONTINUOUS
 62
    7
 10
300.88754189981
 20
125.66707714183912
 40
0.1330483926309121
  0
CIRCLE
  8
_1-0_
  6
CONTINUOUS
 62
    7
 10
301.33206754117401
 20
125.90341928842906
 40
0.1330483926309121
  0
CIRCLE
  8
_1-0_
  6
CONTINUOUS
 62
    7
 10
304.79130100559547
 20
125.63733487515837
 40
0.1330483926309121
  0
CIRCLE
  8
_1-0_
  6
CONTINUOUS
 62
    7
 10
303.46084182326859
 20
125.23818969726562
 40
0.1330483926309121
  0
CIRCLE
  8
_1-0_
  6
CONTINUOUS
 62
    7
 10
303.26204866976354
 20
122.68678819811022
 40
0.1330483926309121
  0
CIRCLE
  8
_1-0_
  6
CONTINUOUS
 62
    7
 10
306.721282134185
 20
122.42070378483953
 40
0.1330483926309121
  0
CIRCLE
  8
_1-0_
  6
CONTINUOUS
 62
    7
 10
305.39082295185813
 20
122.0215586069468
 40
0.1330483926309121
  0
CIRCLE
  8
_1-0_
  6
CONTINUOUS
 62
    7
 10
301.97538633604307
 20
122.47234447582349
 40
0.1330483926309121
  0
CIRCLE
  8
_1-0_
  6
CONTINUOUS
 62
    7
 10
305.43464454444683
 20
122.2062600625528
 40
0.1330483926309121
  0
CIRCLE
  8
_1-0_
  6
CONTINUOUS
 62
    7
 10
304.10416061813771
 20
121.80711488466005
 40
0.1330483926309121
  0
CIRCLE
  8
_1-0_
  6
CONTINUOUS
 62
    7
 10
304.97757370407521
 20
122.68678819811022
 40
0.1330483926309121
  0
CIRCLE
  8
_1-0_
  6
CONTINUOUS
 62
    7
 10
308.43683191247891
 20
122.42070378483953
 40
0.1330483926309121
  0
CIRCLE
  8
_1-0_
  6
CONTINUOUS
 62
    7
 10
307.10634798616979
 20
122.0215586069468
 40
0.1330483926309121
  0
CIRCLE
  8
_1-0_
  6
CONTINUOUS
 62
    7
 10
300.90318009660052
 20
122.90123192039697
 40
0.1330483926309121
  0
CIRCLE
  8
_1-0_
  6
CONTINUOUS
 62
    7
 10
304.36243830500422
 20
122.63514750712628
 40
0.1330483926309121
  0
CIRCLE
  8
_1-0_
  6
CONTINUOUS
 62
    7
 10
303.0319543786951
 20
122.23600232923354
 40
0.1330483926309121
  0
CIRCLE
  8
_1-0_
  6
CONTINUOUS
 62
    7
 10
305.40646114864865
 20
124.18788188212628
 40
0.1330483926309121
  0
CIRCLE
  8
_1-0_
  6
CONTINUOUS
 62
    7
 10
308.8656946130701
 20
123.92179746885559
 40
0.1330483926309121
  0
CIRCLE
  8
_1-0_
  6
CONTINUOUS
 62
    7
 10
307.53523543074328
 20
123.52265229096284
 40
0.1330483926309121
  0
CIRCLE
  8
_1-0_
  6
CONTINUOUS
 62
    7
 10
310.12419829497469
 20
121.61458195866766
 40
0.1330483926309121
  0
CIRCLE
  8
_1-0_
  6
CONTINUOUS
 62
    7
 10
313.58343175939615
 20
121.34849754539697
 40
0.1330483926309121
  0
CIRCLE
  8
_1-0_
  6
CONTINUOUS
 62
    7
 10
312.25297257706927
 20
120.94935236750423
 40
0.1330483926309121
  0
CIRCLE
  8
_1-0_
  6
CONTINUOUS
 62
    7
 10
309.26642340582771
 20
120.97125079180744
 40
0.1330483926309121
  0
CIRCLE
  8
_1-0_
  6
CONTINUOUS
 62
    7
 10
312.72565687024917
 20
120.70516637853675
 40
0.1330483926309121
  0
CIRCLE
  8
_1-0_
  6
CONTINUOUS
 62
    7
 10
311.39519768792229
 20
120.30602120064401
 40
0.1330483926309121
  0
CIRCLE
  8
_1-0_
  6
CONTINUOUS
 62
    7
 10
309.26642340582771
 20
120.11348827465162
 40
0.1330483926309121
  0
CIRCLE
  8
_1-0_
  6
CONTINUOUS
 62
    7
 10
312.72565687024917
 20
119.84740386138093
 40
0.1330483926309121
  0
CIRCLE
  8
_1-0_
  6
CONTINUOUS
 62
    7
 10
311.39519768792229
 20
119.44825868348818
 40
0.1330483926309121
  0
CIRCLE
  8
_1-0_
  6
CONTINUOUS
 62
    7
 10
313.76970445787589
 20
117.96905105178421
 40
0.1330483926309121
  0
CIRCLE
  8
_1-0_
  6
CONTINUOUS
 62
    7
 10
314.84191069731844
 20
119.47015710779139
 40
0.1330483926309121
  0
CIRCLE
  8
_1-0_
  6
CONTINUOUS
 62
    7
 10
311.19640453441724
 20
118.82682594093117
 40
0.1330483926309121
  0
CIRCLE
  8
_1-0_
  6
CONTINUOUS
 62
    7
 10
314.6556379988387
 20
118.56074152766048
 40
0.1330483926309121
  0
CIRCLE
  8
_1-0_
  6
CONTINUOUS
 62
    7
 10
313.32517881651182
 20
118.16159634976775
 40
0.1330483926309121
  0
CIRCLE
  8
_1-0_
  6
CONTINUOUS
 62
    7
 10
264.90506558804901
 20
144.50825871648016
 40
0.1330483926309121
  0
CIRCLE
  8
_1-0_
  6
CONTINUOUS
 62
    7
 10
269.59459459459458
 20
141.77214338972763
 40
0.1330483926309121
  0
CIRCLE
  8
_1-0_
  6
CONTINUOUS
 62
    7
 10
273.05385280299834
 20
141.50605897645693
 40
0.1330483926309121
  0
CIRCLE
  8
_1-0_
  6
CONTINUOUS
 62
    7
 10
271.72336887668922
 20
141.10691379856419
 40
0.1330483926309121
  0
CIRCLE
  8
_1-0_
  6
CONTINUOUS
 62
    7
 10
267.23575076541385
 20
141.12882459485854
 40
0.1330483926309121
  0
CIRCLE
  8
_1-0_
  6
CONTINUOUS
 62
    7
 10
270.69500897381761
 20
140.86274018158784
 40
0.1330483926309121
  0
CIRCLE
  8
_1-0_
  6
CONTINUOUS
 62
    7
 10
269.36452504750844
 20
140.4635950036951
 40
0.1330483926309121
  0
CIRCLE
  8
_1-0_
  6
CONTINUOUS
 62
    7
 10
266.83504671663854
 20
141.50605897645693
 40
0.1330483926309121
  0
CIRCLE
  8
_1-0_
  6
CONTINUOUS
 62
    7
 10
265.50456279032943
 20
141.10691379856419
 40
0.1330483926309121
  0
CIRCLE
  8
_1-0_
  6
CONTINUOUS
 62
    7
 10
266.40613452808276
 20
143.86492754961995
 40
0.1330483926309121
  0
CIRCLE
  8
_1-0_
  6
CONTINUOUS
 62
    7
 10
265.07567534575594
 20
143.46578237172722
 40
0.1330483926309121
  0
CIRCLE
  8
_1-0_
  6
CONTINUOUS
 62
    7
 10
266.5924072265625
 20
142.62991827887458
 40
0.1330483926309121
  0
CIRCLE
  8
_1-0_
  6
CONTINUOUS
 62
    7
 10
270.05166543496625
 20
142.36383386560388
 40
0.1330483926309121
  0
CIRCLE
  8
_1-0_
  6
CONTINUOUS
 62
    7
 10
268.72118150865708
 20
141.96468868771115
 40
0.1330483926309121
  0
CIRCLE
  8
_1-0_
  6
CONTINUOUS
 62
    7
 10
270.23793813344594
 20
140.9143808725718
 40
0.1330483926309121
  0
CIRCLE
  8
_1-0_
  6
CONTINUOUS
 62
    7
 10
273.69719634184969
 20
140.64829645930109
 40
0.1330483926309121
  0
CIRCLE
  8
_1-0_
  6
CONTINUOUS
 62
    7
 10
272.36671241554058
 20
140.24915128140836
 40
0.1330483926309121
  0
CIRCLE
  8
_1-0_
  6
CONTINUOUS
 62
    7
 10
274.52676309121625
 20
138.12662485483531
 40
0.1330483926309121
  0
CIRCLE
  8
_1-0_
  6
CONTINUOUS
 62
    7
 10
277.98602129961995
 20
137.86054044156461
 40
0.1330483926309121
  0
CIRCLE
  8
_1-0_
  6
CONTINUOUS
 62
    7
 10
276.65553737331084
 20
137.46139526367188
 40
0.1330483926309121
  0
CIRCLE
  8
_1-0_
  6
CONTINUOUS
 62
    7
 10
269.38016324429901
 20
138.5555122994088
 40
0.1330483926309121
  0
CIRCLE
  8
_1-0_
  6
CONTINUOUS
 62
    7
 10
272.83942145270271
 20
138.2894278861381
 40
0.1330483926309121
  0
CIRCLE
  8
_1-0_
  6
CONTINUOUS
 62
    7
 10
271.50893752639359
 20
137.89028270824537
 40
0.1330483926309121
  0
CIRCLE
  8
_1-0_
  6
CONTINUOUS
 62
    7
 10
274.95567527977198
 20
138.76995602169552
 40
0.1330483926309121
  0
CIRCLE
  8
_1-0_
  6
CONTINUOUS
 62
    7
 10
278.41493348817568
 20
138.50387160842484
 40
0.1330483926309121
  0
CIRCLE
  8
_1-0_
  6
CONTINUOUS
 62
    7
 10
277.08444956186656
 20
138.10472643053211
 40
0.1330483926309121
  0
CIRCLE
  8
_1-0_
  6
CONTINUOUS
 62
    7
 10
277.52897520323057
 20
138.34106857712206
 40
0.1330483926309121
  0
CIRCLE
  8
_1-0_
  6
CONTINUOUS
 62
    7
 10
280.98820866765203
 20
138.07498416385135
 40
0.1330483926309121
  0
CIRCLE
  8
_1-0_
  6
CONTINUOUS
 62
    7
 10
279.65774948532521
 20
137.67583898595862
 40
0.1330483926309121
  0
CIRCLE
  8
_1-0_
  6
CONTINUOUS
 62
    7
 10
279.4589563318201
 20
135.12443748680323
 40
0.1330483926309121
  0
CIRCLE
  8
_1-0_
  6
CONTINUOUS
 62
    7
 10
282.91818979624156
 20
134.85835307353253
 40
0.1330483926309121
  0
CIRCLE
  8
_1-0_
  6
CONTINUOUS
 62
    7
 10
281.58773061391469
 20
134.45920789563979
 40
0.1330483926309121
  0
CIRCLE
  8
_1-0_
  6
CONTINUOUS
 62
    7
 10
278.17229399809969
 20
134.90999376451649
 40
0.1330483926309121
  0
CIRCLE
  8
_1-0_
  6
CONTINUOUS
 62
    7
 10
281.63155220650339
 20
134.64390935124578
 40
0.1330483926309121
  0
CIRCLE
  8
_1-0_
  6
CONTINUOUS
 62
    7
 10
280.30106828019427
 20
134.24476417335305
 40
0.1330483926309121
  0
CIRCLE
  8
_1-0_
  6
CONTINUOUS
 62
    7
 10
281.17448136613177
 20
135.12443748680323
 40
0.1330483926309121
  0
CIRCLE
  8
_1-0_
  6
CONTINUOUS
 62
    7
 10
284.63373957453547
 20
134.85835307353253
 40
0.1330483926309121
  0
CIRCLE
  8
_1-0_
  6
CONTINUOUS
 62
    7
 10
283.30325564822635
 20
134.45920789563979
 40
0.1330483926309121
  0
CIRCLE
  8
_1-0_
  6
CONTINUOUS
 62
    7
 10
277.10008775865708
 20
135.33888120908995
 40
0.1330483926309121
  0
CIRCLE
  8
_1-0_
  6
CONTINUOUS
 62
    7
 10
280.55934596706084
 20
135.07279679581927
 40
0.1330483926309121
  0
CIRCLE
  8
_1-0_
  6
CONTINUOUS
 62
    7
 10
279.22886204075172
 20
134.67365161792654
 40
0.1330483926309121
  0
CIRCLE
  8
_1-0_
  6
CONTINUOUS
 62
    7
 10
281.60336881070526
 20
136.62553117081927
 40
0.1330483926309121
  0
CIRCLE
  8
_1-0_
  6
CONTINUOUS
 62
    7
 10
285.06260227512672
 20
136.35944675754857
 40
0.1330483926309121
  0
CIRCLE
  8
_1-0_
  6
CONTINUOUS
 62
    7
 10
283.73214309279984
 20
135.96030157965583
 40
0.1330483926309121
  0
CIRCLE
  8
_1-0_
  6
CONTINUOUS
 62
    7
 10
286.32110595703125
 20
134.05223124736065
 40
0.1330483926309121
  0
CIRCLE
  8
_1-0_
  6
CONTINUOUS
 62
    7
 10
289.78033942145271
 20
133.78614683408995
 40
0.1330483926309121
  0
CIRCLE
  8
_1-0_
  6
CONTINUOUS
 62
    7
 10
288.44988023912583
 20
133.38700165619721
 40
0.1330483926309121
  0
CIRCLE
  8
_1-0_
  6
CONTINUOUS
 62
    7
 10
285.46333106788433
 20
133.40890008050042
 40
0.1330483926309121
  0
CIRCLE
  8
_1-0_
  6
CONTINUOUS
 62
    7
 10
288.92256453230578
 20
133.14281566722974
 40
0.1330483926309121
  0
CIRCLE
  8
_1-0_
  6
CONTINUOUS
 62
    7
 10
287.59210534997891
 20
132.74367048933701
 40
0.1330483926309121
  0
CIRCLE
  8
_1-0_
  6
CONTINUOUS
 62
    7
 10
285.46333106788433
 20
132.55113756334461
 40
0.1330483926309121
  0
CIRCLE
  8
_1-0_
  6
CONTINUOUS
 62
    7
 10
288.92256453230578
 20
132.28505315007391
 40
0.1330483926309121
  0
CIRCLE
  8
_1-0_
  6
CONTINUOUS
 62
    7
 10
287.59210534997891
 20
131.88590797218117
 40
0.1330483926309121
  0
CIRCLE
  8
_1-0_
  6
CONTINUOUS
 62
    7
 10
289.96661211993245
 20
130.40670034047722
 40
0.1330483926309121
  0
CIRCLE
  8
_1-0_
  6
CONTINUOUS
 62
    7
 10
291.038818359375
 20
131.90780639648437
 40
0.1330483926309121
  0
CIRCLE
  8
_1-0_
  6
CONTINUOUS
 62
    7
 10
287.39331219647386
 20
131.26447522962417
 40
0.1330483926309121
  0
CIRCLE
  8
_1-0_
  6
CONTINUOUS
 62
    7
 10
290.85254566089526
 20
130.99839081635346
 40
0.1330483926309121
  0
CIRCLE
  8
_1-0_
  6
CONTINUOUS
 62
    7
 10
289.52208647856844
 20
130.59924563846073
 40
0.1330483926309121
  0
CIRCLE
  8
_1-0_
  6
CONTINUOUS
 62
    7
 10
324.52002448004646
 20
116.20188532648861
 40
0.1330483926309121
  0
CIRCLE
  8
_1-0_
  6
CONTINUOUS
 62
    7
 10
329.20955348659209
 20
113.46576999973607
 40
0.1330483926309121
  0
CIRCLE
  8
_1-0_
  6
CONTINUOUS
 62
    7
 10
332.66881169499578
 20
113.19968558646538
 40
0.1330483926309121
  0
CIRCLE
  8
_1-0_
  6
CONTINUOUS
 62
    7
 10
331.33832776868667
 20
112.80054040857264
 40
0.1330483926309121
  0
CIRCLE
  8
_1-0_
  6
CONTINUOUS
 62
    7
 10
326.85070965741136
 20
112.82245120486698
 40
0.1330483926309121
  0
CIRCLE
  8
_1-0_
  6
CONTINUOUS
 62
    7
 10
330.30996786581505
 20
112.55636679159629
 40
0.1330483926309121
  0
CIRCLE
  8
_1-0_
  6
CONTINUOUS
 62
    7
 10
328.97948393950594
 20
112.15722161370356
 40
0.1330483926309121
  0
CIRCLE
  8
_1-0_
  6
CONTINUOUS
 62
    7
 10
326.45000560863599
 20
113.19968558646538
 40
0.1330483926309121
  0
CIRCLE
  8
_1-0_
  6
CONTINUOUS
 62
    7
 10
325.11952168232688
 20
112.80054040857264
 40
0.1330483926309121
  0
CIRCLE
  8
_1-0_
  6
CONTINUOUS
 62
    7
 10
326.02109342008026
 20
115.55855415962839
 40
0.1330483926309121
  0
CIRCLE
  8
_1-0_
  6
CONTINUOUS
 62
    7
 10
324.69063423775339
 20
115.15940898173565
 40
0.1330483926309121
  0
CIRCLE
  8
_1-0_
  6
CONTINUOUS
 62
    7
 10
326.20736611856
 20
114.32354488888303
 40
0.1330483926309121
  0
CIRCLE
  8
_1-0_
  6
CONTINUOUS
 62
    7
 10
329.6666243269637
 20
114.05746047561233
 40
0.1330483926309121
  0
CIRCLE
  8
_1-0_
  6
CONTINUOUS
 62
    7
 10
328.33614040065459
 20
113.6583152977196
 40
0.1330483926309121
  0
CIRCLE
  8
_1-0_
  6
CONTINUOUS
 62
    7
 10
329.85289702544344
 20
112.60800748258025
 40
0.1330483926309121
  0
CIRCLE
  8
_1-0_
  6
CONTINUOUS
 62
    7
 10
333.31215523384714
 20
112.34192306930954
 40
0.1330483926309121
  0
CIRCLE
  8
_1-0_
  6
CONTINUOUS
 62
    7
 10
331.98167130753802
 20
111.94277789141681
 40
0.1330483926309121
  0
CIRCLE
  8
_1-0_
  6
CONTINUOUS
 62
    7
 10
334.1417219832137
 20
109.82025146484375
 40
0.1330483926309121
  0
CIRCLE
  8
_1-0_
  6
CONTINUOUS
 62
    7
 10
337.6009801916174
 20
109.55416705157306
 40
0.1330483926309121
  0
CIRCLE
  8
_1-0_
  6
CONTINUOUS
 62
    7
 10
336.27049626530828
 20
109.15502187368033
 40
0.1330483926309121
  0
CIRCLE
  8
_1-0_
  6
CONTINUOUS
 62
    7
 10
328.99512213629646
 20
110.24913890941724
 40
0.1330483926309121
  0
CIRCLE
  8
_1-0_
  6
CONTINUOUS
 62
    7
 10
332.45438034470021
 20
109.98305449614654
 40
0.1330483926309121
  0
CIRCLE
  8
_1-0_
  6
CONTINUOUS
 62
    7
 10
331.12389641839104
 20
109.5839093182538
 40
0.1330483926309121
  0
CIRCLE
  8
_1-0_
  6
CONTINUOUS
 62
    7
 10
334.57063417176943
 20
110.46358263170397
 40
0.1330483926309121
  0
CIRCLE
  8
_1-0_
  6
CONTINUOUS
 62
    7
 10
338.02989238017318
 20
110.19749821843328
 40
0.1330483926309121
  0
CIRCLE
  8
_1-0_
  6
CONTINUOUS
 62
    7
 10
336.69940845386407
 20
109.79835304054055
 40
0.1330483926309121
  0
CIRCLE
  8
_1-0_
  6
CONTINUOUS
 62
    7
 10
337.14393409522808
 20
110.0346951871305
 40
0.1330483926309121
  0
CIRCLE
  8
_1-0_
  6
CONTINUOUS
 62
    7
 10
340.60316755964953
 20
109.76861077385981
 40
0.1330483926309121
  0
CIRCLE
  8
_1-0_
  6
CONTINUOUS
 62
    7
 10
339.27270837732266
 20
109.36946559596707
 40
0.1330483926309121
  0
CIRCLE
  8
_1-0_
  6
CONTINUOUS
 62
    7
 10
339.07391522381761
 20
106.81806409681167
 40
0.1330483926309121
  0
CIRCLE
  8
_1-0_
  6
CONTINUOUS
 62
    7
 10
342.53314868823907
 20
106.55197968354096
 40
0.1330483926309121
  0
CIRCLE
  8
_1-0_
  6
CONTINUOUS
 62
    7
 10
341.20268950591219
 20
106.15283450564823
 40
0.1330483926309121
  0
CIRCLE
  8
_1-0_
  6
CONTINUOUS
 62
    7
 10
337.78725289009714
 20
106.60362037452492
 40
0.1330483926309121
  0
CIRCLE
  8
_1-0_
  6
CONTINUOUS
 62
    7
 10
341.24651109850089
 20
106.33753596125423
 40
0.1330483926309121
  0
CIRCLE
  8
_1-0_
  6
CONTINUOUS
 62
    7
 10
339.91602717219172
 20
105.9383907833615
 40
0.1330483926309121
  0
CIRCLE
  8
_1-0_
  6
CONTINUOUS
 62
    7
 10
340.78944025812922
 20
106.81806409681167
 40
0.1330483926309121
  0
CIRCLE
  8
_1-0_
  6
CONTINUOUS
 62
    7
 10
344.24869846653297
 20
106.55197968354096
 40
0.1330483926309121
  0
CIRCLE
  8
_1-0_
  6
CONTINUOUS
 62
    7
 10
342.91821454022386
 20
106.15283450564823
 40
0.1330483926309121
  0
CIRCLE
  8
_1-0_
  6
CONTINUOUS
 62
    7
 10
336.71504665065459
 20
107.0325078190984
 40
0.1330483926309121
  0
CIRCLE
  8
_1-0_
  6
CONTINUOUS
 62
    7
 10
340.17430485905828
 20
106.76642340582771
 40
0.1330483926309121
  0
CIRCLE
  8
_1-0_
  6
CONTINUOUS
 62
    7
 10
338.84382093274917
 20
106.36727822793497
 40
0.1330483926309121
  0
CIRCLE
  8
_1-0_
  6
CONTINUOUS
 62
    7
 10
341.21832770270271
 20
108.31915778082771
 40
0.1330483926309121
  0
CIRCLE
  8
_1-0_
  6
CONTINUOUS
 62
    7
 10
344.67756116712417
 20
108.05307336755702
 40
0.1330483926309121
  0
CIRCLE
  8
_1-0_
  6
CONTINUOUS
 62
    7
 10
343.34710198479729
 20
107.65392818966428
 40
0.1330483926309121
  0
CIRCLE
  8
_1-0_
  6
CONTINUOUS
 62
    7
 10
345.93606484902875
 20
105.74585785736909
 40
0.1330483926309121
  0
CIRCLE
  8
_1-0_
  6
CONTINUOUS
 62
    7
 10
349.39529831345021
 20
105.4797734440984
 40
0.1330483926309121
  0
CIRCLE
  8
_1-0_
  6
CONTINUOUS
 62
    7
 10
348.06483913112334
 20
105.08062826620566
 40
0.1330483926309121
  0
CIRCLE
  8
_1-0_
  6
CONTINUOUS
 62
    7
 10
345.07828995988177
 20
105.10252669050887
 40
0.1330483926309121
  0
CIRCLE
  8
_1-0_
  6
CONTINUOUS
 62
    7
 10
348.53752342430323
 20
104.83644227723818
 40
0.1330483926309121
  0
CIRCLE
  8
_1-0_
  6
CONTINUOUS
 62
    7
 10
347.20706424197635
 20
104.43729709934544
 40
0.1330483926309121
  0
CIRCLE
  8
_1-0_
  6
CONTINUOUS
 62
    7
 10
345.07828995988177
 20
104.24476417335305
 40
0.1330483926309121
  0
CIRCLE
  8
_1-0_
  6
CONTINUOUS
 62
    7
 10
348.53752342430323
 20
103.97867976008236
 40
0.1330483926309121
  0
CIRCLE
  8
_1-0_
  6
CONTINUOUS
 62
    7
 10
347.20706424197635
 20
103.57953458218962
 40
0.1330483926309121
  0
CIRCLE
  8
_1-0_
  6
CONTINUOUS
 62
    7
 10
349.5815710119299
 20
102.10032695048565
 40
0.1330483926309121
  0
CIRCLE
  8
_1-0_
  6
CONTINUOUS
 62
    7
 10
350.6537772513725
 20
103.60143300649283
 40
0.1330483926309121
  0
CIRCLE
  8
_1-0_
  6
CONTINUOUS
 62
    7
 10
347.0082710884713
 20
102.9581018396326
 40
0.1330483926309121
  0
CIRCLE
  8
_1-0_
  6
CONTINUOUS
 62
    7
 10
350.46750455289276
 20
102.69201742636191
 40
0.1330483926309121
  0
CIRCLE
  8
_1-0_
  6
CONTINUOUS
 62
    7
 10
349.13704537056589
 20
102.29287224846918
 40
0.1330483926309121
  0
CIRCLE
  8
_1-0_
  6
CONTINUOUS
 62
    7
 10
306.29241943359375
 20
124.3506972854202
 40
0.1330483926309121
  0
CIRCLE
  8
_1-0_
  6
CONTINUOUS
 62
    7
 10
310.98194844013938
 20
121.61458195866766
 40
0.1330483926309121
  0
CIRCLE
  8
_1-0_
  6
CONTINUOUS
 62
    7
 10
314.44120664854307
 20
121.34849754539697
 40
0.1330483926309121
  0
CIRCLE
  8
_1-0_
  6
CONTINUOUS
 62
    7
 10
313.11072272223396
 20
120.94935236750423
 40
0.1330483926309121
  0
CIRCLE
  8
_1-0_
  6
CONTINUOUS
 62
    7
 10
308.62310461095865
 20
120.97126316379857
 40
0.1330483926309121
  0
CIRCLE
  8
_1-0_
  6
CONTINUOUS
 62
    7
 10
312.08236281936234
 20
120.70517875052788
 40
0.1330483926309121
  0
CIRCLE
  8
_1-0_
  6
CONTINUOUS
 62
    7
 10
310.75187889305323
 20
120.30603357263514
 40
0.1330483926309121
  0
CIRCLE
  8
_1-0_
  6
CONTINUOUS
 62
    7
 10
308.22240056218328
 20
121.34849754539697
 40
0.1330483926309121
  0
CIRCLE
  8
_1-0_
  6
CONTINUOUS
 62
    7
 10
306.89191663587417
 20
120.94935236750423
 40
0.1330483926309121
  0
CIRCLE
  8
_1-0_
  6
CONTINUOUS
 62
    7
 10
307.79348837362755
 20
123.70736611855997
 40
0.1330483926309121
  0
CIRCLE
  8
_1-0_
  6
CONTINUOUS
 62
    7
 10
306.46302919130068
 20
123.30822094066724
 40
0.1330483926309121
  0
CIRCLE
  8
_1-0_
  6
CONTINUOUS
 62
    7
 10
307.97976107210729
 20
122.47235684781462
 40
0.1330483926309121
  0
CIRCLE
  8
_1-0_
  6
CONTINUOUS
 62
    7
 10
311.43901928051099
 20
122.20627243454392
 40
0.1330483926309121
  0
CIRCLE
  8
_1-0_
  6
CONTINUOUS
 62
    7
 10
310.10853535420188
 20
121.80712725665119
 40
0.1330483926309121
  0
CIRCLE
  8
_1-0_
  6
CONTINUOUS
 62
    7
 10
311.62529197899073
 20
120.75681944151184
 40
0.1330483926309121
  0
CIRCLE
  8
_1-0_
  6
CONTINUOUS
 62
    7
 10
315.08455018739443
 20
120.49073502824113
 40
0.1330483926309121
  0
CIRCLE
  8
_1-0_
  6
CONTINUOUS
 62
    7
 10
313.75406626108531
 20
120.0915898503484
 40
0.1330483926309121
  0
CIRCLE
  8
_1-0_
  6
CONTINUOUS
 62
    7
 10
315.91411693676099
 20
117.96906342377534
 40
0.1330483926309121
  0
CIRCLE
  8
_1-0_
  6
CONTINUOUS
 62
    7
 10
319.37337514516469
 20
117.70297901050465
 40
0.1330483926309121
  0
CIRCLE
  8
_1-0_
  6
CONTINUOUS
 62
    7
 10
318.04289121885557
 20
117.30383383261191
 40
0.1330483926309121
  0
CIRCLE
  8
_1-0_
  6
CONTINUOUS
 62
    7
 10
310.76751708984375
 20
118.39795086834883
 40
0.1330483926309121
  0
CIRCLE
  8
_1-0_
  6
CONTINUOUS
 62
    7
 10
314.2267752982475
 20
118.13186645507812
 40
0.1330483926309121
  0
CIRCLE
  8
_1-0_
  6
CONTINUOUS
 62
    7
 10
312.89629137193839
 20
117.73272127718539
 40
0.1330483926309121
  0
CIRCLE
  8
_1-0_
  6
CONTINUOUS
 62
    7
 10
316.34302912531672
 20
118.61239459063556
 40
0.1330483926309121
  0
CIRCLE
  8
_1-0_
  6
CONTINUOUS
 62
    7
 10
319.80228733372047
 20
118.34631017736487
 40
0.1330483926309121
  0
CIRCLE
  8
_1-0_
  6
CONTINUOUS
 62
    7
 10
318.47180340741136
 20
117.94716499947214
 40
0.1330483926309121
  0
CIRCLE
  8
_1-0_
  6
CONTINUOUS
 62
    7
 10
318.91632904877537
 20
118.18350714606208
 40
0.1330483926309121
  0
CIRCLE
  8
_1-0_
  6
CONTINUOUS
 62
    7
 10
322.37556251319683
 20
117.91742273279139
 40
0.1330483926309121
  0
CIRCLE
  8
_1-0_
  6
CONTINUOUS
 62
    7
 10
321.04510333086995
 20
117.51827755489866
 40
0.1330483926309121
  0
CIRCLE
  8
_1-0_
  6
CONTINUOUS
 62
    7
 10
320.8463101773649
 20
114.96687605574326
 40
0.1330483926309121
  0
CIRCLE
  8
_1-0_
  6
CONTINUOUS
 62
    7
 10
324.30554364178636
 20
114.70079164247255
 40
0.1330483926309121
  0
CIRCLE
  8
_1-0_
  6
CONTINUOUS
 62
    7
 10
322.97508445945948
 20
114.30164646457982
 40
0.1330483926309121
  0
CIRCLE
  8
_1-0_
  6
CONTINUOUS
 62
    7
 10
319.55964784364443
 20
114.75243233345651
 40
0.1330483926309121
  0
CIRCLE
  8
_1-0_
  6
CONTINUOUS
 62
    7
 10
323.01890605204818
 20
114.48634792018582
 40
0.1330483926309121
  0
CIRCLE
  8
_1-0_
  6
CONTINUOUS
 62
    7
 10
321.68842212573907
 20
114.08720274229309
 40
0.1330483926309121
  0
CIRCLE
  8
_1-0_
  6
CONTINUOUS
 62
    7
 10
322.56183521167657
 20
114.96687605574326
 40
0.1330483926309121
  0
CIRCLE
  8
_1-0_
  6
CONTINUOUS
 62
    7
 10
326.02109342008026
 20
114.70079164247255
 40
0.1330483926309121
  0
CIRCLE
  8
_1-0_
  6
CONTINUOUS
 62
    7
 10
324.69060949377115
 20
114.30164646457982
 40
0.1330483926309121
  0
CIRCLE
  8
_1-0_
  6
CONTINUOUS
 62
    7
 10
318.48744160420188
 20
115.18131977802999
 40
0.1330483926309121
  0
CIRCLE
  8
_1-0_
  6
CONTINUOUS
 62
    7
 10
321.94669981260557
 20
114.9152353647593
 40
0.1330483926309121
  0
CIRCLE
  8
_1-0_
  6
CONTINUOUS
 62
    7
 10
320.61621588629646
 20
114.51609018686656
 40
0.1330483926309121
  0
CIRCLE
  8
_1-0_
  6
CONTINUOUS
 62
    7
 10
322.99072265625
 20
116.4679697397593
 40
0.1330483926309121
  0
CIRCLE
  8
_1-0_
  6
CONTINUOUS
 62
    7
 10
326.44995612067146
 20
116.20188532648861
 40
0.1330483926309121
  0
CIRCLE
  8
_1-0_
  6
CONTINUOUS
 62
    7
 10
325.11949693834464
 20
115.80274014859587
 40
0.1330483926309121
  0
CIRCLE
  8
_1-0_
  6
CONTINUOUS
 62
    7
 10
327.70845980257604
 20
113.89466981630068
 40
0.1330483926309121
  0
CIRCLE
  8
_1-0_
  6
CONTINUOUS
 62
    7
 10
331.1676932669975
 20
113.62858540302999
 40
0.1330483926309121
  0
CIRCLE
  8
_1-0_
  6
CONTINUOUS
 62
    7
 10
329.83723408467063
 20
113.22944022513725
 40
0.1330483926309121
  0
CIRCLE
  8
_1-0_
  6
CONTINUOUS
 62
    7
 10
326.85068491342906
 20
113.25133864944046
 40
0.1330483926309121
  0
CIRCLE
  8
_1-0_
  6
CONTINUOUS
 62
    7
 10
330.30991837785052
 20
112.98525423616977
 40
0.1330483926309121
  0
CIRCLE
  8
_1-0_
  6
CONTINUOUS
 62
    7
 10
328.97945919552365
 20
112.58610905827703
 40
0.1330483926309121
  0
CIRCLE
  8
_1-0_
  6
CONTINUOUS
 62
    7
 10
326.85068491342906
 20
112.39357613228464
 40
0.1330483926309121
  0
CIRCLE
  8
_1-0_
  6
CONTINUOUS
 62
    7
 10
330.30991837785052
 20
112.12749171901395
 40
0.1330483926309121
  0
CIRCLE
  8
_1-0_
  6
CONTINUOUS
 62
    7
 10
328.97945919552365
 20
111.72834654112121
 40
0.1330483926309121
  0
CIRCLE
  8
_1-0_
  6
CONTINUOUS
 62
    7
 10
331.35396596547719
 20
110.24913890941724
 40
0.1330483926309121
  0
CIRCLE
  8
_1-0_
  6
CONTINUOUS
 62
    7
 10
332.42617220491979
 20
111.75024496542441
 40
0.1330483926309121
  0
CIRCLE
  8
_1-0_
  6
CONTINUOUS
 62
    7
 10
328.78066604201859
 20
111.10691379856419
 40
0.1330483926309121
  0
CIRCLE
  8
_1-0_
  6
CONTINUOUS
 62
    7
 10
332.23989950644005
 20
110.8408293852935
 40
0.1330483926309121
  0
CIRCLE
  8
_1-0_
  6
CONTINUOUS
 62
    7
 10
330.90944032411318
 20
110.44168420740077
 40
0.1330483926309121
  0
CIRCLE
  8
_1-0_
  6
CONTINUOUS
 62
    7
 10
344.24869846653297
 20
107.83864201726141
 40
0.1330483926309121
  0
CIRCLE
  8
_1-0_
  6
CONTINUOUS
 62
    7
 10
348.93822747307854
 20
105.10252669050887
 40
0.1330483926309121
  0
CIRCLE
  8
_1-0_
  6
CONTINUOUS
 62
    7
 10
352.39748568148229
 20
104.83644227723818
 40
0.1330483926309121
  0
CIRCLE
  8
_1-0_
  6
CONTINUOUS
 62
    7
 10
351.06700175517318
 20
104.43729709934544
 40
0.1330483926309121
  0
CIRCLE
  8
_1-0_
  6
CONTINUOUS
 62
    7
 10
346.57938364389781
 20
104.45920789563979
 40
0.1330483926309121
  0
CIRCLE
  8
_1-0_
  6
CONTINUOUS
 62
    7
 10
350.03864185230157
 20
104.19312348236909
 40
0.1330483926309121
  0
CIRCLE
  8
_1-0_
  6
CONTINUOUS
 62
    7
 10
348.7081579259924
 20
103.79397830447635
 40
0.1330483926309121
  0
CIRCLE
  8
_1-0_
  6
CONTINUOUS
 62
    7
 10
346.1786795951225
 20
104.83644227723818
 40
0.1330483926309121
  0
CIRCLE
  8
_1-0_
  6
CONTINUOUS
 62
    7
 10
344.84819566881339
 20
104.43729709934544
 40
0.1330483926309121
  0
CIRCLE
  8
_1-0_
  6
CONTINUOUS
 62
    7
 10
345.74976740656672
 20
107.19531085040119
 40
0.1330483926309121
  0
CIRCLE
  8
_1-0_
  6
CONTINUOUS
 62
    7
 10
344.4193082242399
 20
106.79616567250845
 40
0.1330483926309121
  0
CIRCLE
  8
_1-0_
  6
CONTINUOUS
 62
    7
 10
345.93604010504646
 20
105.96030157965583
 40
0.1330483926309121
  0
CIRCLE
  8
_1-0_
  6
CONTINUOUS
 62
    7
 10
349.39529831345021
 20
105.69421716638514
 40
0.1330483926309121
  0
CIRCLE
  8
_1-0_
  6
CONTINUOUS
 62
    7
 10
348.06481438714104
 20
105.29507198849241
 40
0.1330483926309121
  0
CIRCLE
  8
_1-0_
  6
CONTINUOUS
 62
    7
 10
349.5815710119299
 20
104.24476417335305
 40
0.1330483926309121
  0
CIRCLE
  8
_1-0_
  6
CONTINUOUS
 62
    7
 10
353.04082922033365
 20
103.97867976008236
 40
0.1330483926309121
  0
CIRCLE
  8
_1-0_
  6
CONTINUOUS
 62
    7
 10
351.71034529402453
 20
103.57953458218962
 40
0.1330483926309121
  0
CIRCLE
  8
_1-0_
  6
CONTINUOUS
 62
    7
 10
353.87039596970021
 20
101.45700815561656
 40
0.1330483926309121
  0
CIRCLE
  8
_1-0_
  6
CONTINUOUS
 62
    7
 10
357.32965417810391
 20
101.19092374234587
 40
0.1330483926309121
  0
CIRCLE
  8
_1-0_
  6
CONTINUOUS
 62
    7
 10
355.99917025179479
 20
100.79177856445312
 40
0.1330483926309121
  0
CIRCLE
  8
_1-0_
  6
CONTINUOUS
 62
    7
 10
348.72379612278297
 20
101.88589560019004
 40
0.1330483926309121
  0
CIRCLE
  8
_1-0_
  6
CONTINUOUS
 62
    7
 10
352.18305433118667
 20
101.61981118691935
 40
0.1330483926309121
  0
CIRCLE
  8
_1-0_
  6
CONTINUOUS
 62
    7
 10
350.85257040487755
 20
101.22066600902662
 40
0.1330483926309121
  0
CIRCLE
  8
_1-0_
  6
CONTINUOUS
 62
    7
 10
354.29930815825594
 20
102.10033932247678
 40
0.1330483926309121
  0
CIRCLE
  8
_1-0_
  6
CONTINUOUS
 62
    7
 10
357.75856636665964
 20
101.83425490920608
 40
0.1330483926309121
  0
CIRCLE
  8
_1-0_
  6
CONTINUOUS
 62
    7
 10
356.42808244035052
 20
101.43510973131335
 40
0.1330483926309121
  0
CIRCLE
  8
_1-0_
  6
CONTINUOUS
 62
    7
 10
356.87260808171453
 20
101.67145187790329
 40
0.1330483926309121
  0
CIRCLE
  8
_1-0_
  6
CONTINUOUS
 62
    7
 10
360.33184154613599
 20
101.4053674646326
 40
0.1330483926309121
  0
CIRCLE
  8
_1-0_
  6
CONTINUOUS
 62
    7
 10
359.00138236380911
 20
101.00622228673987
 40
0.1330483926309121
  0
CIRCLE
  8
_1-0_
  6
CONTINUOUS
 62
    7
 10
358.80258921030406
 20
98.454820787584467
 40
0.1330483926309121
  0
CIRCLE
  8
_1-0_
  6
CONTINUOUS
 62
    7
 10
362.26182267472552
 20
98.188736374313777
 40
0.1330483926309121
  0
CIRCLE
  8
_1-0_
  6
CONTINUOUS
 62
    7
 10
360.93136349239865
 20
97.789591196421043
 40
0.1330483926309121
  0
CIRCLE
  8
_1-0_
  6
CONTINUOUS
 62
    7
 10
357.51592687658365
 20
98.240377065297722
 40
0.1330483926309121
  0
CIRCLE
  8
_1-0_
  6
CONTINUOUS
 62
    7
 10
360.97518508498734
 20
97.974292652027032
 40
0.1330483926309121
  0
CIRCLE
  8
_1-0_
  6
CONTINUOUS
 62
    7
 10
359.64470115867823
 20
97.575147474134297
 40
0.1330483926309121
  0
CIRCLE
  8
_1-0_
  6
CONTINUOUS
 62
    7
 10
360.51811424461573
 20
98.454820787584467
 40
0.1330483926309121
  0
CIRCLE
  8
_1-0_
  6
CONTINUOUS
 62
    7
 10
363.97737245301943
 20
98.188736374313777
 40
0.1330483926309121
  0
CIRCLE
  8
_1-0_
  6
CONTINUOUS
 62
    7
 10
362.64688852671031
 20
97.789591196421043
 40
0.1330483926309121
  0
CIRCLE
  8
_1-0_
  6
CONTINUOUS
 62
    7
 10
356.44372063714104
 20
98.669264509871198
 40
0.1330483926309121
  0
CIRCLE
  8
_1-0_
  6
CONTINUOUS
 62
    7
 10
359.90297884554479
 20
98.403180096600508
 40
0.1330483926309121
  0
CIRCLE
  8
_1-0_
  6
CONTINUOUS
 62
    7
 10
358.57249491923568
 20
98.004034918707774
 40
0.1330483926309121
  0
CIRCLE
  8
_1-0_
  6
CONTINUOUS
 62
    7
 10
360.94700168918922
 20
99.955914471600508
 40
0.1330483926309121
  0
CIRCLE
  8
_1-0_
  6
CONTINUOUS
 62
    7
 10
364.40623515361068
 20
99.689830058329818
 40
0.1330483926309121
  0
CIRCLE
  8
_1-0_
  6
CONTINUOUS
 62
    7
 10
363.0757759712838
 20
99.290684880437084
 40
0.1330483926309121
  0
CIRCLE
  8
_1-0_
  6
CONTINUOUS
 62
    7
 10
365.66473883551521
 20
97.382614548141902
 40
0.1330483926309121
  0
CIRCLE
  8
_1-0_
  6
CONTINUOUS
 62
    7
 10
367.79351311760979
 20
96.717384956978464
 40
0.1330483926309121
  0
CIRCLE
  8
_1-0_
  6
CONTINUOUS
 62
    7
 10
364.80696394636828
 20
96.73928338128168
 40
0.1330483926309121
  0
CIRCLE
  8
_1-0_
  6
CONTINUOUS
 62
    7
 10
368.26619741078974
 20
96.47319896801099
 40
0.1330483926309121
  0
CIRCLE
  8
_1-0_
  6
CONTINUOUS
 62
    7
 10
366.93573822846287
 20
96.074053790118242
 40
0.1330483926309121
  0
CIRCLE
  8
_1-0_
  6
CONTINUOUS
 62
    7
 10
364.80696394636828
 20
95.881520864125847
 40
0.1330483926309121
  0
CIRCLE
  8
_1-0_
  6
CONTINUOUS
 62
    7
 10
368.26619741078974
 20
95.615436450855157
 40
0.1330483926309121
  0
CIRCLE
  8
_1-0_
  6
CONTINUOUS
 62
    7
 10
366.93573822846287
 20
95.216291272962422
 40
0.1330483926309121
  0
CIRCLE
  8
_1-0_
  6
CONTINUOUS
 62
    7
 10
366.73694507495782
 20
94.594858530405418
 40
0.1330483926309121
  0
ARC
  8
_1-0_
  6
CONTINUOUS
 62
    5
 10
163.22058600348396
 20
187.08621875659841
 40
18.744584160882074
 50
332.35176086425781
 51
29.357299804687489
  0
CIRCLE
  8
_1-0_
  6
CONTINUOUS
 62
    7
 10
27.542885445259714
 20
92.710591909047722
 40
0.1330483926309121
  0
CIRCLE
  8
_1-0_
  6
CONTINUOUS
 62
    7
 10
30.203847111882396
 20
92.311446731154987
 40
0.1330483926309121
  0
CIRCLE
  8
_1-0_
  6
CONTINUOUS
 62
    7
 10
28.873366278571041
 20
90.581817626953125
 40
0.1330483926309121
  0
CIRCLE
  8
_1-0_
  6
CONTINUOUS
 62
    7
 10
27.675933837890625
 20
91.247059590107696
 40
0.1330483926309121
  0
CIRCLE
  8
_1-0_
  6
CONTINUOUS
 62
    7
 10
28.075079015783359
 20
93.109737086940456
 40
0.1330483926309121
  0
CIRCLE
  8
_1-0_
  6
CONTINUOUS
 62
    7
 10
32.066521515717369
 20
92.444495123785899
 40
0.1330483926309121
  0
CIRCLE
  8
_1-0_
  6
CONTINUOUS
 62
    7
 10
33.014714009052994
 20
95.924204233530418
 40
0.1330483926309121
  0
CIRCLE
  8
_1-0_
  6
CONTINUOUS
 62
    7
 10
35.675675675675677
 20
95.525059055637669
 40
0.1330483926309121
  0
CIRCLE
  8
_1-0_
  6
CONTINUOUS
 62
    7
 10
34.345194842364322
 20
93.795429951435821
 40
0.1330483926309121
  0
CIRCLE
  8
_1-0_
  6
CONTINUOUS
 62
    7
 10
33.147762401683906
 20
94.460671914590378
 40
0.1330483926309121
  0
CIRCLE
  8
_1-0_
  6
CONTINUOUS
 62
    7
 10
33.54690757957664
 20
96.323349411423152
 40
0.1330483926309121
  0
CIRCLE
  8
_1-0_
  6
CONTINUOUS
 62
    7
 10
37.538350079510678
 20
95.658107448268581
 40
0.1330483926309121
  0
CIRCLE
  8
_1-0_
  6
CONTINUOUS
 62
    7
 10
37.357437546188777
 20
97.400733329154349
 40
0.1330483926309121
  0
CIRCLE
  8
_1-0_
  6
CONTINUOUS
 62
    7
 10
40.01839921281146
 20
97.001588151261615
 40
0.1330483926309121
  0
CIRCLE
  8
_1-0_
  6
CONTINUOUS
 62
    7
 10
38.687918379500104
 20
95.271959047059767
 40
0.1330483926309121
  0
CIRCLE
  8
_1-0_
  6
CONTINUOUS
 62
    7
 10
37.490485938819688
 20
95.937201010214324
 40
0.1330483926309121
  0
CIRCLE
  8
_1-0_
  6
CONTINUOUS
 62
    7
 10
37.889631116712422
 20
97.799878507047097
 40
0.1330483926309121
  0
CIRCLE
  8
_1-0_
  6
CONTINUOUS
 62
    7
 10
41.881073616646432
 20
97.134636543892526
 40
0.1330483926309121
  0
CIRCLE
  8
_1-0_
  6
CONTINUOUS
 62
    7
 10
40.397344022183802
 20
98.616689733556811
 40
0.1330483926309121
  0
CIRCLE
  8
_1-0_
  6
CONTINUOUS
 62
    7
 10
43.058305688806485
 20
98.217544555664063
 40
0.1330483926309121
  0
CIRCLE
  8
_1-0_
  6
CONTINUOUS
 62
    7
 10
41.727824855495157
 20
96.487915451462214
 40
0.1330483926309121
  0
CIRCLE
  8
_1-0_
  6
CONTINUOUS
 62
    7
 10
40.530392414814713
 20
97.153157414616771
 40
0.1330483926309121
  0
CIRCLE
  8
_1-0_
  6
CONTINUOUS
 62
    7
 10
40.929537592707447
 20
99.015834911449545
 40
0.1330483926309121
  0
CIRCLE
  8
_1-0_
  6
CONTINUOUS
 62
    7
 10
44.920980092641457
 20
98.350592948294974
 40
0.1330483926309121
  0
CIRCLE
  8
_1-0_
  6
CONTINUOUS
 62
    7
 10
44.56635861783414
 20
100.70119703138198
 40
0.1330483926309121
  0
CIRCLE
  8
_1-0_
  6
CONTINUOUS
 62
    7
 10
47.227320284456823
 20
100.30205185348923
 40
0.1330483926309121
  0
CIRCLE
  8
_1-0_
  6
CONTINUOUS
 62
    7
 10
45.896839451145468
 20
98.572422749287384
 40
0.1330483926309121
  0
CIRCLE
  8
_1-0_
  6
CONTINUOUS
 62
    7
 10
44.699407010465052
 20
99.237664712441941
 40
0.1330483926309121
  0
CIRCLE
  8
_1-0_
  6
CONTINUOUS
 62
    7
 10
45.098552188357786
 20
101.10034220927471
 40
0.1330483926309121
  0
CIRCLE
  8
_1-0_
  6
CONTINUOUS
 62
    7
 10
49.089994688291824
 20
100.43510024612014
 40
0.1330483926309121
  0
CIRCLE
  8
_1-0_
  6
CONTINUOUS
 62
    7
 10
51.948988630964948
 20
103.74110660037479
 40
0.1330483926309121
  0
CIRCLE
  8
_1-0_
  6
CONTINUOUS
 62
    7
 10
54.609950297587631
 20
103.34196142248206
 40
0.1330483926309121
  0
CIRCLE
  8
_1-0_
  6
CONTINUOUS
 62
    7
 10
53.279472557274062
 20
101.6123323182802
 40
0.1330483926309121
  0
CIRCLE
  8
_1-0_
  6
CONTINUOUS
 62
    7
 10
52.082037023595859
 20
102.27757428143477
 40
0.1330483926309121
  0
CIRCLE
  8
_1-0_
  6
CONTINUOUS
 62
    7
 10
52.481182201488593
 20
104.14024559227197
 40
0.1330483926309121
  0
CIRCLE
  8
_1-0_
  6
CONTINUOUS
 62
    7
 10
56.472621608424845
 20
103.47500981511297
 40
0.1330483926309121
  0
CIRCLE
  8
_1-0_
  6
CONTINUOUS
 62
    7
 10
45.782321208232162
 20
103.39368871740393
 40
0.1330483926309121
  0
CIRCLE
  8
_1-0_
  6
CONTINUOUS
 62
    7
 10
48.443282874854845
 20
102.9945435395112
 40
0.1330483926309121
  0
CIRCLE
  8
_1-0_
  6
CONTINUOUS
 62
    7
 10
47.112802041543489
 20
101.26491443530934
 40
0.1330483926309121
  0
CIRCLE
  8
_1-0_
  6
CONTINUOUS
 62
    7
 10
45.915369600863073
 20
101.93015639846389
 40
0.1330483926309121
  0
CIRCLE
  8
_1-0_
  6
CONTINUOUS
 62
    7
 10
46.314514778755807
 20
103.79284008129224
 40
0.1330483926309121
  0
CIRCLE
  8
_1-0_
  6
CONTINUOUS
 62
    7
 10
50.305957278689817
 20
103.12759193214211
 40
0.1330483926309121
  0
CIRCLE
  8
_1-0_
  6
CONTINUOUS
 62
    7
 10
58.376219465925885
 20
107.21527924408784
 40
0.1330483926309121
  0
CIRCLE
  8
_1-0_
  6
CONTINUOUS
 62
    7
 10
61.037181132548568
 20
106.8161340661951
 40
0.1330483926309121
  0
CIRCLE
  8
_1-0_
  6
CONTINUOUS
 62
    7
 10
59.706697206239454
 20
105.08650496199324
 40
0.1330483926309121
  0
CIRCLE
  8
_1-0_
  6
CONTINUOUS
 62
    7
 10
58.509267858556797
 20
105.75174692514781
 40
0.1330483926309121
  0
CIRCLE
  8
_1-0_
  6
CONTINUOUS
 62
    7
 10
58.908413036449531
 20
107.61442442198059
 40
0.1330483926309121
  0
CIRCLE
  8
_1-0_
  6
CONTINUOUS
 62
    7
 10
62.899858629381328
 20
106.94918245882602
 40
0.1330483926309121
  0
CIRCLE
  8
_1-0_
  6
CONTINUOUS
 62
    7
 10
54.902040636217265
 20
106.25988934491133
 40
0.1330483926309121
  0
CIRCLE
  8
_1-0_
  6
CONTINUOUS
 62
    7
 10
57.563002302839948
 20
105.86074416701858
 40
0.1330483926309121
  0
CIRCLE
  8
_1-0_
  6
CONTINUOUS
 62
    7
 10
56.232518376530834
 20
104.13111506281673
 40
0.1330483926309121
  0
CIRCLE
  8
_1-0_
  6
CONTINUOUS
 62
    7
 10
55.035089028848176
 20
104.79635702597129
 40
0.1330483926309121
  0
CIRCLE
  8
_1-0_
  6
CONTINUOUS
 62
    7
 10
55.434234206740939
 20
106.65903452280406
 40
0.1330483926309121
  0
CIRCLE
  8
_1-0_
  6
CONTINUOUS
 62
    7
 10
59.425679799672707
 20
105.99379255964949
 40
0.1330483926309121
  0
CIRCLE
  8
_1-0_
  6
CONTINUOUS
 62
    7
 10
62.284667556350314
 20
108.43124802048142
 40
0.1330483926309121
  0
CIRCLE
  8
_1-0_
  6
CONTINUOUS
 62
    7
 10
64.945629222972968
 20
108.03210284258869
 40
0.1330483926309121
  0
CIRCLE
  8
_1-0_
  6
CONTINUOUS
 62
    7
 10
63.615145296663854
 20
106.30247373838684
 40
0.1330483926309121
  0
CIRCLE
  8
_1-0_
  6
CONTINUOUS
 62
    7
 10
62.417715948981197
 20
106.96771570154139
 40
0.1330483926309121
  0
CIRCLE
  8
_1-0_
  6
CONTINUOUS
 62
    7
 10
62.81686112687396
 20
108.83039319837417
 40
0.1330483926309121
  0
CIRCLE
  8
_1-0_
  6
CONTINUOUS
 62
    7
 10
66.808306719805728
 20
108.1651512352196
 40
0.1330483926309121
  0
CIRCLE
  8
_1-0_
  6
CONTINUOUS
 62
    7
 10
67.582787178658151
 20
111.03688832875845
 40
0.1330483926309121
  0
CIRCLE
  8
_1-0_
  6
CONTINUOUS
 62
    7
 10
70.243748845280834
 20
110.63774315086572
 40
0.1330483926309121
  0
CIRCLE
  8
_1-0_
  6
CONTINUOUS
 62
    7
 10
68.91326491897172
 20
108.90811404666385
 40
0.1330483926309121
  0
CIRCLE
  8
_1-0_
  6
CONTINUOUS
 62
    7
 10
67.715835571289063
 20
109.57335600981841
 40
0.1330483926309121
  0
CIRCLE
  8
_1-0_
  6
CONTINUOUS
 62
    7
 10
68.114980749181797
 20
111.43603350665119
 40
0.1330483926309121
  0
CIRCLE
  8
_1-0_
  6
CONTINUOUS
 62
    7
 10
72.106426342113593
 20
110.77079154349663
 40
0.1330483926309121
  0
CIRCLE
  8
_1-0_
  6
CONTINUOUS
 62
    7
 10
71.75180177430849
 20
113.20824700432856
 40
0.1330483926309121
  0
CIRCLE
  8
_1-0_
  6
CONTINUOUS
 62
    7
 10
74.412763440931172
 20
112.80910182643582
 40
0.1330483926309121
  0
CIRCLE
  8
_1-0_
  6
CONTINUOUS
 62
    7
 10
73.08227951462203
 20
111.07947272223396
 40
0.1330483926309121
  0
CIRCLE
  8
_1-0_
  6
CONTINUOUS
 62
    7
 10
71.884850166939401
 20
111.74471468538852
 40
0.1330483926309121
  0
CIRCLE
  8
_1-0_
  6
CONTINUOUS
 62
    7
 10
72.283995344832135
 20
113.60739218222129
 40
0.1330483926309121
  0
CIRCLE
  8
_1-0_
  6
CONTINUOUS
 62
    7
 10
76.27544093776396
 20
112.94215021906673
 40
0.1330483926309121
  0
CIRCLE
  8
_1-0_
  6
CONTINUOUS
 62
    7
 10
74.878562721046251
 20
114.77162129170186
 40
0.1330483926309121
  0
CIRCLE
  8
_1-0_
  6
CONTINUOUS
 62
    7
 10
77.539524387668905
 20
114.37247611380913
 40
0.1330483926309121
  0
CIRCLE
  8
_1-0_
  6
CONTINUOUS
 62
    7
 10
76.209040461359791
 20
112.64284700960727
 40
0.1330483926309121
  0
CIRCLE
  8
_1-0_
  6
CONTINUOUS
 62
    7
 10
75.011611113677162
 20
113.30808897276184
 40
0.1330483926309121
  0
CIRCLE
  8
_1-0_
  6
CONTINUOUS
 62
    7
 10
75.410756291569896
 20
115.1707664695946
 40
0.1330483926309121
  0
CIRCLE
  8
_1-0_
  6
CONTINUOUS
 62
    7
 10
79.402201884501693
 20
114.50552450644004
 40
0.1330483926309121
  0
CIRCLE
  8
_1-0_
  6
CONTINUOUS
 62
    7
 10
80.524100226324947
 20
115.90073869035051
 40
0.1330483926309121
  0
CIRCLE
  8
_1-0_
  6
CONTINUOUS
 62
    7
 10
83.185061892947644
 20
115.50159351245777
 40
0.1330483926309121
  0
CIRCLE
  8
_1-0_
  6
CONTINUOUS
 62
    7
 10
81.854577966638516
 20
113.77196440825591
 40
0.1330483926309121
  0
CIRCLE
  8
_1-0_
  6
CONTINUOUS
 62
    7
 10
80.657148618955887
 20
114.43720637141048
 40
0.1330483926309121
  0
CIRCLE
  8
_1-0_
  6
CONTINUOUS
 62
    7
 10
81.056293796848593
 20
116.29988386824326
 40
0.1330483926309121
  0
CIRCLE
  8
_1-0_
  6
CONTINUOUS
 62
    7
 10
85.047739389780403
 20
115.63464190508869
 40
0.1330483926309121
  0
CIRCLE
  8
_1-0_
  6
CONTINUOUS
 62
    7
 10
76.355085630674637
 20
116.33499557907517
 40
0.1330483926309121
  0
CIRCLE
  8
_1-0_
  6
CONTINUOUS
 62
    7
 10
79.016047297297291
 20
115.93585040118244
 40
0.1330483926309121
  0
CIRCLE
  8
_1-0_
  6
CONTINUOUS
 62
    7
 10
77.685563370988177
 20
114.20622129698059
 40
0.1330483926309121
  0
CIRCLE
  8
_1-0_
  6
CONTINUOUS
 62
    7
 10
76.48813402330552
 20
114.87146326013514
 40
0.1330483926309121
  0
CIRCLE
  8
_1-0_
  6
CONTINUOUS
 62
    7
 10
76.887279201198282
 20
116.73414075696792
 40
0.1330483926309121
  0
CIRCLE
  8
_1-0_
  6
CONTINUOUS
 62
    7
 10
80.878724794130079
 20
116.06889879381335
 40
0.1330483926309121
  0
CIRCLE
  8
_1-0_
  6
CONTINUOUS
 62
    7
 10
80.958369487040756
 20
118.50637899862754
 40
0.1330483926309121
  0
CIRCLE
  8
_1-0_
  6
CONTINUOUS
 62
    7
 10
83.619331153663438
 20
118.10723382073481
 40
0.1330483926309121
  0
CIRCLE
  8
_1-0_
  6
CONTINUOUS
 62
    7
 10
82.28884722735431
 20
116.37760471653294
 40
0.1330483926309121
  0
CIRCLE
  8
_1-0_
  6
CONTINUOUS
 62
    7
 10
81.091417879671667
 20
117.0428466796875
 40
0.1330483926309121
  0
CIRCLE
  8
_1-0_
  6
CONTINUOUS
 62
    7
 10
81.490563057564401
 20
118.90552417652027
 40
0.1330483926309121
  0
CIRCLE
  8
_1-0_
  6
CONTINUOUS
 62
    7
 10
85.482008650496198
 20
118.24028221336572
 40
0.1330483926309121
  0
CIRCLE
  8
_1-0_
  6
CONTINUOUS
 62
    7
 10
84.779966199720235
 20
119.98290190825593
 40
0.1330483926309121
  0
CIRCLE
  8
_1-0_
  6
CONTINUOUS
 62
    7
 10
87.440927866342903
 20
119.58375673036318
 40
0.1330483926309121
  0
CIRCLE
  8
_1-0_
  6
CONTINUOUS
 62
    7
 10
86.11044394003379
 20
117.85412762616133
 40
0.1330483926309121
  0
CIRCLE
  8
_1-0_
  6
CONTINUOUS
 62
    7
 10
84.913014592351146
 20
118.51936958931589
 40
0.1330483926309121
  0
CIRCLE
  8
_1-0_
  6
CONTINUOUS
 62
    7
 10
85.312159770243881
 20
120.38204708614866
 40
0.1330483926309121
  0
CIRCLE
  8
_1-0_
  6
CONTINUOUS
 62
    7
 10
89.303605363175677
 20
119.71680512299409
 40
0.1330483926309121
  0
CIRCLE
  8
_1-0_
  6
CONTINUOUS
 62
    7
 10
89.122695922851562
 20
120.93829180743244
 40
0.1330483926309121
  0
CIRCLE
  8
_1-0_
  6
CONTINUOUS
 62
    7
 10
91.783657589474245
 20
120.5391466295397
 40
0.1330483926309121
  0
CIRCLE
  8
_1-0_
  6
CONTINUOUS
 62
    7
 10
90.453173663165117
 20
118.80951752533784
 40
0.1330483926309121
  0
CIRCLE
  8
_1-0_
  6
CONTINUOUS
 62
    7
 10
89.255744315482474
 20
119.47475948849241
 40
0.1330483926309121
  0
CIRCLE
  8
_1-0_
  6
CONTINUOUS
 62
    7
 10
89.654889493375222
 20
121.33743698532517
 40
0.1330483926309121
  0
CIRCLE
  8
_1-0_
  6
CONTINUOUS
 62
    7
 10
93.646335086307019
 20
120.67219502217061
 40
0.1330483926309121
  0
CIRCLE
  8
_1-0_
  6
CONTINUOUS
 62
    7
 10
92.103244678394219
 20
123.40506888724663
 40
0.1330483926309121
  0
CIRCLE
  8
_1-0_
  6
CONTINUOUS
 62
    7
 10
94.764206345016902
 20
123.00592370935389
 40
0.1330483926309121
  0
CIRCLE
  8
_1-0_
  6
CONTINUOUS
 62
    7
 10
93.433722418707774
 20
121.27629460515203
 40
0.1330483926309121
  0
CIRCLE
  8
_1-0_
  6
CONTINUOUS
 62
    7
 10
92.236293071025131
 20
121.94153656830659
 40
0.1330483926309121
  0
CIRCLE
  8
_1-0_
  6
CONTINUOUS
 62
    7
 10
92.635438248917865
 20
123.80421406513936
 40
0.1330483926309121
  0
CIRCLE
  8
_1-0_
  6
CONTINUOUS
 62
    7
 10
96.626883841849661
 20
123.13897210198481
 40
0.1330483926309121
  0
CIRCLE
  8
_1-0_
  6
CONTINUOUS
 62
    7
 10
104.29828540698902
 20
127.88486790012669
 40
0.1330483926309121
  0
CIRCLE
  8
_1-0_
  6
CONTINUOUS
 62
    7
 10
106.95924088761613
 20
127.48572272223396
 40
0.1330483926309121
  0
CIRCLE
  8
_1-0_
  6
CONTINUOUS
 62
    7
 10
105.62875696130702
 20
125.7560936180321
 40
0.1330483926309121
  0
CIRCLE
  8
_1-0_
  6
CONTINUOUS
 62
    7
 10
104.43133379961994
 20
126.42133558118667
 40
0.1330483926309121
  0
CIRCLE
  8
_1-0_
  6
CONTINUOUS
 62
    7
 10
104.83047897751267
 20
128.28401307801943
 40
0.1330483926309121
  0
CIRCLE
  8
_1-0_
  6
CONTINUOUS
 62
    7
 10
108.82191838444891
 20
127.61877111486487
 40
0.1330483926309121
  0
CIRCLE
  8
_1-0_
  6
CONTINUOUS
 62
    7
 10
107.78255978146116
 20
129.37814248574747
 40
0.1330483926309121
  0
CIRCLE
  8
_1-0_
  6
CONTINUOUS
 62
    7
 10
110.4435276340794
 20
128.97899730785474
 40
0.1330483926309121
  0
CIRCLE
  8
_1-0_
  6
CONTINUOUS
 62
    7
 10
109.11304370777027
 20
127.24936820365288
 40
0.1330483926309121
  0
CIRCLE
  8
_1-0_
  6
CONTINUOUS
 62
    7
 10
107.91560817409207
 20
127.91461016680744
 40
0.1330483926309121
  0
CIRCLE
  8
_1-0_
  6
CONTINUOUS
 62
    7
 10
108.31475335198481
 20
129.77728766364021
 40
0.1330483926309121
  0
CIRCLE
  8
_1-0_
  6
CONTINUOUS
 62
    7
 10
112.30620513091216
 20
129.11204570048565
 40
0.1330483926309121
  0
CIRCLE
  8
_1-0_
  6
CONTINUOUS
 62
    7
 10
114.2534080711571
 20
132.36469165698904
 40
0.1330483926309121
  0
CIRCLE
  8
_1-0_
  6
CONTINUOUS
 62
    7
 10
116.91436355178421
 20
131.9655464790963
 40
0.1330483926309121
  0
CIRCLE
  8
_1-0_
  6
CONTINUOUS
 62
    7
 10
115.58387962547509
 20
130.23591737489443
 40
0.1330483926309121
  0
CIRCLE
  8
_1-0_
  6
CONTINUOUS
 62
    7
 10
114.38645646378801
 20
130.90115933804898
 40
0.1330483926309121
  0
CIRCLE
  8
_1-0_
  6
CONTINUOUS
 62
    7
 10
114.78560164168076
 20
132.76383683488177
 40
0.1330483926309121
  0
CIRCLE
  8
_1-0_
  6
CONTINUOUS
 62
    7
 10
118.77704104861698
 20
132.09859487172722
 40
0.1330483926309121
  0
CIRCLE
  8
_1-0_
  6
CONTINUOUS
 62
    7
 10
120.22648166965794
 20
136.09786574904984
 40
0.1330483926309121
  0
CIRCLE
  8
_1-0_
  6
CONTINUOUS
 62
    7
 10
122.88744952227619
 20
135.69872057115711
 40
0.1330483926309121
  0
CIRCLE
  8
_1-0_
  6
CONTINUOUS
 62
    7
 10
121.55696559596707
 20
133.96909146695523
 40
0.1330483926309121
  0
CIRCLE
  8
_1-0_
  6
CONTINUOUS
 62
    7
 10
120.35953006228885
 20
134.63433343010979
 40
0.1330483926309121
  0
CIRCLE
  8
_1-0_
  6
CONTINUOUS
 62
    7
 10
120.75867524018159
 20
136.49701092694258
 40
0.1330483926309121
  0
CIRCLE
  8
_1-0_
  6
CONTINUOUS
 62
    7
 10
124.75012701910896
 20
135.83176896378802
 40
0.1330483926309121
  0
CIRCLE
  8
_1-0_
  6
CONTINUOUS
 62
    7
 10
125.70180532094595
 20
137.84001530827703
 40
0.1330483926309121
  0
CIRCLE
  8
_1-0_
  6
CONTINUOUS
 62
    7
 10
128.36277317356419
 20
137.4408701303843
 40
0.1330483926309121
  0
CIRCLE
  8
_1-0_
  6
CONTINUOUS
 62
    7
 10
127.03228924725508
 20
135.71124102618245
 40
0.1330483926309121
  0
CIRCLE
  8
_1-0_
  6
CONTINUOUS
 62
    7
 10
125.83485371357686
 20
136.37648298933701
 40
0.1330483926309121
  0
CIRCLE
  8
_1-0_
  6
CONTINUOUS
 62
    7
 10
126.2339988914696
 20
138.23916048616977
 40
0.1330483926309121
  0
CIRCLE
  8
_1-0_
  6
CONTINUOUS
 62
    7
 10
130.22545067039695
 20
137.57391852301521
 40
0.1330483926309121
  0
CIRCLE
  8
_1-0_
  6
CONTINUOUS
 62
    7
 10
131.42600394584039
 20
138.5866402290963
 40
0.1330483926309121
  0
CIRCLE
  8
_1-0_
  6
CONTINUOUS
 62
    7
 10
134.08697179845862
 20
138.18749505120354
 40
0.1330483926309121
  0
CIRCLE
  8
_1-0_
  6
CONTINUOUS
 62
    7
 10
132.75648787214951
 20
136.45786594700169
 40
0.1330483926309121
  0
CIRCLE
  8
_1-0_
  6
CONTINUOUS
 62
    7
 10
131.5590523384713
 20
137.12310791015625
 40
0.1330483926309121
  0
CIRCLE
  8
_1-0_
  6
CONTINUOUS
 62
    7
 10
131.95819751636404
 20
138.98578540698904
 40
0.1330483926309121
  0
CIRCLE
  8
_1-0_
  6
CONTINUOUS
 62
    7
 10
135.94964929529138
 20
138.32054344383448
 40
0.1330483926309121
  0
CIRCLE
  8
_1-0_
  6
CONTINUOUS
 62
    7
 10
137.15020257073479
 20
141.32428968274917
 40
0.1330483926309121
  0
CIRCLE
  8
_1-0_
  6
CONTINUOUS
 62
    7
 10
139.81117042335305
 20
140.92514450485643
 40
0.1330483926309121
  0
CIRCLE
  8
_1-0_
  6
CONTINUOUS
 62
    7
 10
138.48068649704393
 20
139.19551540065456
 40
0.1330483926309121
  0
CIRCLE
  8
_1-0_
  6
CONTINUOUS
 62
    7
 10
137.28325096336573
 20
139.86075736380914
 40
0.1330483926309121
  0
CIRCLE
  8
_1-0_
  6
CONTINUOUS
 62
    7
 10
137.68239614125847
 20
141.7234348606419
 40
0.1330483926309121
  0
CIRCLE
  8
_1-0_
  6
CONTINUOUS
 62
    7
 10
141.67383554819469
 20
141.05819289748734
 40
0.1330483926309121
  0
CIRCLE
  8
_1-0_
  6
CONTINUOUS
 62
    7
 10
143.62102611644849
 20
144.80858880120354
 40
0.1330483926309121
  0
CIRCLE
  8
_1-0_
  6
CONTINUOUS
 62
    7
 10
146.28199396906672
 20
144.40944362331081
 40
0.1330483926309121
  0
CIRCLE
  8
_1-0_
  6
CONTINUOUS
 62
    7
 10
144.9515100427576
 20
142.67981451910896
 40
0.1330483926309121
  0
CIRCLE
  8
_1-0_
  6
CONTINUOUS
 62
    7
 10
143.7540745090794
 20
143.34505648226352
 40
0.1330483926309121
  0
CIRCLE
  8
_1-0_
  6
CONTINUOUS
 62
    7
 10
144.15321968697214
 20
145.2077339790963
 40
0.1330483926309121
  0
CIRCLE
  8
_1-0_
  6
CONTINUOUS
 62
    7
 10
148.14465909390836
 20
144.54249201594172
 40
0.1330483926309121
  0
CIRCLE
  8
_1-0_
  6
CONTINUOUS
 62
    7
 10
151.0873743005701
 20
148.79063786687078
 40
0.1330483926309121
  0
CIRCLE
  8
_1-0_
  6
CONTINUOUS
 62
    7
 10
153.74834215318836
 20
148.39149268897805
 40
0.1330483926309121
  0
CIRCLE
  8
_1-0_
  6
CONTINUOUS
 62
    7
 10
152.41785822687922
 20
146.6618635847762
 40
0.1330483926309121
  0
CIRCLE
  8
_1-0_
  6
CONTINUOUS
 62
    7
 10
151.22042269320102
 20
147.32710554793076
 40
0.1330483926309121
  0
CIRCLE
  8
_1-0_
  6
CONTINUOUS
 62
    7
 10
151.61956787109375
 20
149.18978304476352
 40
0.1330483926309121
  0
CIRCLE
  8
_1-0_
  6
CONTINUOUS
 62
    7
 10
155.61100727803
 20
148.52454108160896
 40
0.1330483926309121
  0
CIRCLE
  8
_1-0_
  6
CONTINUOUS
 62
    7
 10
158.80259745829815
 20
152.77268693253802
 40
0.1330483926309121
  0
CIRCLE
  8
_1-0_
  6
CONTINUOUS
 62
    7
 10
161.46356531091641
 20
152.37354175464529
 40
0.1330483926309121
  0
CIRCLE
  8
_1-0_
  6
CONTINUOUS
 62
    7
 10
160.13308138460727
 20
150.64391265044341
 40
0.1330483926309121
  0
CIRCLE
  8
_1-0_
  6
CONTINUOUS
 62
    7
 10
158.93564585092906
 20
151.30915461359797
 40
0.1330483926309121
  0
CIRCLE
  8
_1-0_
  6
CONTINUOUS
 62
    7
 10
159.3347910288218
 20
153.17183211043076
 40
0.1330483926309121
  0
CIRCLE
  8
_1-0_
  6
CONTINUOUS
 62
    7
 10
163.32623043575802
 20
152.5065901472762
 40
0.1330483926309121
  0
CIRCLE
  8
_1-0_
  6
CONTINUOUS
 62
    7
 10
163.03354624155406
 20
155.26148615656672
 40
0.1330483926309121
  0
CIRCLE
  8
_1-0_
  6
CONTINUOUS
 62
    7
 10
165.69451409417232
 20
154.86234097867398
 40
0.1330483926309121
  0
CIRCLE
  8
_1-0_
  6
CONTINUOUS
 62
    7
 10
164.36403016786318
 20
153.13271187447214
 40
0.1330483926309121
  0
CIRCLE
  8
_1-0_
  6
CONTINUOUS
 62
    7
 10
163.16659463418497
 20
153.79795383762669
 40
0.1330483926309121
  0
CIRCLE
  8
_1-0_
  6
CONTINUOUS
 62
    7
 10
163.56573981207771
 20
155.66063133445948
 40
0.1330483926309121
  0
CIRCLE
  8
_1-0_
  6
CONTINUOUS
 62
    7
 10
167.55717921901393
 20
154.9953893713049
 40
0.1330483926309121
  0
CIRCLE
  8
_1-0_
  6
CONTINUOUS
 62
    7
 10
168.75774486644849
 20
157.99913561021961
 40
0.1330483926309121
  0
CIRCLE
  8
_1-0_
  6
CONTINUOUS
 62
    7
 10
171.41871271906672
 20
157.59999043232688
 40
0.1330483926309121
  0
CIRCLE
  8
_1-0_
  6
CONTINUOUS
 62
    7
 10
170.0882287927576
 20
155.870361328125
 40
0.1330483926309121
  0
CIRCLE
  8
_1-0_
  6
CONTINUOUS
 62
    7
 10
168.8907932590794
 20
156.53560329127956
 40
0.1330483926309121
  0
CIRCLE
  8
_1-0_
  6
CONTINUOUS
 62
    7
 10
169.28993843697214
 20
158.39828078811234
 40
0.1330483926309121
  0
CIRCLE
  8
_1-0_
  6
CONTINUOUS
 62
    7
 10
173.28137784390836
 20
157.73303882495779
 40
0.1330483926309121
  0
CIRCLE
  8
_1-0_
  6
CONTINUOUS
 62
    7
 10
172.98866890572214
 20
160.73680980785474
 40
0.1330483926309121
  0
CIRCLE
  8
_1-0_
  6
CONTINUOUS
 62
    7
 10
175.64963675834039
 20
160.33766462996201
 40
0.1330483926309121
  0
CIRCLE
  8
_1-0_
  6
CONTINUOUS
 62
    7
 10
174.31915283203125
 20
158.60803552576013
 40
0.1330483926309121
  0
CIRCLE
  8
_1-0_
  6
CONTINUOUS
 62
    7
 10
173.12171729835305
 20
159.27327748891472
 40
0.1330483926309121
  0
CIRCLE
  8
_1-0_
  6
CONTINUOUS
 62
    7
 10
173.52086247624578
 20
161.13595498574747
 40
0.1330483926309121
  0
CIRCLE
  8
_1-0_
  6
CONTINUOUS
 62
    7
 10
177.51230188318203
 20
160.47071302259292
 40
0.1330483926309121
  0
CIRCLE
  8
_1-0_
  6
CONTINUOUS
 62
    7
 10
176.2240930505701
 20
161.73230970228042
 40
0.1330483926309121
  0
CIRCLE
  8
_1-0_
  6
CONTINUOUS
 62
    7
 10
178.88506090318836
 20
161.33316452438768
 40
0.1330483926309121
  0
CIRCLE
  8
_1-0_
  6
CONTINUOUS
 62
    7
 10
177.55457697687925
 20
159.60353542018581
 40
0.1330483926309121
  0
CIRCLE
  8
_1-0_
  6
CONTINUOUS
 62
    7
 10
176.35714144320102
 20
160.26877738334039
 40
0.1330483926309121
  0
CIRCLE
  8
_1-0_
  6
CONTINUOUS
 62
    7
 10
176.75628662109375
 20
162.13145488017315
 40
0.1330483926309121
  0
CIRCLE
  8
_1-0_
  6
CONTINUOUS
 62
    7
 10
180.74772602803
 20
161.46621291701859
 40
0.1330483926309121
  0
CIRCLE
  8
_1-0_
  6
CONTINUOUS
 62
    7
 10
179.95726714263091
 20
162.72783434068836
 40
0.1330483926309121
  0
CIRCLE
  8
_1-0_
  6
CONTINUOUS
 62
    7
 10
182.61823499524917
 20
162.32868916279563
 40
0.1330483926309121
  0
CIRCLE
  8
_1-0_
  6
CONTINUOUS
 62
    7
 10
181.28775106894005
 20
160.59906005859375
 40
0.1330483926309121
  0
CIRCLE
  8
_1-0_
  6
CONTINUOUS
 62
    7
 10
180.09031553526182
 20
161.26430202174831
 40
0.1330483926309121
  0
CIRCLE
  8
_1-0_
  6
CONTINUOUS
 62
    7
 10
180.48946071315456
 20
163.12697951858109
 40
0.1330483926309121
  0
CIRCLE
  8
_1-0_
  6
CONTINUOUS
 62
    7
 10
184.48090012009081
 20
162.46173755542654
 40
0.1330483926309121
  0
CIRCLE
  8
_1-0_
  6
CONTINUOUS
 62
    7
 10
183.69044123469175
 20
164.22108418232688
 40
0.1330483926309121
  0
CIRCLE
  8
_1-0_
  6
CONTINUOUS
 62
    7
 10
186.35140908730997
 20
163.82193900443414
 40
0.1330483926309121
  0
CIRCLE
  8
_1-0_
  6
CONTINUOUS
 62
    7
 10
185.02092516100086
 20
162.09230990023227
 40
0.1330483926309121
  0
CIRCLE
  8
_1-0_
  6
CONTINUOUS
 62
    7
 10
183.82348962732266
 20
162.75755186338682
 40
0.1330483926309121
  0
CIRCLE
  8
_1-0_
  6
CONTINUOUS
 62
    7
 10
184.22263480521539
 20
164.62022936021961
 40
0.1330483926309121
  0
CIRCLE
  8
_1-0_
  6
CONTINUOUS
 62
    7
 10
188.21407421215162
 20
163.95498739706505
 40
0.1330483926309121
  0
CIRCLE
  8
_1-0_
  6
CONTINUOUS
 62
    7
 10
190.65901472761826
 20
166.21213345914273
 40
0.1330483926309121
  0
CIRCLE
  8
_1-0_
  6
CONTINUOUS
 62
    7
 10
193.31998258023648
 20
165.81298828125
 40
0.1330483926309121
  0
CIRCLE
  8
_1-0_
  6
CONTINUOUS
 62
    7
 10
191.98949865392737
 20
164.08335917704815
 40
0.1330483926309121
  0
CIRCLE
  8
_1-0_
  6
CONTINUOUS
 62
    7
 10
190.79206312024917
 20
164.74860114020271
 40
0.1330483926309121
  0
CIRCLE
  8
_1-0_
  6
CONTINUOUS
 62
    7
 10
191.1912082981419
 20
166.61127863703547
 40
0.1330483926309121
  0
CIRCLE
  8
_1-0_
  6
CONTINUOUS
 62
    7
 10
195.18264770507812
 20
165.94603667388091
 40
0.1330483926309121
  0
CIRCLE
  8
_1-0_
  6
CONTINUOUS
 62
    7
 10
152.82952385979732
 20
150.28391245249156
 40
0.1330483926309121
  0
CIRCLE
  8
_1-0_
  6
CONTINUOUS
 62
    7
 10
155.49049171241555
 20
149.88476727459883
 40
0.1330483926309121
  0
CIRCLE
  8
_1-0_
  6
CONTINUOUS
 62
    7
 10
154.16000778610643
 20
148.15513817039698
 40
0.1330483926309121
  0
CIRCLE
  8
_1-0_
  6
CONTINUOUS
 62
    7
 10
152.96257225242823
 20
148.82038013355154
 40
0.1330483926309121
  0
CIRCLE
  8
_1-0_
  6
CONTINUOUS
 62
    7
 10
153.36171743032097
 20
150.6830576303843
 40
0.1330483926309121
  0
CIRCLE
  8
_1-0_
  6
CONTINUOUS
 62
    7
 10
157.35315683725719
 20
150.01781566722974
 40
0.1330483926309121
  0
CIRCLE
  8
_1-0_
  6
CONTINUOUS
 62
    7
 10
203.13161489125847
 20
168.45691990207982
 40
0.1330483926309121
  0
CIRCLE
  8
_1-0_
  6
CONTINUOUS
 62
    7
 10
201.80113096494932
 20
168.05777472418708
 40
0.1330483926309121
  0
CIRCLE
  8
_1-0_
  6
CONTINUOUS
 62
    7
 10
201.17347511085305
 20
166.14969201990078
 40
0.1330483926309121
  0
CIRCLE
  8
_1-0_
  6
CONTINUOUS
 62
    7
 10
204.63273331925677
 20
165.88360760663008
 40
0.1330483926309121
  0
CIRCLE
  8
_1-0_
  6
CONTINUOUS
 62
    7
 10
203.30224939294766
 20
165.48446242873734
 40
0.1330483926309121
  0
CIRCLE
  8
_1-0_
  6
CONTINUOUS
 62
    7
 10
200.95901901657518
 20
165.72081694731841
 40
0.1330483926309121
  0
CIRCLE
  8
_1-0_
  6
CONTINUOUS
 62
    7
 10
204.41825248099664
 20
165.45473253404774
 40
0.1330483926309121
  0
CIRCLE
  8
_1-0_
  6
CONTINUOUS
 62
    7
 10
203.08779329866977
 20
165.055587356155
 40
0.1330483926309121
  0
CIRCLE
  8
_1-0_
  6
CONTINUOUS
 62
    7
 10
200.98719004038219
 20
167.17026994035052
 40
0.1330483926309121
  0
CIRCLE
  8
_1-0_
  6
CONTINUOUS
 62
    7
 10
199.65671848606419
 20
166.77112476245779
 40
0.1330483926309121
  0
CIRCLE
  8
_1-0_
  6
CONTINUOUS
 62
    7
 10
203.94556818781675
 20
168.27221844647383
 40
0.1330483926309121
  0
CIRCLE
  8
_1-0_
  6
CONTINUOUS
 62
    7
 10
206.10564360747466
 20
165.93526066960516
 40
0.1330483926309121
  0
CIRCLE
  8
_1-0_
  6
CONTINUOUS
 62
    7
 10
211.06441188502959
 20
165.34046482395482
 40
0.1330483926309121
  0
CIRCLE
  8
_1-0_
  6
CONTINUOUS
 62
    7
 10
209.73392795872044
 20
164.94131964606208
 40
0.1330483926309121
  0
CIRCLE
  8
_1-0_
  6
CONTINUOUS
 62
    7
 10
209.10627210462417
 20
163.03323694177578
 40
0.1330483926309121
  0
CIRCLE
  8
_1-0_
  6
CONTINUOUS
 62
    7
 10
212.56553031302789
 20
162.76715252850508
 40
0.1330483926309121
  0
CIRCLE
  8
_1-0_
  6
CONTINUOUS
 62
    7
 10
211.23504638671875
 20
162.36800735061234
 40
0.1330483926309121
  0
CIRCLE
  8
_1-0_
  6
CONTINUOUS
 62
    7
 10
208.8918160103463
 20
162.60436186919341
 40
0.1330483926309121
  0
CIRCLE
  8
_1-0_
  6
CONTINUOUS
 62
    7
 10
212.35104947476773
 20
162.33827745592274
 40
0.1330483926309121
  0
CIRCLE
  8
_1-0_
  6
CONTINUOUS
 62
    7
 10
211.02059029244089
 20
161.93913227803
 40
0.1330483926309121
  0
CIRCLE
  8
_1-0_
  6
CONTINUOUS
 62
    7
 10
208.91997466216216
 20
164.05381486222552
 40
0.1330483926309121
  0
CIRCLE
  8
_1-0_
  6
CONTINUOUS
 62
    7
 10
207.58951547983531
 20
163.65466968433279
 40
0.1330483926309121
  0
CIRCLE
  8
_1-0_
  6
CONTINUOUS
 62
    7
 10
211.87836518158784
 20
165.15576336834883
 40
0.1330483926309121
  0
CIRCLE
  8
_1-0_
  6
CONTINUOUS
 62
    7
 10
214.03844060124578
 20
162.81880559148016
 40
0.1330483926309121
  0
CIRCLE
  8
_1-0_
  6
CONTINUOUS
 62
    7
 10
215.59743520375847
 20
161.09073535816091
 40
0.1330483926309121
  0
CIRCLE
  8
_1-0_
  6
CONTINUOUS
 62
    7
 10
214.26695127744932
 20
160.69159018026818
 40
0.1330483926309121
  0
CIRCLE
  8
_1-0_
  6
CONTINUOUS
 62
    7
 10
213.63929542335305
 20
158.78350747598185
 40
0.1330483926309121
  0
CIRCLE
  8
_1-0_
  6
CONTINUOUS
 62
    7
 10
217.09855363175677
 20
158.51742306271115
 40
0.1330483926309121
  0
CIRCLE
  8
_1-0_
  6
CONTINUOUS
 62
    7
 10
215.76806970544766
 20
158.11827788481841
 40
0.1330483926309121
  0
CIRCLE
  8
_1-0_
  6
CONTINUOUS
 62
    7
 10
213.42483932907518
 20
158.35463240339951
 40
0.1330483926309121
  0
CIRCLE
  8
_1-0_
  6
CONTINUOUS
 62
    7
 10
216.88407279349664
 20
158.0885479901288
 40
0.1330483926309121
  0
CIRCLE
  8
_1-0_
  6
CONTINUOUS
 62
    7
 10
215.55361361116977
 20
157.68940281223607
 40
0.1330483926309121
  0
CIRCLE
  8
_1-0_
  6
CONTINUOUS
 62
    7
 10
213.45302272487334
 20
159.80408539643159
 40
0.1330483926309121
  0
CIRCLE
  8
_1-0_
  6
CONTINUOUS
 62
    7
 10
212.12253879856419
 20
159.40494021853885
 40
0.1330483926309121
  0
CIRCLE
  8
_1-0_
  6
CONTINUOUS
 62
    7
 10
216.41138850031675
 20
160.9060339025549
 40
0.1330483926309121
  0
CIRCLE
  8
_1-0_
  6
CONTINUOUS
 62
    7
 10
218.57146391997466
 20
158.56907612568625
 40
0.1330483926309121
  0
CIRCLE
  8
_1-0_
  6
CONTINUOUS
 62
    7
 10
222.68030115076016
 20
159.67416711755703
 40
0.1330483926309121
  0
CIRCLE
  8
_1-0_
  6
CONTINUOUS
 62
    7
 10
221.34981722445102
 20
159.27502193966427
 40
0.1330483926309121
  0
CIRCLE
  8
_1-0_
  6
CONTINUOUS
 62
    7
 10
220.72216137035474
 20
157.36693923537797
 40
0.1330483926309121
  0
CIRCLE
  8
_1-0_
  6
CONTINUOUS
 62
    7
 10
224.18141957875847
 20
157.10085482210727
 40
0.1330483926309121
  0
CIRCLE
  8
_1-0_
  6
CONTINUOUS
 62
    7
 10
222.85093565244932
 20
156.70170964421453
 40
0.1330483926309121
  0
CIRCLE
  8
_1-0_
  6
CONTINUOUS
 62
    7
 10
220.50770527607688
 20
156.93806416279563
 40
0.1330483926309121
  0
CIRCLE
  8
_1-0_
  6
CONTINUOUS
 62
    7
 10
223.96693874049834
 20
156.67197974952492
 40
0.1330483926309121
  0
CIRCLE
  8
_1-0_
  6
CONTINUOUS
 62
    7
 10
222.63647955817146
 20
156.27283457163219
 40
0.1330483926309121
  0
CIRCLE
  8
_1-0_
  6
CONTINUOUS
 62
    7
 10
220.535888671875
 20
158.38751715582771
 40
0.1330483926309121
  0
CIRCLE
  8
_1-0_
  6
CONTINUOUS
 62
    7
 10
219.20540474556589
 20
157.98837197793497
 40
0.1330483926309121
  0
CIRCLE
  8
_1-0_
  6
CONTINUOUS
 62
    7
 10
223.49425444731841
 20
159.48946566195102
 40
0.1330483926309121
  0
CIRCLE
  8
_1-0_
  6
CONTINUOUS
 62
    7
 10
225.65432986697635
 20
157.15250788508234
 40
0.1330483926309121
  0
CIRCLE
  8
_1-0_
  6
CONTINUOUS
 62
    7
 10
227.49664306640625
 20
157.97428028003591
 40
0.1330483926309121
  0
CIRCLE
  8
_1-0_
  6
CONTINUOUS
 62
    7
 10
226.16615914009714
 20
157.57513510214318
 40
0.1330483926309121
  0
CIRCLE
  8
_1-0_
  6
CONTINUOUS
 62
    7
 10
225.53850328600086
 20
155.66705239785685
 40
0.1330483926309121
  0
CIRCLE
  8
_1-0_
  6
CONTINUOUS
 62
    7
 10
228.99776149440459
 20
155.40096798458615
 40
0.1330483926309121
  0
CIRCLE
  8
_1-0_
  6
CONTINUOUS
 62
    7
 10
227.66727756809544
 20
155.00182280669341
 40
0.1330483926309121
  0
CIRCLE
  8
_1-0_
  6
CONTINUOUS
 62
    7
 10
225.324047191723
 20
155.23817732527451
 40
0.1330483926309121
  0
CIRCLE
  8
_1-0_
  6
CONTINUOUS
 62
    7
 10
228.78328065614443
 20
154.9720929120038
 40
0.1330483926309121
  0
CIRCLE
  8
_1-0_
  6
CONTINUOUS
 62
    7
 10
227.45282147381758
 20
154.57294773411107
 40
0.1330483926309121
  0
CIRCLE
  8
_1-0_
  6
CONTINUOUS
 62
    7
 10
225.35220584353885
 20
156.68763031830659
 40
0.1330483926309121
  0
CIRCLE
  8
_1-0_
  6
CONTINUOUS
 62
    7
 10
224.02174666121201
 20
156.28848514041385
 40
0.1330483926309121
  0
CIRCLE
  8
_1-0_
  6
CONTINUOUS
 62
    7
 10
228.31059636296453
 20
157.7895788244299
 40
0.1330483926309121
  0
CIRCLE
  8
_1-0_
  6
CONTINUOUS
 62
    7
 10
230.47067178262247
 20
155.45262104756125
 40
0.1330483926309121
  0
CIRCLE
  8
_1-0_
  6
CONTINUOUS
 62
    7
 10
234.86280286634292
 20
154.00789415514149
 40
0.1330483926309121
  0
CIRCLE
  8
_1-0_
  6
CONTINUOUS
 62
    7
 10
233.5323189400338
 20
153.60874897724875
 40
0.1330483926309121
  0
CIRCLE
  8
_1-0_
  6
CONTINUOUS
 62
    7
 10
232.9046630859375
 20
151.70066627296242
 40
0.1330483926309121
  0
CIRCLE
  8
_1-0_
  6
CONTINUOUS
 62
    7
 10
236.36392129434122
 20
151.43458185969172
 40
0.1330483926309121
  0
CIRCLE
  8
_1-0_
  6
CONTINUOUS
 62
    7
 10
235.03343736803211
 20
151.03543668179898
 40
0.1330483926309121
  0
CIRCLE
  8
_1-0_
  6
CONTINUOUS
 62
    7
 10
232.69020699165964
 20
151.27179120038008
 40
0.1330483926309121
  0
CIRCLE
  8
_1-0_
  6
CONTINUOUS
 62
    7
 10
236.14944045608109
 20
151.00570678710937
 40
0.1330483926309121
  0
CIRCLE
  8
_1-0_
  6
CONTINUOUS
 62
    7
 10
234.81898127375425
 20
150.60656160921664
 40
0.1330483926309121
  0
CIRCLE
  8
_1-0_
  6
CONTINUOUS
 62
    7
 10
232.71839038745779
 20
152.72124419341216
 40
0.1330483926309121
  0
CIRCLE
  8
_1-0_
  6
CONTINUOUS
 62
    7
 10
231.38790646114867
 20
152.32209901551943
 40
0.1330483926309121
  0
CIRCLE
  8
_1-0_
  6
CONTINUOUS
 62
    7
 10
235.6767561629012
 20
153.82319269953547
 40
0.1330483926309121
  0
CIRCLE
  8
_1-0_
  6
CONTINUOUS
 62
    7
 10
237.83683158255914
 20
151.48623492266682
 40
0.1330483926309121
  0
CIRCLE
  8
_1-0_
  6
CONTINUOUS
 62
    7
 10
228.91321130701016
 20
156.27439344251479
 40
0.1330483926309121
  0
CIRCLE
  8
_1-0_
  6
CONTINUOUS
 62
    7
 10
227.58272738070102
 20
155.87524826462206
 40
0.1330483926309121
  0
CIRCLE
  8
_1-0_
  6
CONTINUOUS
 62
    7
 10
226.95507152660474
 20
153.96716556033573
 40
0.1330483926309121
  0
CIRCLE
  8
_1-0_
  6
CONTINUOUS
 62
    7
 10
230.41432973500847
 20
153.70108114706505
 40
0.1330483926309121
  0
CIRCLE
  8
_1-0_
  6
CONTINUOUS
 62
    7
 10
229.08384580869935
 20
153.30193596917232
 40
0.1330483926309121
  0
CIRCLE
  8
_1-0_
  6
CONTINUOUS
 62
    7
 10
226.74061543232688
 20
153.53829048775339
 40
0.1330483926309121
  0
CIRCLE
  8
_1-0_
  6
CONTINUOUS
 62
    7
 10
230.19984889674834
 20
153.27220607448268
 40
0.1330483926309121
  0
CIRCLE
  8
_1-0_
  6
CONTINUOUS
 62
    7
 10
228.86938971442146
 20
152.87306089658995
 40
0.1330483926309121
  0
CIRCLE
  8
_1-0_
  6
CONTINUOUS
 62
    7
 10
226.768798828125
 20
154.98774348078547
 40
0.1330483926309121
  0
CIRCLE
  8
_1-0_
  6
CONTINUOUS
 62
    7
 10
225.43831490181589
 20
154.58859830289273
 40
0.1330483926309121
  0
CIRCLE
  8
_1-0_
  6
CONTINUOUS
 62
    7
 10
229.72716460356841
 20
156.0896919869088
 40
0.1330483926309121
  0
CIRCLE
  8
_1-0_
  6
CONTINUOUS
 62
    7
 10
231.88724002322635
 20
153.75273421004013
 40
0.1330483926309121
  0
CIRCLE
  8
_1-0_
  6
CONTINUOUS
 62
    7
 10
237.69593934755068
 20
152.8746321394637
 40
0.1330483926309121
  0
CIRCLE
  8
_1-0_
  6
CONTINUOUS
 62
    7
 10
236.36545542124156
 20
152.47548696157097
 40
0.1330483926309121
  0
CIRCLE
  8
_1-0_
  6
CONTINUOUS
 62
    7
 10
235.73779956714529
 20
150.56740425728464
 40
0.1330483926309121
  0
CIRCLE
  8
_1-0_
  6
CONTINUOUS
 62
    7
 10
239.19705777554901
 20
150.30131984401393
 40
0.1330483926309121
  0
CIRCLE
  8
_1-0_
  6
CONTINUOUS
 62
    7
 10
237.86657384923987
 20
149.9021746661212
 40
0.1330483926309121
  0
CIRCLE
  8
_1-0_
  6
CONTINUOUS
 62
    7
 10
235.52334347286742
 20
150.13852918470229
 40
0.1330483926309121
  0
CIRCLE
  8
_1-0_
  6
CONTINUOUS
 62
    7
 10
238.98257693728885
 20
149.87244477143159
 40
0.1330483926309121
  0
CIRCLE
  8
_1-0_
  6
CONTINUOUS
 62
    7
 10
237.65211775496201
 20
149.47329959353885
 40
0.1330483926309121
  0
CIRCLE
  8
_1-0_
  6
CONTINUOUS
 62
    7
 10
235.55152686866555
 20
151.58798217773437
 40
0.1330483926309121
  0
CIRCLE
  8
_1-0_
  6
CONTINUOUS
 62
    7
 10
234.22104294235643
 20
151.18883699984164
 40
0.1330483926309121
  0
CIRCLE
  8
_1-0_
  6
CONTINUOUS
 62
    7
 10
238.50989264410896
 20
152.68993068385768
 40
0.1330483926309121
  0
CIRCLE
  8
_1-0_
  6
CONTINUOUS
 62
    7
 10
240.6699680637669
 20
150.35297290698904
 40
0.1330483926309121
  0
CIRCLE
  8
_1-0_
  6
CONTINUOUS
 62
    7
 10
239.3958261850718
 20
151.45806389885982
 40
0.1330483926309121
  0
CIRCLE
  8
_1-0_
  6
CONTINUOUS
 62
    7
 10
238.06534225876268
 20
151.05891872096706
 40
0.1330483926309121
  0
CIRCLE
  8
_1-0_
  6
CONTINUOUS
 62
    7
 10
237.43768640466641
 20
149.15083601668076
 40
0.1330483926309121
  0
CIRCLE
  8
_1-0_
  6
CONTINUOUS
 62
    7
 10
240.8969446130701
 20
148.88475160341005
 40
0.1330483926309121
  0
CIRCLE
  8
_1-0_
  6
CONTINUOUS
 62
    7
 10
239.56646068676099
 20
148.48560642551732
 40
0.1330483926309121
  0
CIRCLE
  8
_1-0_
  6
CONTINUOUS
 62
    7
 10
237.22323031038852
 20
148.72196094409841
 40
0.1330483926309121
  0
CIRCLE
  8
_1-0_
  6
CONTINUOUS
 62
    7
 10
240.68246377480997
 20
148.45587653082771
 40
0.1330483926309121
  0
CIRCLE
  8
_1-0_
  6
CONTINUOUS
 62
    7
 10
239.35200459248313
 20
148.05673135293497
 40
0.1330483926309121
  0
CIRCLE
  8
_1-0_
  6
CONTINUOUS
 62
    7
 10
237.2513889622044
 20
150.1714139371305
 40
0.1330483926309121
  0
CIRCLE
  8
_1-0_
  6
CONTINUOUS
 62
    7
 10
235.92092977987755
 20
149.77226875923776
 40
0.1330483926309121
  0
CIRCLE
  8
_1-0_
  6
CONTINUOUS
 62
    7
 10
240.20977948163008
 20
151.2733624432538
 40
0.1330483926309121
  0
CIRCLE
  8
_1-0_
  6
CONTINUOUS
 62
    7
 10
242.36985490128802
 20
148.93640466638513
 40
0.1330483926309121
  0
CIRCLE
  8
_1-0_
  6
CONTINUOUS
 62
    7
 10
244.49548669763516
 20
150.04148328626479
 40
0.1330483926309121
  0
CIRCLE
  8
_1-0_
  6
CONTINUOUS
 62
    7
 10
243.16500277132602
 20
149.64233810837206
 40
0.1330483926309121
  0
CIRCLE
  8
_1-0_
  6
CONTINUOUS
 62
    7
 10
242.53734691722974
 20
147.73425540408573
 40
0.1330483926309121
  0
CIRCLE
  8
_1-0_
  6
CONTINUOUS
 62
    7
 10
245.99660512563347
 20
147.46817099081505
 40
0.1330483926309121
  0
CIRCLE
  8
_1-0_
  6
CONTINUOUS
 62
    7
 10
244.66612119932435
 20
147.06902581292232
 40
0.1330483926309121
  0
CIRCLE
  8
_1-0_
  6
CONTINUOUS
 62
    7
 10
242.32289082295188
 20
147.30538033150339
 40
0.1330483926309121
  0
CIRCLE
  8
_1-0_
  6
CONTINUOUS
 62
    7
 10
245.78212428737334
 20
147.03929591823268
 40
0.1330483926309121
  0
CIRCLE
  8
_1-0_
  6
CONTINUOUS
 62
    7
 10
244.45166510504646
 20
146.64015074033995
 40
0.1330483926309121
  0
CIRCLE
  8
_1-0_
  6
CONTINUOUS
 62
    7
 10
242.35107421875
 20
148.75483332453547
 40
0.1330483926309121
  0
CIRCLE
  8
_1-0_
  6
CONTINUOUS
 62
    7
 10
241.02059029244089
 20
148.35568814664273
 40
0.1330483926309121
  0
CIRCLE
  8
_1-0_
  6
CONTINUOUS
 62
    7
 10
245.30943999419344
 20
149.8567818306588
 40
0.1330483926309121
  0
CIRCLE
  8
_1-0_
  6
CONTINUOUS
 62
    7
 10
247.46951541385135
 20
147.51982405379013
 40
0.1330483926309121
  0
CIRCLE
  8
_1-0_
  6
CONTINUOUS
 62
    7
 10
247.89526037267737
 20
147.77497162690034
 40
0.1330483926309121
  0
CIRCLE
  8
_1-0_
  6
CONTINUOUS
 62
    7
 10
246.56477644636826
 20
147.3758264490076
 40
0.1330483926309121
  0
CIRCLE
  8
_1-0_
  6
CONTINUOUS
 62
    7
 10
245.93712059227198
 20
145.4677437447213
 40
0.1330483926309121
  0
CIRCLE
  8
_1-0_
  6
CONTINUOUS
 62
    7
 10
249.39637880067568
 20
145.2016593314506
 40
0.1330483926309121
  0
CIRCLE
  8
_1-0_
  6
CONTINUOUS
 62
    7
 10
248.06589487436656
 20
144.80251415355787
 40
0.1330483926309121
  0
CIRCLE
  8
_1-0_
  6
CONTINUOUS
 62
    7
 10
245.72266449799409
 20
145.03886867213893
 40
0.1330483926309121
  0
CIRCLE
  8
_1-0_
  6
CONTINUOUS
 62
    7
 10
249.18189796241555
 20
144.77278425886826
 40
0.1330483926309121
  0
CIRCLE
  8
_1-0_
  6
CONTINUOUS
 62
    7
 10
247.8514387800887
 20
144.37363908097552
 40
0.1330483926309121
  0
CIRCLE
  8
_1-0_
  6
CONTINUOUS
 62
    7
 10
245.75084789379224
 20
146.48832166517104
 40
0.1330483926309121
  0
CIRCLE
  8
_1-0_
  6
CONTINUOUS
 62
    7
 10
244.42036396748313
 20
146.08917648727831
 40
0.1330483926309121
  0
CIRCLE
  8
_1-0_
  6
CONTINUOUS
 62
    7
 10
248.70921366923565
 20
147.59027017129435
 40
0.1330483926309121
  0
CIRCLE
  8
_1-0_
  6
CONTINUOUS
 62
    7
 10
250.86928908889359
 20
145.25331239442568
 40
0.1330483926309121
  0
CIRCLE
  8
_1-0_
  6
CONTINUOUS
 62
    7
 10
251.29503404771961
 20
145.79177856445312
 40
0.1330483926309121
  0
CIRCLE
  8
_1-0_
  6
CONTINUOUS
 62
    7
 10
249.9645501214105
 20
145.39263338656039
 40
0.1330483926309121
  0
CIRCLE
  8
_1-0_
  6
CONTINUOUS
 62
    7
 10
249.33689426731419
 20
143.48455068227409
 40
0.1330483926309121
  0
CIRCLE
  8
_1-0_
  6
CONTINUOUS
 62
    7
 10
252.79615247571792
 20
143.21846626900339
 40
0.1330483926309121
  0
CIRCLE
  8
_1-0_
  6
CONTINUOUS
 62
    7
 10
251.4656685494088
 20
142.81932109111065
 40
0.1330483926309121
  0
CIRCLE
  8
_1-0_
  6
CONTINUOUS
 62
    7
 10
249.12243817303633
 20
143.05567560969172
 40
0.1330483926309121
  0
CIRCLE
  8
_1-0_
  6
CONTINUOUS
 62
    7
 10
252.58167163745779
 20
142.78959119642104
 40
0.1330483926309121
  0
CIRCLE
  8
_1-0_
  6
CONTINUOUS
 62
    7
 10
251.25121245513094
 20
142.39044601852831
 40
0.1330483926309121
  0
CIRCLE
  8
_1-0_
  6
CONTINUOUS
 62
    7
 10
249.15062156883448
 20
144.50512860272383
 40
0.1330483926309121
  0
CIRCLE
  8
_1-0_
  6
CONTINUOUS
 62
    7
 10
247.82013764252534
 20
144.10598342483109
 40
0.1330483926309121
  0
CIRCLE
  8
_1-0_
  6
CONTINUOUS
 62
    7
 10
252.10898734427789
 20
145.60707710884714
 40
0.1330483926309121
  0
CIRCLE
  8
_1-0_
  6
CONTINUOUS
 62
    7
 10
254.26906276393584
 20
143.27011933197846
 40
0.1330483926309121
  0
CIRCLE
  8
_1-0_
  6
CONTINUOUS
 62
    7
 10
254.41148912584461
 20
144.94183514569258
 40
0.1330483926309121
  0
CIRCLE
  8
_1-0_
  6
CONTINUOUS
 62
    7
 10
253.0810051995355
 20
144.54268996779984
 40
0.1330483926309121
  0
CIRCLE
  8
_1-0_
  6
CONTINUOUS
 62
    7
 10
252.45334934543919
 20
142.63460726351352
 40
0.1330483926309121
  0
CIRCLE
  8
_1-0_
  6
CONTINUOUS
 62
    7
 10
255.91260755384292
 20
142.36852285024284
 40
0.1330483926309121
  0
CIRCLE
  8
_1-0_
  6
CONTINUOUS
 62
    7
 10
254.5821236275338
 20
141.96937767235011
 40
0.1330483926309121
  0
CIRCLE
  8
_1-0_
  6
CONTINUOUS
 62
    7
 10
252.23889325116133
 20
142.20573219093117
 40
0.1330483926309121
  0
CIRCLE
  8
_1-0_
  6
CONTINUOUS
 62
    7
 10
255.69812671558279
 20
141.93964777766047
 40
0.1330483926309121
  0
CIRCLE
  8
_1-0_
  6
CONTINUOUS
 62
    7
 10
254.36766753325594
 20
141.54050259976773
 40
0.1330483926309121
  0
CIRCLE
  8
_1-0_
  6
CONTINUOUS
 62
    7
 10
252.26707664695948
 20
143.65518518396325
 40
0.1330483926309121
  0
CIRCLE
  8
_1-0_
  6
CONTINUOUS
 62
    7
 10
250.93659272065034
 20
143.25604000607052
 40
0.1330483926309121
  0
CIRCLE
  8
_1-0_
  6
CONTINUOUS
 62
    7
 10
255.22544242240289
 20
144.75713369008659
 40
0.1330483926309121
  0
CIRCLE
  8
_1-0_
  6
CONTINUOUS
 62
    7
 10
257.38551784206084
 20
142.42017591321792
 40
0.1330483926309121
  0
CIRCLE
  8
_1-0_
  6
CONTINUOUS
 62
    7
 10
258.3778999947213
 20
144.091891726932
 40
0.1330483926309121
  0
CIRCLE
  8
_1-0_
  6
CONTINUOUS
 62
    7
 10
257.04741606841219
 20
143.69274654903927
 40
0.1330483926309121
  0
CIRCLE
  8
_1-0_
  6
CONTINUOUS
 62
    7
 10
256.41976021431589
 20
141.78466384475297
 40
0.1330483926309121
  0
CIRCLE
  8
_1-0_
  6
CONTINUOUS
 62
    7
 10
259.87901842271958
 20
141.51857943148227
 40
0.1330483926309121
  0
CIRCLE
  8
_1-0_
  6
CONTINUOUS
 62
    7
 10
258.54853449641047
 20
141.11943425358953
 40
0.1330483926309121
  0
CIRCLE
  8
_1-0_
  6
CONTINUOUS
 62
    7
 10
256.20530412003802
 20
141.35578877217063
 40
0.1330483926309121
  0
CIRCLE
  8
_1-0_
  6
CONTINUOUS
 62
    7
 10
259.66453758445948
 20
141.08970435889992
 40
0.1330483926309121
  0
CIRCLE
  8
_1-0_
  6
CONTINUOUS
 62
    7
 10
258.3340784021326
 20
140.69055918100719
 40
0.1330483926309121
  0
CIRCLE
  8
_1-0_
  6
CONTINUOUS
 62
    7
 10
256.23348751583615
 20
142.80524176520271
 40
0.1330483926309121
  0
CIRCLE
  8
_1-0_
  6
CONTINUOUS
 62
    7
 10
254.90300358952703
 20
142.40609658730997
 40
0.1330483926309121
  0
CIRCLE
  8
_1-0_
  6
CONTINUOUS
 62
    7
 10
259.19185329127959
 20
143.90719027132602
 40
0.1330483926309121
  0
CIRCLE
  8
_1-0_
  6
CONTINUOUS
 62
    7
 10
261.3519287109375
 20
141.57023249445734
 40
0.1330483926309121
  0
CIRCLE
  8
_1-0_
  6
CONTINUOUS
 62
    7
 10
263.4775357633024
 20
140.975436648807
 40
0.1330483926309121
  0
CIRCLE
  8
_1-0_
  6
CONTINUOUS
 62
    7
 10
262.14705183699328
 20
140.57629147091427
 40
0.1330483926309121
  0
CIRCLE
  8
_1-0_
  6
CONTINUOUS
 62
    7
 10
261.51939598289698
 20
138.66820876662797
 40
0.1330483926309121
  0
CIRCLE
  8
_1-0_
  6
CONTINUOUS
 62
    7
 10
264.97865419130068
 20
138.40212435335727
 40
0.1330483926309121
  0
CIRCLE
  8
_1-0_
  6
CONTINUOUS
 62
    7
 10
263.64817026499156
 20
138.00297917546453
 40
0.1330483926309121
  0
CIRCLE
  8
_1-0_
  6
CONTINUOUS
 62
    7
 10
261.30493988861912
 20
138.23933369404563
 40
0.1330483926309121
  0
CIRCLE
  8
_1-0_
  6
CONTINUOUS
 62
    7
 10
264.76417335304058
 20
137.97324928077492
 40
0.1330483926309121
  0
CIRCLE
  8
_1-0_
  6
CONTINUOUS
 62
    7
 10
263.4337141707137
 20
137.57410410288219
 40
0.1330483926309121
  0
CIRCLE
  8
_1-0_
  6
CONTINUOUS
 62
    7
 10
261.33312328441724
 20
139.68878668707771
 40
0.1330483926309121
  0
CIRCLE
  8
_1-0_
  6
CONTINUOUS
 62
    7
 10
260.00263935810813
 20
139.28964150918497
 40
0.1330483926309121
  0
CIRCLE
  8
_1-0_
  6
CONTINUOUS
 62
    7
 10
264.29148905986068
 20
140.79073519320102
 40
0.1330483926309121
  0
CIRCLE
  8
_1-0_
  6
CONTINUOUS
 62
    7
 10
266.45156447951859
 20
138.45377741633234
 40
0.1330483926309121
  0
CIRCLE
  8
_1-0_
  6
CONTINUOUS
 62
    7
 10
267.16062803526182
 20
139.27554981128591
 40
0.1330483926309121
  0
CIRCLE
  8
_1-0_
  6
CONTINUOUS
 62
    7
 10
265.83014410895271
 20
138.87640463339318
 40
0.1330483926309121
  0
CIRCLE
  8
_1-0_
  6
CONTINUOUS
 62
    7
 10
265.20248825485646
 20
136.96832192910685
 40
0.1330483926309121
  0
CIRCLE
  8
_1-0_
  6
CONTINUOUS
 62
    7
 10
268.66174646326016
 20
136.70223751583615
 40
0.1330483926309121
  0
CIRCLE
  8
_1-0_
  6
CONTINUOUS
 62
    7
 10
267.33126253695104
 20
136.30309233794341
 40
0.1330483926309121
  0
CIRCLE
  8
_1-0_
  6
CONTINUOUS
 62
    7
 10
264.98803216057854
 20
136.53944685652451
 40
0.1330483926309121
  0
CIRCLE
  8
_1-0_
  6
CONTINUOUS
 62
    7
 10
268.447265625
 20
136.2733624432538
 40
0.1330483926309121
  0
CIRCLE
  8
_1-0_
  6
CONTINUOUS
 62
    7
 10
267.11680644267318
 20
135.87421726536107
 40
0.1330483926309121
  0
CIRCLE
  8
_1-0_
  6
CONTINUOUS
 62
    7
 10
265.01621555637672
 20
137.98889984955659
 40
0.1330483926309121
  0
CIRCLE
  8
_1-0_
  6
CONTINUOUS
 62
    7
 10
263.68573163006761
 20
137.58975467166385
 40
0.1330483926309121
  0
CIRCLE
  8
_1-0_
  6
CONTINUOUS
 62
    7
 10
267.9745813318201
 20
139.0908483556799
 40
0.1330483926309121
  0
CIRCLE
  8
_1-0_
  6
CONTINUOUS
 62
    7
 10
270.13465675147808
 20
136.75389057881125
 40
0.1330483926309121
  0
CIRCLE
  8
_1-0_
  6
CONTINUOUS
 62
    7
 10
271.97696995090797
 20
137.57566297376479
 40
0.1330483926309121
  0
CIRCLE
  8
_1-0_
  6
CONTINUOUS
 62
    7
 10
270.64648602459886
 20
137.17651779587206
 40
0.1330483926309121
  0
CIRCLE
  8
_1-0_
  6
CONTINUOUS
 62
    7
 10
270.01883017050255
 20
135.26843509158573
 40
0.1330483926309121
  0
CIRCLE
  8
_1-0_
  6
CONTINUOUS
 62
    7
 10
273.47808837890625
 20
135.00235067831505
 40
0.1330483926309121
  0
CIRCLE
  8
_1-0_
  6
CONTINUOUS
 62
    7
 10
272.14760445259714
 20
134.60320550042229
 40
0.1330483926309121
  0
CIRCLE
  8
_1-0_
  6
CONTINUOUS
 62
    7
 10
269.80437407622469
 20
134.83956001900339
 40
0.1330483926309121
  0
CIRCLE
  8
_1-0_
  6
CONTINUOUS
 62
    7
 10
273.26360754064615
 20
134.57347560573268
 40
0.1330483926309121
  0
CIRCLE
  8
_1-0_
  6
CONTINUOUS
 62
    7
 10
271.93314835831927
 20
134.17433042783995
 40
0.1330483926309121
  0
CIRCLE
  8
_1-0_
  6
CONTINUOUS
 62
    7
 10
269.83253272804058
 20
136.28901301203547
 40
0.1330483926309121
  0
CIRCLE
  8
_1-0_
  6
CONTINUOUS
 62
    7
 10
268.5020735457137
 20
135.88986783414273
 40
0.1330483926309121
  0
CIRCLE
  8
_1-0_
  6
CONTINUOUS
 62
    7
 10
272.79092324746625
 20
137.3909615181588
 40
0.1330483926309121
  0
CIRCLE
  8
_1-0_
  6
CONTINUOUS
 62
    7
 10
274.95099866712417
 20
135.05400374129013
 40
0.1330483926309121
  0
CIRCLE
  8
_1-0_
  6
CONTINUOUS
 62
    7
 10
274.52678783519849
 20
136.44241333007813
 40
0.1330483926309121
  0
CIRCLE
  8
_1-0_
  6
CONTINUOUS
 62
    7
 10
273.19630390888938
 20
136.04326815218539
 40
0.1330483926309121
  0
CIRCLE
  8
_1-0_
  6
CONTINUOUS
 62
    7
 10
272.56864805479307
 20
134.13518544789909
 40
0.1330483926309121
  0
CIRCLE
  8
_1-0_
  6
CONTINUOUS
 62
    7
 10
276.02790626319683
 20
133.86910103462839
 40
0.1330483926309121
  0
CIRCLE
  8
_1-0_
  6
CONTINUOUS
 62
    7
 10
274.69742233688771
 20
133.46995585673565
 40
0.1330483926309121
  0
CIRCLE
  8
_1-0_
  6
CONTINUOUS
 62
    7
 10
272.35419196051521
 20
133.70631037531672
 40
0.1330483926309121
  0
CIRCLE
  8
_1-0_
  6
CONTINUOUS
 62
    7
 10
275.81342542493667
 20
133.44022596204604
 40
0.1330483926309121
  0
CIRCLE
  8
_1-0_
  6
CONTINUOUS
 62
    7
 10
274.48296624260979
 20
133.04108078415331
 40
0.1330483926309121
  0
CIRCLE
  8
_1-0_
  6
CONTINUOUS
 62
    7
 10
272.38235061233109
 20
135.15576336834883
 40
0.1330483926309121
  0
CIRCLE
  8
_1-0_
  6
CONTINUOUS
 62
    7
 10
271.05189143000422
 20
134.75661819045609
 40
0.1330483926309121
  0
CIRCLE
  8
_1-0_
  6
CONTINUOUS
 62
    7
 10
275.34074113175677
 20
136.25771187447214
 40
0.1330483926309121
  0
CIRCLE
  8
_1-0_
  6
CONTINUOUS
 62
    7
 10
277.50081655141469
 20
133.92075409760346
 40
0.1330483926309121
  0
CIRCLE
  8
_1-0_
  6
CONTINUOUS
 62
    7
 10
284.15947166649073
 20
133.89257070180534
 40
0.1330483926309121
  0
CIRCLE
  8
_1-0_
  6
CONTINUOUS
 62
    7
 10
282.82898774018162
 20
133.49342552391261
 40
0.1330483926309121
  0
CIRCLE
  8
_1-0_
  6
CONTINUOUS
 62
    7
 10
282.20133188608531
 20
131.58534281962628
 40
0.1330483926309121
  0
CIRCLE
  8
_1-0_
  6
CONTINUOUS
 62
    7
 10
285.66059009448901
 20
131.31925840635557
 40
0.1330483926309121
  0
CIRCLE
  8
_1-0_
  6
CONTINUOUS
 62
    7
 10
284.3301061681799
 20
130.92011322846284
 40
0.1330483926309121
  0
CIRCLE
  8
_1-0_
  6
CONTINUOUS
 62
    7
 10
281.98687579180745
 20
131.15646774704393
 40
0.1330483926309121
  0
CIRCLE
  8
_1-0_
  6
CONTINUOUS
 62
    7
 10
285.44610925622891
 20
130.89038333377323
 40
0.1330483926309121
  0
CIRCLE
  8
_1-0_
  6
CONTINUOUS
 62
    7
 10
284.11565007390203
 20
130.4912381558805
 40
0.1330483926309121
  0
CIRCLE
  8
_1-0_
  6
CONTINUOUS
 62
    7
 10
282.01503444362334
 20
132.60592074007602
 40
0.1330483926309121
  0
CIRCLE
  8
_1-0_
  6
CONTINUOUS
 62
    7
 10
280.68457526129646
 20
132.20677556218328
 40
0.1330483926309121
  0
CIRCLE
  8
_1-0_
  6
CONTINUOUS
 62
    7
 10
284.97342496304901
 20
133.70786924619932
 40
0.1330483926309121
  0
CIRCLE
  8
_1-0_
  6
CONTINUOUS
 62
    7
 10
287.13350038270693
 20
131.37091146933068
 40
0.1330483926309121
  0
CIRCLE
  8
_1-0_
  6
CONTINUOUS
 62
    7
 10
277.35994906038854
 20
134.17588929872255
 40
0.1330483926309121
  0
CIRCLE
  8
_1-0_
  6
CONTINUOUS
 62
    7
 10
276.02946513407943
 20
133.77674412082982
 40
0.1330483926309121
  0
CIRCLE
  8
_1-0_
  6
CONTINUOUS
 62
    7
 10
275.40180927998313
 20
131.86866141654352
 40
0.1330483926309121
  0
CIRCLE
  8
_1-0_
  6
CONTINUOUS
 62
    7
 10
278.86106748838682
 20
131.60257700327281
 40
0.1330483926309121
  0
CIRCLE
  8
_1-0_
  6
CONTINUOUS
 62
    7
 10
277.53058356207771
 20
131.20343182538008
 40
0.1330483926309121
  0
CIRCLE
  8
_1-0_
  6
CONTINUOUS
 62
    7
 10
275.18735318570526
 20
131.43978634396115
 40
0.1330483926309121
  0
CIRCLE
  8
_1-0_
  6
CONTINUOUS
 62
    7
 10
278.64658665012672
 20
131.17370193069047
 40
0.1330483926309121
  0
CIRCLE
  8
_1-0_
  6
CONTINUOUS
 62
    7
 10
277.31612746779984
 20
130.77455675279774
 40
0.1330483926309121
  0
CIRCLE
  8
_1-0_
  6
CONTINUOUS
 62
    7
 10
275.21553658150339
 20
132.88923933699326
 40
0.1330483926309121
  0
CIRCLE
  8
_1-0_
  6
CONTINUOUS
 62
    7
 10
273.88505265519427
 20
132.49009415910052
 40
0.1330483926309121
  0
CIRCLE
  8
_1-0_
  6
CONTINUOUS
 62
    7
 10
278.17390235694683
 20
133.99118784311656
 40
0.1330483926309121
  0
CIRCLE
  8
_1-0_
  6
CONTINUOUS
 62
    7
 10
280.33397777660474
 20
131.65423006624789
 40
0.1330483926309121
  0
CIRCLE
  8
_1-0_
  6
CONTINUOUS
 62
    7
 10
288.69249498521958
 20
129.35954738307643
 40
0.1330483926309121
  0
CIRCLE
  8
_1-0_
  6
CONTINUOUS
 62
    7
 10
287.36201105891047
 20
128.9604022051837
 40
0.1330483926309121
  0
CIRCLE
  8
_1-0_
  6
CONTINUOUS
 62
    7
 10
286.73435520481422
 20
127.05231950089738
 40
0.1330483926309121
  0
CIRCLE
  8
_1-0_
  6
CONTINUOUS
 62
    7
 10
290.19361341321792
 20
126.78623508762669
 40
0.1330483926309121
  0
CIRCLE
  8
_1-0_
  6
CONTINUOUS
 62
    7
 10
288.8631294869088
 20
126.38708990973396
 40
0.1330483926309121
  0
CIRCLE
  8
_1-0_
  6
CONTINUOUS
 62
    7
 10
286.51989911053636
 20
126.62344442831504
 40
0.1330483926309121
  0
CIRCLE
  8
_1-0_
  6
CONTINUOUS
 62
    7
 10
289.97913257495776
 20
126.35736001504435
 40
0.1330483926309121
  0
CIRCLE
  8
_1-0_
  6
CONTINUOUS
 62
    7
 10
288.64867339263094
 20
125.95821483715162
 40
0.1330483926309121
  0
CIRCLE
  8
_1-0_
  6
CONTINUOUS
 62
    7
 10
286.54808250633448
 20
128.07289742134714
 40
0.1330483926309121
  0
CIRCLE
  8
_1-0_
  6
CONTINUOUS
 62
    7
 10
285.21759858002537
 20
127.6737522434544
 40
0.1330483926309121
  0
CIRCLE
  8
_1-0_
  6
CONTINUOUS
 62
    7
 10
289.50644828177786
 20
129.17484592747044
 40
0.1330483926309121
  0
CIRCLE
  8
_1-0_
  6
CONTINUOUS
 62
    7
 10
291.66652370143584
 20
126.83788815060178
 40
0.1330483926309121
  0
CIRCLE
  8
_1-0_
  6
CONTINUOUS
 62
    7
 10
292.37558725717906
 20
127.09303572371201
 40
0.1330483926309121
  0
CIRCLE
  8
_1-0_
  6
CONTINUOUS
 62
    7
 10
291.04510333086995
 20
126.69389054581926
 40
0.1330483926309121
  0
CIRCLE
  8
_1-0_
  6
CONTINUOUS
 62
    7
 10
290.41744747677365
 20
124.78580784153294
 40
0.1330483926309121
  0
CIRCLE
  8
_1-0_
  6
CONTINUOUS
 62
    7
 10
293.8767056851774
 20
124.51972342826225
 40
0.1330483926309121
  0
CIRCLE
  8
_1-0_
  6
CONTINUOUS
 62
    7
 10
292.54622175886828
 20
124.12057825036952
 40
0.1330483926309121
  0
CIRCLE
  8
_1-0_
  6
CONTINUOUS
 62
    7
 10
290.20299138249578
 20
124.3569327689506
 40
0.1330483926309121
  0
CIRCLE
  8
_1-0_
  6
CONTINUOUS
 62
    7
 10
293.66222484691724
 20
124.09084835567991
 40
0.1330483926309121
  0
CIRCLE
  8
_1-0_
  6
CONTINUOUS
 62
    7
 10
292.33176566459036
 20
123.69170317778718
 40
0.1330483926309121
  0
CIRCLE
  8
_1-0_
  6
CONTINUOUS
 62
    7
 10
290.23117477829396
 20
125.8063857619827
 40
0.1330483926309121
  0
CIRCLE
  8
_1-0_
  6
CONTINUOUS
 62
    7
 10
288.90069085198479
 20
125.40724058408996
 40
0.1330483926309121
  0
CIRCLE
  8
_1-0_
  6
CONTINUOUS
 62
    7
 10
293.18954055373734
 20
126.908334268106
 40
0.1330483926309121
  0
CIRCLE
  8
_1-0_
  6
CONTINUOUS
 62
    7
 10
295.34961597339526
 20
124.57137649123734
 40
0.1330483926309121
  0
CIRCLE
  8
_1-0_
  6
CONTINUOUS
 62
    7
 10
297.4752477697424
 20
124.82652406434755
 40
0.1330483926309121
  0
CIRCLE
  8
_1-0_
  6
CONTINUOUS
 62
    7
 10
296.14476384343328
 20
124.42737888645482
 40
0.1330483926309121
  0
CIRCLE
  8
_1-0_
  6
CONTINUOUS
 62
    7
 10
295.51710798933703
 20
122.5192961821685
 40
0.1330483926309121
  0
CIRCLE
  8
_1-0_
  6
CONTINUOUS
 62
    7
 10
298.97636619774073
 20
122.25321176889781
 40
0.1330483926309121
  0
CIRCLE
  8
_1-0_
  6
CONTINUOUS
 62
    7
 10
297.64588227143162
 20
121.85406659100508
 40
0.1330483926309121
  0
CIRCLE
  8
_1-0_
  6
CONTINUOUS
 62
    7
 10
295.30265189505911
 20
122.09042110958616
 40
0.1330483926309121
  0
CIRCLE
  8
_1-0_
  6
CONTINUOUS
 62
    7
 10
298.76188535948057
 20
121.82433669631547
 40
0.1330483926309121
  0
CIRCLE
  8
_1-0_
  6
CONTINUOUS
 62
    7
 10
297.43142617715375
 20
121.42519151842272
 40
0.1330483926309121
  0
CIRCLE
  8
_1-0_
  6
CONTINUOUS
 62
    7
 10
295.330810546875
 20
123.53987410261826
 40
0.1330483926309121
  0
CIRCLE
  8
_1-0_
  6
CONTINUOUS
 62
    7
 10
294.00035136454818
 20
123.14072892472551
 40
0.1330483926309121
  0
CIRCLE
  8
_1-0_
  6
CONTINUOUS
 62
    7
 10
298.28920106630068
 20
124.64182260874156
 40
0.1330483926309121
  0
CIRCLE
  8
_1-0_
  6
CONTINUOUS
 62
    7
 10
300.44927648595865
 20
122.30486483187289
 40
0.1330483926309121
  0
CIRCLE
  8
_1-0_
  6
CONTINUOUS
 62
    7
 10
300.30838425095021
 20
123.40995582374367
 40
0.1330483926309121
  0
CIRCLE
  8
_1-0_
  6
CONTINUOUS
 62
    7
 10
298.97790032464104
 20
123.01081064585094
 40
0.1330483926309121
  0
CIRCLE
  8
_1-0_
  6
CONTINUOUS
 62
    7
 10
298.35024447054479
 20
121.10272794156462
 40
0.1330483926309121
  0
CIRCLE
  8
_1-0_
  6
CONTINUOUS
 62
    7
 10
301.80950267894849
 20
120.83664352829392
 40
0.1330483926309121
  0
CIRCLE
  8
_1-0_
  6
CONTINUOUS
 62
    7
 10
300.47901875263938
 20
120.43749835040119
 40
0.1330483926309121
  0
CIRCLE
  8
_1-0_
  6
CONTINUOUS
 62
    7
 10
298.13578837626693
 20
120.67385286898227
 40
0.1330483926309121
  0
CIRCLE
  8
_1-0_
  6
CONTINUOUS
 62
    7
 10
301.59502184068839
 20
120.40776845571158
 40
0.1330483926309121
  0
CIRCLE
  8
_1-0_
  6
CONTINUOUS
 62
    7
 10
300.26456265836151
 20
120.00862327781884
 40
0.1330483926309121
  0
CIRCLE
  8
_1-0_
  6
CONTINUOUS
 62
    7
 10
298.16394702808276
 20
122.12330586201436
 40
0.1330483926309121
  0
CIRCLE
  8
_1-0_
  6
CONTINUOUS
 62
    7
 10
296.83348784575594
 20
121.72416068412163
 40
0.1330483926309121
  0
CIRCLE
  8
_1-0_
  6
CONTINUOUS
 62
    7
 10
301.12233754750844
 20
123.22525436813767
 40
0.1330483926309121
  0
CIRCLE
  8
_1-0_
  6
CONTINUOUS
 62
    7
 10
303.28241296716641
 20
120.88829659126901
 40
0.1330483926309121
  0
CIRCLE
  8
_1-0_
  6
CONTINUOUS
 62
    7
 10
305.1247261665963
 20
121.42675038930533
 40
0.1330483926309121
  0
CIRCLE
  8
_1-0_
  6
CONTINUOUS
 62
    7
 10
303.79424224028719
 20
121.02760521141259
 40
0.1330483926309121
  0
CIRCLE
  8
_1-0_
  6
CONTINUOUS
 62
    7
 10
303.16658638619089
 20
119.11952250712628
 40
0.1330483926309121
  0
CIRCLE
  8
_1-0_
  6
CONTINUOUS
 62
    7
 10
306.62584459459464
 20
118.85343809385559
 40
0.1330483926309121
  0
CIRCLE
  8
_1-0_
  6
CONTINUOUS
 62
    7
 10
305.29536066828547
 20
118.45429291596284
 40
0.1330483926309121
  0
CIRCLE
  8
_1-0_
  6
CONTINUOUS
 62
    7
 10
302.95213029191302
 20
118.69064743454392
 40
0.1330483926309121
  0
CIRCLE
  8
_1-0_
  6
CONTINUOUS
 62
    7
 10
306.41136375633448
 20
118.42456302127323
 40
0.1330483926309121
  0
CIRCLE
  8
_1-0_
  6
CONTINUOUS
 62
    7
 10
305.0809045740076
 20
118.0254178433805
 40
0.1330483926309121
  0
CIRCLE
  8
_1-0_
  6
CONTINUOUS
 62
    7
 10
302.98031368771115
 20
120.14010042757602
 40
0.1330483926309121
  0
CIRCLE
  8
_1-0_
  6
CONTINUOUS
 62
    7
 10
301.64982976140203
 20
119.74095524968328
 40
0.1330483926309121
  0
CIRCLE
  8
_1-0_
  6
CONTINUOUS
 62
    7
 10
305.93867946315459
 20
121.24204893369934
 40
0.1330483926309121
  0
CIRCLE
  8
_1-0_
  6
CONTINUOUS
 62
    7
 10
308.0987548828125
 20
118.90509115683066
 40
0.1330483926309121
  0
CIRCLE
  8
_1-0_
  6
CONTINUOUS
 62
    7
 10
311.64095491976354
 20
119.16023872994089
 40
0.1330483926309121
  0
CIRCLE
  8
_1-0_
  6
CONTINUOUS
 62
    7
 10
310.31047099345443
 20
118.76109355204815
 40
0.1330483926309121
  0
CIRCLE
  8
_1-0_
  6
CONTINUOUS
 62
    7
 10
309.68281513935813
 20
116.85301084776184
 40
0.1330483926309121
  0
CIRCLE
  8
_1-0_
  6
CONTINUOUS
 62
    7
 10
313.14207334776182
 20
116.58692643449113
 40
0.1330483926309121
  0
CIRCLE
  8
_1-0_
  6
CONTINUOUS
 62
    7
 10
311.81158942145271
 20
116.1877812565984
 40
0.1330483926309121
  0
CIRCLE
  8
_1-0_
  6
CONTINUOUS
 62
    7
 10
309.46835904508026
 20
116.42413577517948
 40
0.1330483926309121
  0
CIRCLE
  8
_1-0_
  6
CONTINUOUS
 62
    7
 10
312.92759250950172
 20
116.15805136190879
 40
0.1330483926309121
  0
CIRCLE
  8
_1-0_
  6
CONTINUOUS
 62
    7
 10
311.59713332717484
 20
115.75890618401606
 40
0.1330483926309121
  0
CIRCLE
  8
_1-0_
  6
CONTINUOUS
 62
    7
 10
309.49654244087839
 20
117.87358876821158
 40
0.1330483926309121
  0
CIRCLE
  8
_1-0_
  6
CONTINUOUS
 62
    7
 10
308.16605851456927
 20
117.47444359031884
 40
0.1330483926309121
  0
CIRCLE
  8
_1-0_
  6
CONTINUOUS
 62
    7
 10
312.45490821632183
 20
118.97553727433488
 40
0.1330483926309121
  0
CIRCLE
  8
_1-0_
  6
CONTINUOUS
 62
    7
 10
314.61498363597974
 20
116.63857949746622
 40
0.1330483926309121
  0
CIRCLE
  8
_1-0_
  6
CONTINUOUS
 62
    7
 10
315.04072859480578
 20
117.46035189241977
 40
0.1330483926309121
  0
CIRCLE
  8
_1-0_
  6
CONTINUOUS
 62
    7
 10
313.71024466849661
 20
117.06120671452703
 40
0.1330483926309121
  0
CIRCLE
  8
_1-0_
  6
CONTINUOUS
 62
    7
 10
313.08258881440037
 20
115.15312401024072
 40
0.1330483926309121
  0
CIRCLE
  8
_1-0_
  6
CONTINUOUS
 62
    7
 10
316.54184702280406
 20
114.88703959697003
 40
0.1330483926309121
  0
CIRCLE
  8
_1-0_
  6
CONTINUOUS
 62
    7
 10
315.21136309649495
 20
114.48789441907729
 40
0.1330483926309121
  0
CIRCLE
  8
_1-0_
  6
CONTINUOUS
 62
    7
 10
312.8681327201225
 20
114.72424893765837
 40
0.1330483926309121
  0
CIRCLE
  8
_1-0_
  6
CONTINUOUS
 62
    7
 10
316.32736618454396
 20
114.45816452438767
 40
0.1330483926309121
  0
CIRCLE
  8
_1-0_
  6
CONTINUOUS
 62
    7
 10
314.99690700221709
 20
114.05901934649494
 40
0.1330483926309121
  0
CIRCLE
  8
_1-0_
  6
CONTINUOUS
 62
    7
 10
312.89631611592063
 20
116.17370193069046
 40
0.1330483926309121
  0
CIRCLE
  8
_1-0_
  6
CONTINUOUS
 62
    7
 10
311.56583218961151
 20
115.77455675279772
 40
0.1330483926309121
  0
CIRCLE
  8
_1-0_
  6
CONTINUOUS
 62
    7
 10
315.85468189136401
 20
117.27565043681378
 40
0.1330483926309121
  0
CIRCLE
  8
_1-0_
  6
CONTINUOUS
 62
    7
 10
318.01475731102198
 20
114.9386926599451
 40
0.1330483926309121
  0
CIRCLE
  8
_1-0_
  6
CONTINUOUS
 62
    7
 10
319.00713946368245
 20
115.47715882997255
 40
0.1330483926309121
  0
CIRCLE
  8
_1-0_
  6
CONTINUOUS
 62
    7
 10
317.67665553737334
 20
115.07801365207982
 40
0.1330483926309121
  0
CIRCLE
  8
_1-0_
  6
CONTINUOUS
 62
    7
 10
317.04899968327703
 20
113.1699309477935
 40
0.1330483926309121
  0
CIRCLE
  8
_1-0_
  6
CONTINUOUS
 62
    7
 10
320.50825789168078
 20
112.90384653452281
 40
0.1330483926309121
  0
CIRCLE
  8
_1-0_
  6
CONTINUOUS
 62
    7
 10
319.17777396537161
 20
112.50470135663008
 40
0.1330483926309121
  0
CIRCLE
  8
_1-0_
  6
CONTINUOUS
 62
    7
 10
316.83454358899917
 20
112.74105587521116
 40
0.1330483926309121
  0
CIRCLE
  8
_1-0_
  6
CONTINUOUS
 62
    7
 10
320.29377705342063
 20
112.47497146194046
 40
0.1330483926309121
  0
CIRCLE
  8
_1-0_
  6
CONTINUOUS
 62
    7
 10
318.96331787109375
 20
112.07582628404772
 40
0.1330483926309121
  0
CIRCLE
  8
_1-0_
  6
CONTINUOUS
 62
    7
 10
316.86272698479729
 20
114.19050886824326
 40
0.1330483926309121
  0
CIRCLE
  8
_1-0_
  6
CONTINUOUS
 62
    7
 10
315.53224305848818
 20
113.79136369035051
 40
0.1330483926309121
  0
CIRCLE
  8
_1-0_
  6
CONTINUOUS
 62
    7
 10
319.82109276024073
 20
115.29245737436656
 40
0.1330483926309121
  0
CIRCLE
  8
_1-0_
  6
CONTINUOUS
 62
    7
 10
321.98116817989865
 20
112.95549959749789
 40
0.1330483926309121
  0
CIRCLE
  8
_1-0_
  6
CONTINUOUS
 62
    7
 10
325.52336821684969
 20
113.21063479861698
 40
0.1330483926309121
  0
CIRCLE
  8
_1-0_
  6
CONTINUOUS
 62
    7
 10
324.19288429054058
 20
112.81148962072425
 40
0.1330483926309121
  0
CIRCLE
  8
_1-0_
  6
CONTINUOUS
 62
    7
 10
323.56522843644427
 20
110.90340691643793
 40
0.1330483926309121
  0
CIRCLE
  8
_1-0_
  6
CONTINUOUS
 62
    7
 10
327.02448664484797
 20
110.63732250316724
 40
0.1330483926309121
  0
CIRCLE
  8
_1-0_
  6
CONTINUOUS
 62
    7
 10
325.69400271853885
 20
110.23817732527451
 40
0.1330483926309121
  0
CIRCLE
  8
_1-0_
  6
CONTINUOUS
 62
    7
 10
323.35077234216641
 20
110.47453184385559
 40
0.1330483926309121
  0
CIRCLE
  8
_1-0_
  6
CONTINUOUS
 62
    7
 10
326.81000580658787
 20
110.20844743058488
 40
0.1330483926309121
  0
CIRCLE
  8
_1-0_
  6
CONTINUOUS
 62
    7
 10
325.47954662426099
 20
109.80930225269215
 40
0.1330483926309121
  0
CIRCLE
  8
_1-0_
  6
CONTINUOUS
 62
    7
 10
323.37895573796453
 20
111.92398483688767
 40
0.1330483926309121
  0
CIRCLE
  8
_1-0_
  6
CONTINUOUS
 62
    7
 10
322.04847181165542
 20
111.52483965899494
 40
0.1330483926309121
  0
CIRCLE
  8
_1-0_
  6
CONTINUOUS
 62
    7
 10
326.33732151340797
 20
113.02593334301099
 40
0.1330483926309121
  0
CIRCLE
  8
_1-0_
  6
CONTINUOUS
 62
    7
 10
328.49739693306589
 20
110.68897556614232
 40
0.1330483926309121
  0
CIRCLE
  8
_1-0_
  6
CONTINUOUS
 62
    7
 10
330.62300398543078
 20
110.66081691432645
 40
0.1330483926309121
  0
CIRCLE
  8
_1-0_
  6
CONTINUOUS
 62
    7
 10
329.29252005912161
 20
110.26167173643371
 40
0.1330483926309121
  0
CIRCLE
  8
_1-0_
  6
CONTINUOUS
 62
    7
 10
328.66486420502537
 20
108.35358903214738
 40
0.1330483926309121
  0
CIRCLE
  8
_1-0_
  6
CONTINUOUS
 62
    7
 10
332.12412241342906
 20
108.08750461887669
 40
0.1330483926309121
  0
CIRCLE
  8
_1-0_
  6
CONTINUOUS
 62
    7
 10
330.79363848711995
 20
107.68835944098396
 40
0.1330483926309121
  0
CIRCLE
  8
_1-0_
  6
CONTINUOUS
 62
    7
 10
328.4504081107475
 20
107.92471395956504
 40
0.1330483926309121
  0
CIRCLE
  8
_1-0_
  6
CONTINUOUS
 62
    7
 10
331.90964157516896
 20
107.65862954629435
 40
0.1330483926309121
  0
CIRCLE
  8
_1-0_
  6
CONTINUOUS
 62
    7
 10
330.57918239284209
 20
107.25948436840162
 40
0.1330483926309121
  0
CIRCLE
  8
_1-0_
  6
CONTINUOUS
 62
    7
 10
328.47859150654563
 20
109.37416695259714
 40
0.1330483926309121
  0
CIRCLE
  8
_1-0_
  6
CONTINUOUS
 62
    7
 10
327.14810758023651
 20
108.9750217747044
 40
0.1330483926309121
  0
CIRCLE
  8
_1-0_
  6
CONTINUOUS
 62
    7
 10
331.43695728198907
 20
110.47611545872044
 40
0.1330483926309121
  0
CIRCLE
  8
_1-0_
  6
CONTINUOUS
 62
    7
 10
333.59703270164698
 20
108.13915768185178
 40
0.1330483926309121
  0
CIRCLE
  8
_1-0_
  6
CONTINUOUS
 62
    7
 10
341.95557465424412
 20
106.12778122360642
 40
0.1330483926309121
  0
CIRCLE
  8
_1-0_
  6
CONTINUOUS
 62
    7
 10
340.625090727935
 20
105.72863604571369
 40
0.1330483926309121
  0
CIRCLE
  8
_1-0_
  6
CONTINUOUS
 62
    7
 10
339.9974348738387
 20
103.82055334142737
 40
0.1330483926309121
  0
CIRCLE
  8
_1-0_
  6
CONTINUOUS
 62
    7
 10
343.4566930822424
 20
103.55446892815668
 40
0.1330483926309121
  0
CIRCLE
  8
_1-0_
  6
CONTINUOUS
 62
    7
 10
342.12620915593328
 20
103.15532375026395
 40
0.1330483926309121
  0
CIRCLE
  8
_1-0_
  6
CONTINUOUS
 62
    7
 10
339.78297877956084
 20
103.39167826884503
 40
0.1330483926309121
  0
CIRCLE
  8
_1-0_
  6
CONTINUOUS
 62
    7
 10
343.24221224398229
 20
103.12559385557434
 40
0.1330483926309121
  0
CIRCLE
  8
_1-0_
  6
CONTINUOUS
 62
    7
 10
341.91175306165542
 20
102.72644867768159
 40
0.1330483926309121
  0
CIRCLE
  8
_1-0_
  6
CONTINUOUS
 62
    7
 10
339.81113743137672
 20
104.84113126187712
 40
0.1330483926309121
  0
CIRCLE
  8
_1-0_
  6
CONTINUOUS
 62
    7
 10
338.48067824904984
 20
104.44198608398437
 40
0.1330483926309121
  0
CIRCLE
  8
_1-0_
  6
CONTINUOUS
 62
    7
 10
342.7695279508024
 20
105.94307976800043
 40
0.1330483926309121
  0
CIRCLE
  8
_1-0_
  6
CONTINUOUS
 62
    7
 10
344.92960337046031
 20
103.60612199113176
 40
0.1330483926309121
  0
CIRCLE
  8
_1-0_
  6
CONTINUOUS
 62
    7
 10
332.32289082295188
 20
107.82766806112754
 40
0.1330483926309121
  0
CIRCLE
  8
_1-0_
  6
CONTINUOUS
 62
    7
 10
330.99240689664276
 20
107.42852288323481
 40
0.1330483926309121
  0
CIRCLE
  8
_1-0_
  6
CONTINUOUS
 62
    7
 10
330.36475104254646
 20
105.52044017894849
 40
0.1330483926309121
  0
CIRCLE
  8
_1-0_
  6
CONTINUOUS
 62
    7
 10
333.82400925095021
 20
105.25435576567779
 40
0.1330483926309121
  0
CIRCLE
  8
_1-0_
  6
CONTINUOUS
 62
    7
 10
332.49352532464104
 20
104.85521058778505
 40
0.1330483926309121
  0
CIRCLE
  8
_1-0_
  6
CONTINUOUS
 62
    7
 10
330.15029494826859
 20
105.09156510636613
 40
0.1330483926309121
  0
CIRCLE
  8
_1-0_
  6
CONTINUOUS
 62
    7
 10
333.60952841269005
 20
104.82548069309544
 40
0.1330483926309121
  0
CIRCLE
  8
_1-0_
  6
CONTINUOUS
 62
    7
 10
332.27906923036318
 20
104.42633551520271
 40
0.1330483926309121
  0
CIRCLE
  8
_1-0_
  6
CONTINUOUS
 62
    7
 10
330.17845360008448
 20
106.54101809939823
 40
0.1330483926309121
  0
CIRCLE
  8
_1-0_
  6
CONTINUOUS
 62
    7
 10
328.8479944177576
 20
106.1418729215055
 40
0.1330483926309121
  0
CIRCLE
  8
_1-0_
  6
CONTINUOUS
 62
    7
 10
333.13684411951016
 20
107.64296660552154
 40
0.1330483926309121
  0
CIRCLE
  8
_1-0_
  6
CONTINUOUS
 62
    7
 10
335.29691953916807
 20
105.30600882865288
 40
0.1330483926309121
  0
CIRCLE
  8
_1-0_
  6
CONTINUOUS
 62
    7
 10
353.85478251689193
 20
102.16138272672087
 40
0.1330483926309121
  0
CIRCLE
  8
_1-0_
  6
CONTINUOUS
 62
    7
 10
352.52429859058282
 20
101.76223754882812
 40
0.1330483926309121
  0
CIRCLE
  8
_1-0_
  6
CONTINUOUS
 62
    7
 10
351.89664273648651
 20
99.85415484454181
 40
0.1330483926309121
  0
CIRCLE
  8
_1-0_
  6
CONTINUOUS
 62
    7
 10
355.35590094489021
 20
99.58807043127112
 40
0.1330483926309121
  0
CIRCLE
  8
_1-0_
  6
CONTINUOUS
 62
    7
 10
354.02541701858109
 20
99.188925253378386
 40
0.1330483926309121
  0
CIRCLE
  8
_1-0_
  6
CONTINUOUS
 62
    7
 10
351.68218664220865
 20
99.425279771959467
 40
0.1330483926309121
  0
CIRCLE
  8
_1-0_
  6
CONTINUOUS
 62
    7
 10
355.14142010663011
 20
99.159195358688777
 40
0.1330483926309121
  0
CIRCLE
  8
_1-0_
  6
CONTINUOUS
 62
    7
 10
353.81096092430323
 20
98.760050180796043
 40
0.1330483926309121
  0
CIRCLE
  8
_1-0_
  6
CONTINUOUS
 62
    7
 10
351.71037003800677
 20
100.87473276499156
 40
0.1330483926309121
  0
CIRCLE
  8
_1-0_
  6
CONTINUOUS
 62
    7
 10
350.37988611169766
 20
100.47558758709883
 40
0.1330483926309121
  0
CIRCLE
  8
_1-0_
  6
CONTINUOUS
 62
    7
 10
354.66873581345021
 20
101.97668127111487
 40
0.1330483926309121
  0
CIRCLE
  8
_1-0_
  6
CONTINUOUS
 62
    7
 10
356.82881123310813
 20
99.639723494246198
 40
0.1330483926309121
  0
CIRCLE
  8
_1-0_
  6
CONTINUOUS
 62
    7
 10
358.67109968855578
 20
97.911678004909206
 40
0.1330483926309121
  0
CIRCLE
  8
_1-0_
  6
CONTINUOUS
 62
    7
 10
357.34061576224661
 20
97.512532827016472
 40
0.1330483926309121
  0
CIRCLE
  8
_1-0_
  6
CONTINUOUS
 62
    7
 10
356.71295990815037
 20
95.604450122730157
 40
0.1330483926309121
  0
CIRCLE
  8
_1-0_
  6
CONTINUOUS
 62
    7
 10
360.17221811655406
 20
95.338365709459467
 40
0.1330483926309121
  0
CIRCLE
  8
_1-0_
  6
CONTINUOUS
 62
    7
 10
358.84173419024495
 20
94.939220531566733
 40
0.1330483926309121
  0
CIRCLE
  8
_1-0_
  6
CONTINUOUS
 62
    7
 10
356.4985038138725
 20
95.175575050147813
 40
0.1330483926309121
  0
CIRCLE
  8
_1-0_
  6
CONTINUOUS
 62
    7
 10
359.95773727829396
 20
94.909490636877123
 40
0.1330483926309121
  0
CIRCLE
  8
_1-0_
  6
CONTINUOUS
 62
    7
 10
358.62727809596709
 20
94.510345458984375
 40
0.1330483926309121
  0
CIRCLE
  8
_1-0_
  6
CONTINUOUS
 62
    7
 10
356.52668720967063
 20
96.62502804317991
 40
0.1330483926309121
  0
CIRCLE
  8
_1-0_
  6
CONTINUOUS
 62
    7
 10
355.19620328336151
 20
96.225882865287161
 40
0.1330483926309121
  0
CIRCLE
  8
_1-0_
  6
CONTINUOUS
 62
    7
 10
359.48505298511407
 20
97.726976549303217
 40
0.1330483926309121
  0
CIRCLE
  8
_1-0_
  6
CONTINUOUS
 62
    7
 10
361.64512840477198
 20
95.390018772434544
 40
0.1330483926309121
  0
CIRCLE
  8
_1-0_
  6
CONTINUOUS
 62
    7
 10
348.47180340741136
 20
101.59475790487754
 40
0.1330483926309121
  0
CIRCLE
  8
_1-0_
  6
CONTINUOUS
 62
    7
 10
347.14131948110224
 20
101.19561272698481
 40
0.1330483926309121
  0
CIRCLE
  8
_1-0_
  6
CONTINUOUS
 62
    7
 10
346.51366362700594
 20
99.28753002269849
 40
0.1330483926309121
  0
CIRCLE
  8
_1-0_
  6
CONTINUOUS
 62
    7
 10
349.97292183540964
 20
99.021445609427786
 40
0.1330483926309121
  0
CIRCLE
  8
_1-0_
  6
CONTINUOUS
 62
    7
 10
348.64243790910052
 20
98.622300431535052
 40
0.1330483926309121
  0
CIRCLE
  8
_1-0_
  6
CONTINUOUS
 62
    7
 10
346.29920753272808
 20
98.858654950116133
 40
0.1330483926309121
  0
CIRCLE
  8
_1-0_
  6
CONTINUOUS
 62
    7
 10
349.75844099714953
 20
98.592570536845443
 40
0.1330483926309121
  0
CIRCLE
  8
_1-0_
  6
CONTINUOUS
 62
    7
 10
348.42798181482266
 20
98.193425358952709
 40
0.1330483926309121
  0
CIRCLE
  8
_1-0_
  6
CONTINUOUS
 62
    7
 10
346.32736618454396
 20
100.30810794314823
 40
0.1330483926309121
  0
CIRCLE
  8
_1-0_
  6
CONTINUOUS
 62
    7
 10
344.99690700221709
 20
99.908962765255495
 40
0.1330483926309121
  0
CIRCLE
  8
_1-0_
  6
CONTINUOUS
 62
    7
 10
349.28575670396964
 20
101.41005644927154
 40
0.1330483926309121
  0
CIRCLE
  8
_1-0_
  6
CONTINUOUS
 62
    7
 10
351.44583212362755
 20
99.073098672402878
 40
0.1330483926309121
  0
CIRCLE
  8
_1-0_
  6
CONTINUOUS
 62
    7
 10
343.08882429793078
 20
104.42789438608531
 40
0.1330483926309121
  0
CIRCLE
  8
_1-0_
  6
CONTINUOUS
 62
    7
 10
341.75834037162161
 20
104.02874920819258
 40
0.1330483926309121
  0
CIRCLE
  8
_1-0_
  6
CONTINUOUS
 62
    7
 10
341.13068451752537
 20
102.12066650390625
 40
0.1330483926309121
  0
CIRCLE
  8
_1-0_
  6
CONTINUOUS
 62
    7
 10
344.58994272592906
 20
101.85458209063556
 40
0.1330483926309121
  0
CIRCLE
  8
_1-0_
  6
CONTINUOUS
 62
    7
 10
343.25945879961995
 20
101.45543691274283
 40
0.1330483926309121
  0
CIRCLE
  8
_1-0_
  6
CONTINUOUS
 62
    7
 10
340.9162284232475
 20
101.69179143132391
 40
0.1330483926309121
  0
CIRCLE
  8
_1-0_
  6
CONTINUOUS
 62
    7
 10
344.37546188766896
 20
101.42570701805322
 40
0.1330483926309121
  0
CIRCLE
  8
_1-0_
  6
CONTINUOUS
 62
    7
 10
343.04500270534209
 20
101.02656184016048
 40
0.1330483926309121
  0
CIRCLE
  8
_1-0_
  6
CONTINUOUS
 62
    7
 10
340.94441181904563
 20
103.141244424356
 40
0.1330483926309121
  0
CIRCLE
  8
_1-0_
  6
CONTINUOUS
 62
    7
 10
339.61392789273651
 20
102.74209924646327
 40
0.1330483926309121
  0
CIRCLE
  8
_1-0_
  6
CONTINUOUS
 62
    7
 10
343.90277759448907
 20
104.24319293047931
 40
0.1330483926309121
  0
CIRCLE
  8
_1-0_
  6
CONTINUOUS
 62
    7
 10
346.06285301414698
 20
101.90623515361065
 40
0.1330483926309121
  0
CIRCLE
  8
_1-0_
  6
CONTINUOUS
 62
    7
 10
362.35419196051521
 20
96.2117911673881
 40
0.1330483926309121
  0
CIRCLE
  8
_1-0_
  6
CONTINUOUS
 62
    7
 10
361.02370803420609
 20
95.812645989495365
 40
0.1330483926309121
  0
CIRCLE
  8
_1-0_
  6
CONTINUOUS
 62
    7
 10
360.39605218010979
 20
93.904563285209036
 40
0.1330483926309121
  0
CIRCLE
  8
_1-0_
  6
CONTINUOUS
 62
    7
 10
363.85531038851354
 20
93.638478871938347
 40
0.1330483926309121
  0
CIRCLE
  8
_1-0_
  6
CONTINUOUS
 62
    7
 10
362.52482646220443
 20
93.239333694045612
 40
0.1330483926309121
  0
CIRCLE
  8
_1-0_
  6
CONTINUOUS
 62
    7
 10
360.18159608583193
 20
93.475688212626693
 40
0.1330483926309121
  0
CIRCLE
  8
_1-0_
  6
CONTINUOUS
 62
    7
 10
363.64082955025339
 20
93.209603799356003
 40
0.1330483926309121
  0
CIRCLE
  8
_1-0_
  6
CONTINUOUS
 62
    7
 10
362.31037036792657
 20
92.810458621463269
 40
0.1330483926309121
  0
CIRCLE
  8
_1-0_
  6
CONTINUOUS
 62
    7
 10
360.20977948163011
 20
94.92514120565879
 40
0.1330483926309121
  0
CIRCLE
  8
_1-0_
  6
CONTINUOUS
 62
    7
 10
358.87929555532099
 20
94.525996027766055
 40
0.1330483926309121
  0
CIRCLE
  8
_1-0_
  6
CONTINUOUS
 62
    7
 10
363.16814525707349
 20
96.027089711782097
 40
0.1330483926309121
  0
CIRCLE
  8
_1-0_
  6
CONTINUOUS
 62
    7
 10
365.32822067673146
 20
93.690131934913438
 40
0.1330483926309121
  0
TEXT
  8
_0-0_
 62
    7
 10
141.89189395389042
 20
14.594594594594582
 40
2.5
 41
1
 50
0
  1
縮尺
  0
TEXT
  8
_0-0_
 62
    7
 10
377.10214563318203
 20
22.865493362014362
 40
2.5
 41
1
 50
0
  1
ＮＯ
  0
TEXT
  8
_1-0_
 62
    7
 10
169.90681828679266
 20
13.3181144095756
 40
2.5
 41
1
 50
0
  1
1/5
  0
TEXT
  8
_0-0_
 62
    7
 10
14.594594336844779
 20
24.324324324324323
 40
2.5
 41
1
 50
0
  1
Ｓ型
  0
TEXT
  8
_0-0_
 62
    7
 10
383.97877873601146
 20
17.689098667454061
 40
2.5
 41
1
 50
0
  1
Ｓ
  0
TEXT
  8
_1-3_
 62
    7
 10
135.55049586940459
 20
59.442072687922291
 40
2.5
 41
1
 50
0
  1
下葺き材
  0
TEXT
  8
_1-3_
 62
    7
 10
135.55049174540753
 20
65.442067739125847
 40
2.5
 41
1
 50
0
  1
流し桟
  0
TEXT
  8
_1-3_
 62
    7
 10
45.821771363954269
 20
167.47469515413852
 40
2.5
 41
1
 50
0
  1
Ｓ型　桟瓦
  0
TEXT
  8
_0-0_
 62
    7
 10
39.721903929839272
 20
15.395235628695104
 40
2.5
 41
1
 50
0
  1
棟
  0
TEXT
  8
_1-3_
 62
    7
 10
336.77163201409417
 20
167.47469515413852
 40
2.5
 41
1
 50
0
  1
Ｓ型　桟瓦
  0
TEXT
  8
_1-1_
 62
    7
 10
159.29457999564505
 20
242.6695540144637
 40
2.5
 41
1
 50
0
  1
７寸冠瓦
  0
TEXT
  8
_1-1_
 62
    7
 10
50.59271580464133
 20
15.395235628695104
 40
2.5
 41
1
 50
0
  1
2
  0
TEXT
  8
_1-1_
 62
    7
 10
165.44922699799409
 20
229.10178519584039
 40
2.5
 41
1
 50
0
  1
棟金具
  0
TEXT
  8
_1-1_
 62
    7
 10
394.24359708218964
 20
15.771812748264608
 40
2.5
 41
1
 50
0
  1
21
  0
TEXT
  8
_1-1_
 62
    7
 10
25.556194717819636
 20
20.211577544341225
 40
2.5
 41
1
 50
0
  1
ＲＣ
  0
TEXT
  8
_1-0_
 62
    7
 10
214.55492174303208
 20
243.02252692145271
 40
2.5
 41
1
 50
0
  1
パッキン付改良ステンレススクリュウ釘
  0
TEXT
  8
_1-0_
 62
    7
 10
216.47082766971073
 20
228.54690139358109
 40
2.5
 41
1
 50
0
  1
棟桟木　43ｘ43
  0
TEXT
  8
_1-0_
 62
    7
 10
130.89430525496201
 20
216.62577036264781
 40
2.5
 41
1
 50
0
  1
面戸漆喰及び葺き土
  0
TEXT
  8
_1-0_
 62
    7
 10
150.29654013144005
 20
59.442072687922291
 40
2.5
 41
1
 50
0
  1
ゴムアス系ルーフィング
  0
TEXT
  8
_1-0_
 62
    7
 10
135.55049174540753
 20
53.442065264727631
 40
2.5
 41
1
 50
0
  1
パーライト系モルタル　　ｔ＝50
  0
TEXT
  8
_1-0_
 62
    7
 10
143.26309252820994
 20
43.284447358238566
 40
2.5
 41
1
 50
0
  1
棟部分の下葺き材（ゴムアス系ルーフィング）は、両方向へそれぞれ250ｍｍ以上重ね合わせること。
  0
TEXT
  8
_1-0_
 62
    7
 10
143.35088417728088
 20
39.17312335723561
 40
2.5
 41
1
 50
0
  1
隅棟部分の下葺き材（ゴムアス系ルーフィング）は、重ね貼りの上に両方向へそれぞれ250ｍｍ以上増し貼りをすること。
  0
LINE
  8
_1-0_
  6
DASHED1
 62
    7
 10
26.702344739759297
 20
99.717469086518165
 11
197.54670014252534
 21
176.59740551097974
  0
LINE
  8
_1-0_
  6
DASHED1
 62
    7
 10
197.54670014252534
 20
176.59740551097974
 11
243.14277651427236
 21
156.0791741178549
  0
LINE
  8
_1-0_
  6
DASHED1
 62
    7
 10
197.54670014252534
 20
176.3480604039259
 11
368.48436787910759
 21
99.426114878617227
  0
LINE
  8
_1-0_
  6
DASHED1
 62
    7
 10
197.54670014252534
 20
176.3480604039259
 11
151.95062253529653
 21
155.82983175631679
  0
POINT
  8
_1-4_
 62
    7
 10
171.34802915798386
 20
112.72448379042916
  0
POINT
  8
_1-4_
 62
    7
 10
216.94410440168181
 20
133.24271769032904
  0
LINE
  8
_1-4_
  6
CONTINUOUS
 62
    7
 10
171.34802915798386
 20
112.72448379042916
 11
153.7660950223198
 21
151.79544845973197
  0
LINE
  8
_1-4_
  6
CONTINUOUS
 62
    7
 10
216.94410440168181
 20
133.24271769032904
 11
199.36217026601776
 21
172.31368235963185
  0
LINE
  8
_1-4_
  6
CONTINUOUS
 62
    7
 10
171.34802915798386
 20
112.72448379042916
 11
216.94410440168181
 21
133.24271769032904
  0
TEXT
  8
_1-4_
 62
    7
 10
192.23103161919516
 20
122.67012772156983
 40
2.5
 41
1
 50
24.227745359999968
  1
250
  0
POINT
  8
_1-4_
 62
    7
 10
180.21822053668103
 20
138.08967366785032
  0
POINT
  8
_1-4_
 62
    7
 10
225.814295672946
 20
117.57143952920984
  0
LINE
  8
_1-4_
  6
CONTINUOUS
 62
    7
 10
180.21822053668103
 20
138.08967366785032
 11
195.36659336547373
 21
171.75272386148416
  0
LINE
  8
_1-4_
  6
CONTINUOUS
 62
    7
 10
225.814295672946
 20
117.57143952920984
 11
240.96266850173868
 21
151.23448972284368
  0
LINE
  8
_1-4_
  6
CONTINUOUS
 62
    7
 10
180.21822053668103
 20
138.08967366785032
 11
225.814295672946
 21
117.57143952920984
  0
TEXT
  8
_1-4_
 62
    7
 10
209.06688921798798
 20
125.67356887395567
 40
2.5
 41
1
 50
-24.227745659999993
  1
250
  0
TEXT
  8
_1-3_
 62
    7
 10
135.67316170038589
 20
73.282173974960671
 40
2.5
 41
1
 50
0
  1
瓦桟
  0
TEXT
  8
_1-0_
 62
    7
 10
148.04579034895335
 20
70.111289456183883
 40
2.5
 41
1
 50
0
  1
※　地域により瓦桟木の大きさは、異なります
  0
TEXT
  8
_1-0_
 62
    7
 10
147.81490425045251
 20
73.298438091635731
 40
2.5
 41
1
 50
0
  1
15×30　（樹脂桟木）
  0
LINE
  8
_1-0_
  6
CONTINUOUS
 62
    7
 10
96.887196721257396
 20
134.21502190667229
 11
119.43321451565839
 21
72.270354870873604
  0
LINE
  8
_1-0_
  6
CONTINUOUS
 62
    7
 10
119.43321451565839
 20
72.270354870873604
 11
119.49061509326914
 21
72.112648099762851
  0
LINE
  8
_1-0_
  6
CONTINUOUS
 62
    7
 10
120.11781843728171
 20
70.389421290359451
 11
125.9810040448163
 21
54.28045324377112
  0
LINE
  8
_1-0_
  6
CONTINUOUS
 62
    7
 10
119.49061509326914
 20
72.112648099762851
 11
119.87415561707367
 21
71.05887930305289
  0
LINE
  8
_1-0_
  6
CONTINUOUS
 62
    7
 10
119.87415561707367
 20
71.05887930305289
 11
120.11781843728171
 21
70.389421290359451
  0
LINE
  8
_1-3_
  6
CONTINUOUS
 62
    7
 10
132.25671470529511
 20
74.633170662566243
 11
118.57321979079197
 21
74.633170662566243
  0
ENDSEC
  0
EOF
