  0
SECTION
  2
HEADER
  9
$ACADVER
  1
AC1009
  9
$INSBASE
 10
0
 20
0
 30
0
  9
$EXTMIN
 10
0
 20
0
  9
$EXTMAX
 10
420
 20
297
  9
$LIMMIN
 10
0
 20
0
  9
$LIMMAX
 10
420
 20
297
  9
$LTSCALE
 40
1
  0
ENDSEC
  0
SECTION
  2
TABLES
  0
TABLE
  2
LTYPE
 70
     9
  0
LTYPE
  2
CONTINUOUS
 70
    64
  3
実線
 72
    65
 73
     0
 40
0.0
  0
LTYPE
  2
DASHED1
 70
    64
  3
--  --  --  --  --  --  --  --  
 72
    65
 73
     2
 40
2.5
 49
1.25
 49
-1.25
  0
LTYPE
  2
DASHED2
 70
    64
  3
----    ----    ----    ----    
 72
    65
 73
     2
 40
5.0
 49
2.5
 49
-2.5
  0
LTYPE
  2
DASHED3
 70
    64
  3
------  ------  ------  ------  
 72
    65
 73
     2
 40
5.0
 49
3.75
 49
-1.25
  0
LTYPE
  2
CENTER1
 70
    64
  3
----- - ----- - ----- - ----- - 
 72
    65
 73
     4
 40
10.0
 49
6.25
 49
-1.25
 49
1.25
 49
-1.25
  0
LTYPE
  2
CENTER2
 70
    64
  3
----------  --  ----------  --  
 72
    65
 73
     4
 40
20.0
 49
12.5
 49
-2.5
 49
2.5
 49
-2.5
  0
LTYPE
  2
PHANTOM1
 70
    64
  3
--- - - --- - - --- - - --- - - 
 72
    65
 73
     6
 40
10.0
 49
3.25
 49
-1.25
 49
1.25
 49
-1.25
 49
1.25
 49
-1.25
  0
LTYPE
  2
PHANTOM2
 70
    64
  3
--------  -  -  --------  -  -  
 72
    65
 73
     6
 40
20.0
 49
10.0
 49
-2.5
 49
1.25
 49
-2.5
 49
1.25
 49
-2.5
  0
LTYPE
  2
DOT
 70
    64
  3
-   -   -   -   -   -   -   -   
 72
    65
 73
     2
 40
2.5
 49
0.625
 49
-1.875
  0
LTYPE
  2
DUMMY
 70
    64
  3
ダミー
 72
    65
 73
     0
 40
0.0
  0
LTYPE
  2
RAND1
 70
    64
  3
ランダム線1
 72
    65
 73
     4
 40
10.0
 49
1.0
 49
-2.0
 49
3.0
 49
-4.0
  0
LTYPE
  2
RAND2
 70
    64
  3
ランダム線2
 72
    65
 73
     4
 40
14.0
 49
2.0
 49
-3.0
 49
4.0
 49
-5.0
  0
LTYPE
  2
RAND3
 70
    64
  3
ランダム線3
 72
    65
 73
     4
 40
18.0
 49
3.0
 49
-4.0
 49
5.0
 49
-6.0
  0
LTYPE
  2
RAND4
 70
    64
  3
ランダム線4
 72
    65
 73
     4
 40
22.0
 49
4.0
 49
-5.0
 49
6.0
 49
-7.0
  0
LTYPE
  2
RAND5
 70
    64
  3
ランダム線5
 72
    65
 73
     4
 40
26.0
 49
5.0
 49
-6.0
 49
7.0
 49
-8.0
  0
LTYPE
  2
LONG1
 70
    64
  3
----------  --  ----------  --  
 72
    65
 73
     4
 40
40.0
 49
32.5
 49
-2.5
 49
2.5
 49
-2.5
  0
LTYPE
  2
LONG2
 70
    64
  3
--------  -  -  --------  -  -  
 72
    65
 73
     6
 40
40.0
 49
30.0
 49
-2.5
 49
1.25
 49
-2.5
 49
1.25
 49
-2.5
  0
LTYPE
  2
LONG3
 70
    64
  3
+++++++++++++++..+++++++++++++++
 72
    65
 73
     2
 40
40.0
 49
37.5
 49
-2.5
  0
LTYPE
  2
LONG4
 70
    64
  3
+++++++++++++++..+++++++++++++++
 72
    65
 73
     2
 40
80.0
 49
75.0
 49
-5.0
  0
LTYPE
  2
LONG5
 70
    64
  3
----------  --  ----------  --  
 72
    65
 73
     4
 40
60.0
 49
37.5
 49
-7.5
 49
7.5
 49
-7.5
  0
LTYPE
  2
dashed
 70
   64
  3
-------   -------------   ------
 72
   65
 73
    2
 40
7.5
 49
6
 49
-1.5
  0
LTYPE
  2
dashed_spaced
 70
   64
  3
----        --------        ----
 72
   65
 73
    2
 40
12
 49
6
 49
-6
  0
LTYPE
  2
long_dashed_dotted
 70
   64
  3
------------- --- --------------
 72
   65
 73
    4
 40
15.25
 49
12
 49
-1.5
 49
0.25
 49
-1.5
  0
LTYPE
  2
long_dashed_double-dotted
 70
   64
  3
----------- --- --- ------------
 72
   65
 73
    6
 40
17
 49
12
 49
-1.5
 49
0.25
 49
-1.5
 49
0.25
 49
-1.5
  0
LTYPE
  2
long_dashed_triplicate-dotted
 70
   64
  3
--------- --- --- --- ----------
 72
   65
 73
    8
 40
18.75
 49
12
 49
-1.5
 49
0.25
 49
-1.5
 49
0.25
 49
-1.5
 49
0.25
 49
-1.5
  0
LTYPE
  2
dotted
 70
   64
  3
   -       -       -       -    
 72
   65
 73
    2
 40
1.75
 49
0.25
 49
-1.5
  0
LTYPE
  2
chain
 70
   64
  3
-------------- -- --------------
 72
   65
 73
    4
 40
18.5
 49
12
 49
-1.5
 49
3.5
 49
-1.5
  0
LTYPE
  2
chain_double_dash
 70
   64
  3
------------ -- -- -------------
 72
   65
 73
    6
 40
23.5
 49
12
 49
-1.5
 49
3.5
 49
-1.5
 49
3.5
 49
-1.5
  0
LTYPE
  2
dashed_dotted
 70
   64
  3
-----------     -     ----------
 72
   65
 73
    4
 40
9.25
 49
6
 49
-1.5
 49
0.25
 49
-1.5
  0
LTYPE
  2
double-dashed_dotted
 70
   64
  3
------   -----------   -   -----
 72
   65
 73
    6
 40
16.75
 49
6
 49
-1.5
 49
6
 49
-1.5
 49
0.25
 49
-1.5
  0
LTYPE
  2
dashed_double-dotted
 70
   64
  3
---------    -    -    ---------
 72
   65
 73
    6
 40
11
 49
6
 49
-1.5
 49
0.25
 49
-1.5
 49
0.25
 49
-1.5
  0
LTYPE
  2
double-dashed_double-dotted
 70
   64
  3
-----   ---------   -   -   ----
 72
   65
 73
    8
 40
18.5
 49
6
 49
-1.5
 49
6
 49
-1.5
 49
0.25
 49
-1.5
 49
0.25
 49
-1.5
  0
LTYPE
  2
dashed_triplicate-dotted
 70
   64
  3
-------    -    -    -    ------
 72
   65
 73
    8
 40
12.75
 49
6
 49
-1.5
 49
0.25
 49
-1.5
 49
0.25
 49
-1.5
 49
0.25
 49
-1.5
  0
LTYPE
  2
double-dashed_triplicate-dotted
 70
   64
  3
-----  ---------  -  -  -  -----
 72
   65
 73
   10
 40
20.25
 49
6
 49
-1.5
 49
6
 49
-1.5
 49
0.25
 49
-1.5
 49
0.25
 49
-1.5
 49
0.25
 49
-1.5
  0
LTYPE
  2
undefined
 70
   64
  3
--------------------------------
 72
   65
 73
    0
 40
0
  0
ENDTAB
  0
TABLE
  2
STYLE
  5
3
100
AcDbSymbolTable
 70
     1
  0
STYLE
  5
10
100
AcDbSymbolTableRecord
100
AcDbTextStyleTableRecord
  2
STANDARD
 70
     0
 40
0.0
 41
1.0
 50
0.0
 71
     0
 42
0.2
  3
txt
  4
bigfont.shx
  0
STYLE
  5
26
100
AcDbSymbolTableRecord
100
AcDbTextStyleTableRecord
  2
TATEGAKI
 70
    68
 40
0.0
 41
1.0
 50
0.0
 71
     0
 42
1.0
  3
txt
  4
bigfont.shx
  0
ENDTAB
  0
TABLE
  2
LAYER
 70
    7
  0
LAYER
  2
_0-0_
 70
   64
 62
    7
  6
CONTINUOUS
  0
LAYER
  2
_1-0_
 70
   64
 62
    7
  6
CONTINUOUS
  0
LAYER
  2
_1-1_
 70
   64
 62
    7
  6
CONTINUOUS
  0
LAYER
  2
_1-2_
 70
   64
 62
    7
  6
CONTINUOUS
  0
LAYER
  2
_1-3_
 70
   64
 62
    7
  6
CONTINUOUS
  0
LAYER
  2
_1-f_
 70
   64
 62
    7
  6
CONTINUOUS
  0
LAYER
  2
ADD_LINE
 70
   64
 62
    7
  6
CONTINUOUS
  0
ENDTAB
  0
ENDSEC
  0
SECTION
  2
BLOCKS
  0
ENDSEC
  0
SECTION
  2
ENTITIES
  0
LINE
  8
_0-0_
  6
CONTINUOUS
 62
    5
 10
6.7567526327597136
 20
280.13513513513516
 11
406.75677325274495
 21
280.13513513513516
  0
LINE
  8
_0-0_
  6
CONTINUOUS
 62
    5
 10
406.75677325274495
 20
10.13513513513513
 11
6.7567526327597136
 21
10.13513513513513
  0
LINE
  8
_0-0_
  6
CONTINUOUS
 62
    5
 10
406.75677325274495
 20
30.135133073136615
 11
6.7567402607685949
 21
30.135133073136615
  0
LINE
  8
_0-0_
  6
CONTINUOUS
 62
    5
 10
371.75678150073907
 20
10.13513513513513
 11
371.75678150073907
 21
30.135133073136615
  0
LINE
  8
_0-0_
  6
CONTINUOUS
 62
    5
 10
137.02703939901818
 20
30.135133073136615
 11
137.02703939901818
 21
10.13513513513513
  0
LINE
  8
_0-0_
  6
CONTINUOUS
 62
    5
 10
214.86486486486487
 20
30.135133073136615
 11
214.86486486486487
 21
10.13513513513513
  0
LINE
  8
_0-0_
  6
CONTINUOUS
 62
    5
 10
137.02703939901818
 20
20.135134104135886
 11
214.86486486486487
 21
20.135134104135886
  0
LINE
  8
_0-0_
  6
CONTINUOUS
 62
    5
 10
396.48648648648651
 20
25.945945945945951
 11
383.91891891891896
 21
13.378379924877265
  0
LINE
  8
_1-0_
  6
CONTINUOUS
 62
    7
 10
119.19063671215162
 20
116.12004460515203
 11
136.26180700353675
 21
122.04753978832349
  0
LINE
  8
_1-0_
  6
CONTINUOUS
 62
    7
 10
136.26180700353675
 20
122.04753978832349
 11
137.24667935758023
 21
119.85892218512458
  0
LINE
  8
_1-0_
  6
CONTINUOUS
 62
    7
 10
119.19063671215162
 20
116.12004460515203
 11
120.83209063555744
 21
112.47236097181167
  0
LINE
  8
_1-0_
  6
CONTINUOUS
 62
    7
 10
135.60522543417443
 20
123.50661819045609
 11
122.94269046267948
 21
119.10989709802577
  0
LINE
  8
_1-0_
  6
CONTINUOUS
 62
    7
 10
135.8514404296875
 20
122.95946688265414
 11
123.13872466216218
 21
118.54532602671031
  0
LINE
  8
_1-0_
  6
CONTINUOUS
 62
    7
 10
122.94269046267948
 20
119.10989709802577
 11
123.13872466216218
 21
118.54532602671031
  0
LINE
  8
_1-0_
  6
DASHED1
 62
    3
 10
135.94833786423143
 20
122.40520167995145
 11
123.72617154508025
 21
118.1613860259185
  0
LINE
  8
_1-0_
  6
DASHED1
 62
    3
 10
135.94833786423143
 20
122.40520167995145
 11
365.26509877797724
 21
225.59771563555745
  0
LINE
  8
_1-0_
  6
CONTINUOUS
 62
    7
 10
135.8514404296875
 20
122.95946688265414
 11
365.04136369035052
 21
226.0949212151605
  0
LINE
  8
_1-0_
  6
CONTINUOUS
 62
    7
 10
136.26180700353675
 20
122.04753978832349
 11
365.45174263619089
 21
225.18300649282097
  0
LINE
  8
_1-0_
  6
CONTINUOUS
 62
    7
 10
122.94269046267948
 20
119.10989709802577
 11
119.65978261586783
 21
126.40526436470651
  0
LINE
  8
_1-0_
  6
CONTINUOUS
 62
    7
 10
119.65978261586783
 20
126.40526436470651
 11
134.32347478093328
 21
123.0615605534734
  0
LINE
  8
_1-0_
  6
CONTINUOUS
 62
    7
 10
160.08457080737966
 20
134.52232979439401
 11
158.60725609031886
 21
137.80523764120568
  0
LINE
  8
_1-0_
  6
CONTINUOUS
 62
    7
 10
158.60725609031886
 20
137.80523764120568
 11
162.98447892472552
 21
139.7749947212838
  0
LINE
  8
_1-0_
  6
CONTINUOUS
 62
    7
 10
162.98447892472552
 20
139.7749947212838
 11
164.46179364178633
 21
136.49207450248102
  0
LINE
  8
_1-0_
  6
CONTINUOUS
 62
    7
 10
164.46179364178633
 20
136.49207450248102
 11
160.08457080737966
 21
134.52232979439401
  0
LINE
  8
_1-0_
  6
CONTINUOUS
 62
    7
 10
158.60725609031886
 20
137.80523764120568
 11
164.46179364178633
 21
136.49207450248102
  0
LINE
  8
_1-1_
  6
CONTINUOUS
 62
    3
 10
104.40028010187923
 20
125.57420060441301
 11
105.72362538930533
 21
121.16867065429687
  0
LINE
  8
_1-1_
  6
CONTINUOUS
 62
    3
 10
106.184457314981
 20
121.7201769029772
 11
106.95062998178844
 21
121.95032068201014
  0
LINE
  8
_1-1_
  6
CONTINUOUS
 62
    3
 10
106.10672409470017
 20
121.28374254381335
 11
105.72362538930533
 21
121.16867065429687
  0
LINE
  8
_1-1_
  6
CONTINUOUS
 62
    3
 10
106.24073750263936
 20
121.53282784126901
 11
106.184457314981
 21
121.7201769029772
  0
LINE
  8
_1-1_
  6
CONTINUOUS
 62
    3
 10
107.00689779745566
 20
121.76297162030195
 11
106.95062998178844
 21
121.95032068201014
  0
LINE
  8
_1-1_
  6
CONTINUOUS
 62
    3
 10
107.44753863360431
 20
121.6865127151077
 11
107.25598309491133
 21
121.62897058435389
  0
LINE
  8
_1-1_
  6
CONTINUOUS
 62
    3
 10
107.35139589051943
 20
122.70177067937078
 11
107.58153966955237
 21
121.93558564057221
  0
LINE
  8
_1-1_
  6
CONTINUOUS
 62
    3
 10
164.00818695893159
 20
137.500094851932
 11
165.56152756149706
 21
137.96667975348396
  0
LINE
  8
_1-1_
  6
CONTINUOUS
 62
    3
 10
107.75341137035474
 20
123.44901419974663
 11
163.22380272117823
 21
140.11136441617398
  0
LINE
  8
_1-1_
  6
CONTINUOUS
 62
    3
 10
163.22380272117823
 20
140.11136441617398
 11
164.00818695893159
 21
137.500094851932
  0
LINE
  8
_1-1_
  6
CONTINUOUS
 62
    3
 10
104.40028010187923
 20
125.57420060441301
 11
161.9986291833826
 21
142.87576211465372
  0
LINE
  8
_1-1_
  6
CONTINUOUS
 62
    3
 10
161.9986291833826
 20
142.87576211465372
 11
161.82602753510346
 21
143.45040398675042
  0
LINE
  8
_1-1_
  6
CONTINUOUS
 62
    3
 10
163.74147157411318
 20
144.02577580632391
 11
165.56152756149706
 21
137.96667975348396
  0
LINE
  8
_1-1_
  6
CONTINUOUS
 62
    3
 10
161.82602753510346
 20
143.45040398675042
 11
163.74147157411318
 21
144.02577580632391
  0
LINE
  8
_1-1_
  6
CONTINUOUS
 62
    3
 10
163.91408559438347
 20
143.45113393422722
 11
163.74147157411318
 21
144.02577580632391
  0
LINE
  8
ADD_LINE
  6
DOT
 62
    7
 10
163.68328609982052
 20
137.35389503272805
 11
164.23307264173354
 21
136.13213616448479
  0
LINE
  8
_1-0_
  6
CONTINUOUS
 62
    7
 10
207.50448278478675
 20
155.8612802866343
 11
206.02716806772594
 21
159.14420050543708
  0
LINE
  8
_1-0_
  6
CONTINUOUS
 62
    7
 10
206.02716806772594
 20
159.14420050543708
 11
210.4043909021326
 21
161.11394521352409
  0
LINE
  8
_1-0_
  6
CONTINUOUS
 62
    7
 10
210.4043909021326
 20
161.11394521352409
 11
211.88170561919341
 21
157.8310249947213
  0
LINE
  8
_1-0_
  6
CONTINUOUS
 62
    7
 10
211.88170561919341
 20
157.8310249947213
 11
207.50448278478675
 21
155.8612802866343
  0
LINE
  8
_1-0_
  6
CONTINUOUS
 62
    7
 10
206.02716806772594
 20
159.14420050543708
 11
211.88170561919341
 21
157.8310249947213
  0
LINE
  8
_1-0_
  6
CONTINUOUS
 62
    7
 10
257.82430287953969
 20
182.4529080777555
 11
259.30161759660052
 21
179.16998785895271
  0
LINE
  8
_1-0_
  6
CONTINUOUS
 62
    7
 10
259.30161759660052
 20
179.16998785895271
 11
254.92438239020271
 21
177.20024315086573
  0
LINE
  8
_1-0_
  6
CONTINUOUS
 62
    7
 10
305.24421485694683
 20
203.79187094198693
 11
306.7215295740076
 21
200.50895072318414
  0
LINE
  8
_1-0_
  6
CONTINUOUS
 62
    7
 10
306.7215295740076
 20
200.50895072318414
 11
302.34429436760979
 21
198.53920601509714
  0
LINE
  8
_1-0_
  6
CONTINUOUS
 62
    7
 10
119.65978261586783
 20
126.40526436470651
 11
131.26589800860432
 21
129.85618385108742
  0
LINE
  8
_1-0_
  6
CONTINUOUS
 62
    7
 10
131.26589800860432
 20
129.85618385108742
 11
134.32347478093328
 21
123.0615605534734
  0
LINE
  8
_1-0_
  6
CONTINUOUS
 62
    7
 10
131.26589800860432
 20
129.85618385108742
 11
122.94269046267948
 21
119.10989709802577
  0
LINE
  8
_1-1_
  6
CONTINUOUS
 62
    7
 10
104.40028010187923
 20
125.57420060441301
 11
100.25762403333511
 21
139.36544469884925
  0
LINE
  8
_1-2_
  6
CONTINUOUS
 62
    3
 10
211.50294948268584
 20
158.87273427602409
 11
213.32249821843328
 21
159.48455398147172
  0
LINE
  8
ADD_LINE
  6
DOT
 62
    7
 10
209.84267776076859
 20
164.11699862093539
 11
209.66998950855154
 21
164.69192504882813
  0
LINE
  8
_1-2_
  6
CONTINUOUS
 62
    3
 10
209.66998950855154
 20
164.69192504882813
 11
209.84267776076859
 21
164.11699862093539
  0
LINE
  8
_1-2_
  6
CONTINUOUS
 62
    3
 10
210.70619325380068
 20
161.24229224952492
 11
211.50552285684122
 21
158.86507601351352
  0
LINE
  8
_1-2_
  6
CONTINUOUS
 62
    3
 10
154.88937377929687
 20
141.62777462521115
 11
155.64804901947846
 21
141.88288508234797
  0
LINE
  8
_1-2_
  6
CONTINUOUS
 62
    3
 10
156.82117359058279
 20
143.12356072503167
 11
210.70619325380068
 21
161.24229224952492
  0
LINE
  8
_1-2_
  6
CONTINUOUS
 62
    3
 10
155.78166652370143
 20
141.4380625131968
 11
155.64804901947846
 21
141.88288508234797
  0
LINE
  8
_1-2_
  6
CONTINUOUS
 62
    3
 10
155.02673999683279
 20
141.17046871700802
 11
154.88937377929687
 21
141.62777462521115
  0
LINE
  8
_1-2_
  6
CONTINUOUS
 62
    3
 10
156.51113149282097
 20
141.46546647355365
 11
156.03696256070523
 21
141.3060286238387
  0
LINE
  8
_1-2_
  6
CONTINUOUS
 62
    3
 10
156.63893416121201
 20
141.71257225242823
 11
156.43777795740075
 21
142.38224338840794
  0
LINE
  8
_1-2_
  6
CONTINUOUS
 62
    3
 10
154.4247560243349
 20
140.76392508841852
 11
154.89893732844172
 21
140.92336293813347
  0
LINE
  8
_1-2_
  6
CONTINUOUS
 62
    3
 10
154.16945998733109
 20
140.89595897777662
 11
152.94146563555745
 21
144.98407312341638
  0
LINE
  8
_1-2_
  6
CONTINUOUS
 62
    3
 10
209.66998950855154
 20
164.69192504882813
 11
211.56668998099664
 21
165.32970119167018
  0
LINE
  8
_1-2_
  6
CONTINUOUS
 62
    3
 10
213.32249821843328
 20
159.48455398147172
 11
211.56668998099664
 21
165.32970119167018
  0
LINE
  8
_1-2_
  6
CONTINUOUS
 62
    7
 10
152.94146563555745
 20
144.98407312341638
 11
148.35200129328547
 21
158.63312592377534
  0
LINE
  8
_1-1_
  6
CONTINUOUS
 62
    7
 10
100.25762403333511
 20
139.36544469884925
 11
149.82433009792018
 21
154.25444319441513
  0
LINE
  8
_1-1_
  6
CONTINUOUS
 62
    7
 10
163.74147157411318
 20
144.02577580632391
 11
163.35276835673565
 21
145.31979947476773
  0
LINE
  8
_1-0_
  6
CONTINUOUS
 62
    7
 10
257.82430287953969
 20
182.45289570576438
 11
259.30161759660052
 21
179.16997548696159
  0
LINE
  8
_1-0_
  6
CONTINUOUS
 62
    7
 10
259.30161759660052
 20
179.16997548696159
 11
254.92438239020271
 21
177.20023077887458
  0
LINE
  8
_1-2_
  6
CONTINUOUS
 62
    3
 10
258.91378041860219
 20
180.20835670264992
 11
260.72793496621625
 21
180.83602492873734
  0
LINE
  8
ADD_LINE
  6
DOT
 62
    7
 10
257.20783130542651
 20
185.43793549408784
 11
257.03009528082771
 21
186.01132779508023
  0
LINE
  8
_1-2_
  6
CONTINUOUS
 62
    3
 10
257.03009528082771
 20
186.01132779508023
 11
257.20783130542651
 21
185.43793549408784
  0
LINE
  8
_1-2_
  6
CONTINUOUS
 62
    3
 10
258.09638770850933
 20
182.57086264120568
 11
258.91642802470443
 21
180.2007108121305
  0
LINE
  8
_1-2_
  6
CONTINUOUS
 62
    3
 10
202.45286271378802
 20
162.47001441749367
 11
203.20924913561024
 21
162.73173151789484
  0
LINE
  8
_1-2_
  6
CONTINUOUS
 62
    3
 10
204.37154821447425
 20
163.98260168127112
 11
258.09638770850933
 21
182.57086264120568
  0
LINE
  8
_1-2_
  6
CONTINUOUS
 62
    3
 10
203.34676381703972
 20
162.28809665989232
 11
203.20924913561024
 21
162.73173151789484
  0
LINE
  8
_1-2_
  6
CONTINUOUS
 62
    3
 10
202.59421271246833
 20
162.01392096442146
 11
202.45286271378802
 21
162.47001441749367
  0
LINE
  8
_1-2_
  6
CONTINUOUS
 62
    3
 10
204.07595660235432
 20
162.32185982369089
 11
203.60321044921875
 21
162.1582773569468
  0
LINE
  8
_1-2_
  6
CONTINUOUS
 62
    3
 10
204.20159417229732
 20
162.5700667097762
 11
203.99461076066302
 21
163.23795627903294
  0
LINE
  8
_1-2_
  6
CONTINUOUS
 62
    3
 10
201.99579187341641
 20
161.60213161159206
 11
202.46856277053422
 21
161.76571407833615
  0
LINE
  8
_1-2_
  6
CONTINUOUS
 62
    3
 10
257.20783130542651
 20
185.43793549408784
 11
200.47573192699537
 21
165.80917770798143
  0
LINE
  8
_1-2_
  6
CONTINUOUS
 62
    3
 10
201.73935761322846
 20
161.73193854254646
 11
200.47573192699537
 21
165.80917770798143
  0
LINE
  8
_1-2_
  6
CONTINUOUS
 62
    3
 10
260.72793496621625
 20
180.83602492873734
 11
258.92117886929901
 21
186.66563291807432
  0
LINE
  8
_1-2_
  6
CONTINUOUS
 62
    7
 10
200.47573192699537
 20
165.80917770798143
 11
195.76732326198271
 21
179.41765037742823
  0
LINE
  8
_1-2_
  6
CONTINUOUS
 62
    7
 10
197.40142822265625
 20
175.12590562975086
 11
148.35200129328547
 21
158.63312592377534
  0
LINE
  8
_1-2_
  6
CONTINUOUS
 62
    3
 10
209.84267776076859
 20
164.11699862093539
 11
152.94146563555745
 21
144.98407312341638
  0
LINE
  8
_1-0_
  6
CONTINUOUS
 62
    7
 10
254.92438239020271
 20
177.20024315086573
 11
253.46421525285052
 21
180.44509475295609
  0
LINE
  8
_1-0_
  6
CONTINUOUS
 62
    7
 10
254.92438239020271
 20
177.20023077887458
 11
253.46419050886826
 21
180.44508238096495
  0
LINE
  8
_1-0_
  6
CONTINUOUS
 62
    7
 10
253.46421525285052
 20
180.44509475295609
 11
259.30161759660052
 21
179.16998785895271
  0
LINE
  8
_1-2_
  6
CONTINUOUS
 62
    7
 10
211.56668998099664
 20
165.32970119167018
 11
211.22262490762247
 21
166.35300095016893
  0
LINE
  8
_1-0_
  6
CONTINUOUS
 62
    7
 10
209.66998950855154
 20
164.69192504882813
 11
209.36417863175677
 21
165.71000382706927
  0
LINE
  8
_1-0_
  6
CONTINUOUS
 62
    7
 10
305.24421485694683
 20
203.79187094198693
 11
306.7215295740076
 21
200.50895072318414
  0
LINE
  8
_1-0_
  6
CONTINUOUS
 62
    7
 10
306.7215295740076
 20
200.50895072318414
 11
302.34429436760979
 21
198.53920601509714
  0
LINE
  8
_1-0_
  6
CONTINUOUS
 62
    7
 10
305.24421485694683
 20
203.79185856999578
 11
306.7215295740076
 21
200.508938351193
  0
LINE
  8
_1-0_
  6
CONTINUOUS
 62
    7
 10
306.7215295740076
 20
200.508938351193
 11
302.34429436760979
 21
198.53919364310602
  0
LINE
  8
_1-2_
  6
CONTINUOUS
 62
    3
 10
306.33369239600933
 20
201.54731956688136
 11
308.14784694362334
 21
202.17498779296875
  0
LINE
  8
ADD_LINE
  6
DOT
 62
    7
 10
304.62774328283365
 20
206.77689835831927
 11
304.45000725823479
 21
207.35029065931167
  0
LINE
  8
_1-2_
  6
CONTINUOUS
 62
    3
 10
304.45000725823479
 20
207.35029065931167
 11
304.62774328283365
 21
206.77689835831927
  0
LINE
  8
_1-2_
  6
CONTINUOUS
 62
    3
 10
305.51629968591641
 20
203.90982550543708
 11
306.33634000211151
 21
201.53967367636193
  0
LINE
  8
_1-2_
  6
CONTINUOUS
 62
    3
 10
249.8727746911951
 20
183.80897728172511
 11
250.62917348500847
 21
184.07069438212628
  0
LINE
  8
_1-2_
  6
CONTINUOUS
 62
    3
 10
251.79144781989021
 20
185.32156454550255
 11
305.51629968591641
 21
203.90982550543708
  0
LINE
  8
_1-2_
  6
CONTINUOUS
 62
    3
 10
250.7666757944468
 20
183.62705952412375
 11
250.62917348500847
 21
184.07069438212628
  0
LINE
  8
_1-2_
  6
CONTINUOUS
 62
    3
 10
250.01413706186656
 20
183.35288382865289
 11
249.8727746911951
 21
183.80897728172511
  0
LINE
  8
_1-2_
  6
CONTINUOUS
 62
    3
 10
251.49585620777029
 20
183.66082268792232
 11
251.02312242662586
 21
183.49724022117823
  0
LINE
  8
_1-2_
  6
CONTINUOUS
 62
    3
 10
251.6215061497044
 20
183.9090295740076
 11
251.4145227380701
 21
184.57691914326438
  0
LINE
  8
_1-2_
  6
CONTINUOUS
 62
    3
 10
249.41570385082349
 20
182.94109447582349
 11
249.88848711993245
 21
183.10467694256758
  0
LINE
  8
_1-2_
  6
CONTINUOUS
 62
    3
 10
304.62774328283365
 20
206.77689835831927
 11
247.89565627639359
 21
187.14814057221284
  0
LINE
  8
_1-2_
  6
CONTINUOUS
 62
    3
 10
249.15928196262669
 20
183.07090140677789
 11
247.89565627639359
 21
187.14814057221284
  0
LINE
  8
_1-2_
  6
CONTINUOUS
 62
    3
 10
308.14784694362334
 20
202.17498779296875
 11
306.34109084670609
 21
208.00459578230576
  0
LINE
  8
_1-2_
  6
CONTINUOUS
 62
    7
 10
247.89565627639359
 20
187.14814057221284
 11
243.18722286739867
 21
200.75661324165964
  0
LINE
  8
_1-0_
  6
CONTINUOUS
 62
    7
 10
302.34429436760979
 20
198.53920601509714
 11
300.8841272302576
 21
201.7840576171875
  0
LINE
  8
_1-0_
  6
CONTINUOUS
 62
    7
 10
302.34429436760979
 20
198.53919364310602
 11
300.88410248627537
 21
201.78404524519638
  0
LINE
  8
_1-0_
  6
CONTINUOUS
 62
    7
 10
300.88410248627537
 20
201.78404524519638
 11
305.21563555743245
 21
203.77884323532518
  0
LINE
  8
_1-0_
  6
CONTINUOUS
 62
    7
 10
300.8841272302576
 20
201.7840576171875
 11
306.7215295740076
 21
200.50895072318414
  0
LINE
  8
_1-0_
  6
CONTINUOUS
 62
    7
 10
352.66415157833615
 20
225.13084617820948
 11
354.14146629539698
 21
221.84791358741555
  0
LINE
  8
_1-0_
  6
CONTINUOUS
 62
    7
 10
354.14146629539698
 20
221.84791358741555
 11
349.76423108899917
 21
219.87816887932857
  0
LINE
  8
_1-0_
  6
CONTINUOUS
 62
    7
 10
352.66415157833615
 20
225.13082143422722
 11
354.14146629539698
 21
221.84791358741555
  0
LINE
  8
_1-2_
  6
CONTINUOUS
 62
    3
 10
353.75362911739865
 20
222.88627005912164
 11
355.56778366501271
 21
223.51395065720018
  0
LINE
  8
ADD_LINE
  6
DOT
 62
    7
 10
352.04768000422297
 20
228.11586122255068
 11
351.86994397962417
 21
228.6892535235431
  0
LINE
  8
_1-2_
  6
CONTINUOUS
 62
    3
 10
351.86994397962417
 20
228.6892535235431
 11
352.04768000422297
 21
228.11586122255068
  0
LINE
  8
_1-2_
  6
CONTINUOUS
 62
    3
 10
352.93623640730578
 20
225.24877599767737
 11
353.75627672350089
 21
222.87864891258448
  0
LINE
  8
_1-2_
  6
CONTINUOUS
 62
    3
 10
297.29271141258448
 20
205.14794014595651
 11
298.04908546241558
 21
205.40965724635771
  0
LINE
  8
_1-2_
  6
CONTINUOUS
 62
    3
 10
299.21140928526182
 20
206.66052740973396
 11
352.93623640730578
 21
225.24877599767737
  0
LINE
  8
_1-2_
  6
CONTINUOUS
 62
    3
 10
298.18661251583615
 20
204.96602238835516
 11
298.04908546241558
 21
205.40965724635771
  0
LINE
  8
_1-2_
  6
CONTINUOUS
 62
    3
 10
297.43404903927365
 20
204.6918466928843
 11
297.29271141258448
 21
205.14794014595651
  0
LINE
  8
_1-2_
  6
CONTINUOUS
 62
    3
 10
298.91581767314193
 20
204.99978555215372
 11
298.44305914801521
 21
204.83620308540964
  0
LINE
  8
_1-2_
  6
CONTINUOUS
 62
    3
 10
299.04144287109375
 20
205.24799243823904
 11
298.83445945945948
 21
205.91588200749578
  0
LINE
  8
_1-2_
  6
CONTINUOUS
 62
    3
 10
296.83564057221287
 20
204.28005734005492
 11
297.30839909733953
 21
204.44363980679898
  0
LINE
  8
_1-2_
  6
CONTINUOUS
 62
    3
 10
352.04768000422297
 20
228.11586122255068
 11
295.31556825380068
 21
208.48710343644427
  0
LINE
  8
_1-2_
  6
CONTINUOUS
 62
    3
 10
296.5791939400338
 20
204.4098642710093
 11
295.31556825380068
 21
208.48710343644427
  0
LINE
  8
_1-2_
  6
CONTINUOUS
 62
    3
 10
351.86994397962417
 20
228.6892535235431
 11
353.76102756809547
 21
229.34355864653716
  0
LINE
  8
_1-2_
  6
CONTINUOUS
 62
    3
 10
355.56778366501271
 20
223.51395065720018
 11
353.76102756809547
 21
229.34355864653716
  0
LINE
  8
_1-2_
  6
CONTINUOUS
 62
    7
 10
295.31556825380068
 20
208.48710343644427
 11
290.60718433277026
 21
222.09557610589107
  0
LINE
  8
_1-2_
  6
CONTINUOUS
 62
    7
 10
349.24878919446792
 20
242.38502296241555
 11
290.60718433277026
 21
222.09557610589107
  0
LINE
  8
_1-2_
  6
CONTINUOUS
 62
    7
 10
353.76102756809547
 20
229.34355864653716
 11
349.24878919446792
 21
242.38502296241555
  0
LINE
  8
_1-2_
  6
CONTINUOUS
 62
    7
 10
353.22789372624578
 20
231.06380978146117
 11
294.53083760029563
 21
210.75518633868245
  0
LINE
  8
_1-0_
  6
CONTINUOUS
 62
    7
 10
349.76423108899917
 20
219.87816887932857
 11
348.30406395164698
 21
223.12302048141893
  0
LINE
  8
_1-0_
  6
CONTINUOUS
 62
    7
 10
349.76423108899917
 20
219.8781441353463
 11
348.30403920766474
 21
223.12302048141893
  0
LINE
  8
_1-0_
  6
CONTINUOUS
 62
    7
 10
348.30406395164698
 20
223.12302048141893
 11
354.14146629539698
 21
221.84791358741555
  0
LINE
  8
_1-2_
  6
CONTINUOUS
 62
    7
 10
244.711254222973
 20
196.35178849503802
 11
195.76732326198271
 21
179.41765037742823
  0
LINE
  8
_1-2_
  6
CONTINUOUS
 62
    7
 10
258.92117886929901
 20
186.66563291807432
 11
258.57424349398229
 21
187.6683333113387
  0
LINE
  8
_1-2_
  6
CONTINUOUS
 62
    3
 10
257.03009528082771
 20
186.01132779508023
 11
258.92120361328125
 21
186.66563291807432
  0
LINE
  8
ADD_LINE
  6
DOT
 62
    7
 10
260.72793496621625
 20
180.83602492873734
 11
258.92120361328125
 21
186.66563291807432
  0
LINE
  8
_1-2_
  6
CONTINUOUS
 62
    7
 10
257.03009528082771
 20
186.01132779508023
 11
256.71582196209886
 21
187.02534856023016
  0
LINE
  8
_1-2_
  6
CONTINUOUS
 62
    7
 10
248.5653521563556
 20
184.98731046109586
 11
199.69100127349029
 21
168.07726061021961
  0
LINE
  8
ADD_LINE
  6
DOT
 62
    7
 10
308.14784694362334
 20
202.17498779296875
 11
306.34111559068839
 21
208.00459578230576
  0
LINE
  8
_1-2_
  6
CONTINUOUS
 62
    3
 10
304.45000725823479
 20
207.35029065931167
 11
306.34111559068839
 21
208.00459578230576
  0
LINE
  8
_1-2_
  6
CONTINUOUS
 62
    7
 10
292.13119094436234
 20
217.69075135926943
 11
243.18722286739867
 21
200.75661324165964
  0
LINE
  8
_1-2_
  6
CONTINUOUS
 62
    7
 10
306.34109084670609
 20
208.00459578230576
 11
305.99415547138938
 21
209.0072961755701
  0
LINE
  8
_1-2_
  6
CONTINUOUS
 62
    7
 10
295.98526413376271
 20
206.32628569731841
 11
247.11092562288852
 21
189.41622347445102
  0
LINE
  8
_1-0_
  6
CONTINUOUS
 62
    7
 10
348.30403920766474
 20
223.12302048141893
 11
352.66407734638938
 21
225.13094515413852
  0
LINE
  8
_1-0_
  6
CONTINUOUS
 62
    7
 10
352.66407734638938
 20
225.13094515413852
 11
354.14144155141474
 21
221.84791358741555
  0
LINE
  8
_1-0_
  6
CONTINUOUS
 62
    7
 10
354.14144155141474
 20
221.84791358741555
 11
349.78642644108953
 21
219.88816544816302
  0
LINE
  8
_1-0_
  6
CONTINUOUS
 62
    7
 10
349.78642644108953
 20
219.88816544816302
 11
349.76420634501693
 21
219.87816887932857
  0
LINE
  8
_1-0_
  6
CONTINUOUS
 62
    7
 10
135.60522543417443
 20
123.50661819045609
 11
349.78914827913854
 21
219.88937790329393
  0
LINE
  8
_1-0_
  6
CONTINUOUS
 62
    7
 10
349.78914827913854
 20
219.88937790329393
 11
364.7951363228463
 21
226.6420601509713
  0
LINE
  8
_1-0_
  6
CONTINUOUS
 62
    7
 10
253.46419050886826
 20
180.44508238096495
 11
257.82427813555745
 21
182.45301942567568
  0
LINE
  8
_1-3_
  6
CONTINUOUS
 62
    7
 10
75.834478429845859
 20
188.0984826990076
 11
123.27412373310811
 21
209.44632865287164
  0
LINE
  8
_1-3_
  6
CONTINUOUS
 62
    7
 10
91.035919189453125
 20
154.31751560520482
 11
75.834478429845859
 21
188.0984826990076
  0
LINE
  8
_1-3_
  6
CONTINUOUS
 62
    7
 10
138.47556449271539
 20
175.66536155906886
 11
123.27412373310811
 21
209.44632865287164
  0
LINE
  8
_1-3_
  6
CONTINUOUS
 62
    7
 10
123.27412373310811
 20
209.44632865287164
 11
170.61124234586148
 21
230.74802707981419
  0
LINE
  8
_1-3_
  6
CONTINUOUS
 62
    7
 10
185.81267073347763
 20
196.96705998601141
 11
170.61122997387037
 21
230.74802707981419
  0
LINE
  8
_1-3_
  6
CONTINUOUS
 62
    7
 10
170.61124234586148
 20
230.74802707981419
 11
218.09009448902029
 21
252.11351549303211
  0
LINE
  8
_1-3_
  6
CONTINUOUS
 62
    7
 10
233.29153524862755
 20
218.33256077122044
 11
218.09009448902029
 21
252.11351549303211
  0
LINE
  8
_1-3_
  6
CONTINUOUS
 62
    7
 10
218.09009448902029
 20
252.11351549303211
 11
265.4660611539274
 21
273.432707915435
  0
LINE
  8
_1-3_
  6
CONTINUOUS
 62
    7
 10
280.66750191353464
 20
239.65172844964107
 11
265.4660611539274
 21
273.432707915435
  0
LINE
  8
_1-3_
  6
CONTINUOUS
 62
    7
 10
129.55670743375211
 20
68.71575845254435
 11
142.32360015044341
 21
74.460859556455873
  0
LINE
  8
_1-3_
  6
CONTINUOUS
 62
    7
 10
234.00188549144849
 20
186.83397860140414
 11
223.85551658836573
 21
214.71085831925677
  0
LINE
  8
_1-3_
  6
CONTINUOUS
 62
    7
 10
223.85551658836573
 20
214.71085831925677
 11
222.58164689347552
 21
214.71085831925677
  0
LINE
  8
_1-3_
  6
CONTINUOUS
 62
    7
 10
128.11123822186445
 20
126.94980518237965
 11
110.02276858767948
 21
176.64745021510768
  0
LINE
  8
_1-3_
  6
CONTINUOUS
 62
    7
 10
110.02276858767948
 20
176.64745021510768
 11
106.9268510148332
 21
176.64745021510768
  0
LINE
  8
_1-3_
  6
CONTINUOUS
 62
    7
 10
109.385140908731
 20
162.73802886138091
 11
106.9268510148332
 21
162.73802886138091
  0
LINE
  8
_1-3_
  6
CONTINUOUS
 62
    7
 10
119.51020524308488
 20
134.91965628959039
 11
109.385140908731
 21
162.73802886138091
  0
LINE
  8
_1-0_
  6
CONTINUOUS
 62
    7
 10
120.83209063555744
 20
112.47236097181167
 11
122.30938060863599
 21
109.18944075300888
  0
LINE
  8
_1-0_
  6
CONTINUOUS
 62
    7
 10
137.24667935758023
 20
119.85892218512458
 11
138.72398170264992
 21
116.57601433831293
  0
LINE
  8
_1-0_
  6
CONTINUOUS
 62
    7
 10
134.48340751029352
 20
89.44628535090267
 11
137.21916404930323
 21
90.677372700459259
  0
LINE
  8
_1-0_
  6
CONTINUOUS
 62
    7
 10
137.21916404930323
 20
90.677372700459259
 11
138.45025139885979
 21
87.941609975453972
  0
LINE
  8
_1-0_
  6
CONTINUOUS
 62
    7
 10
378.58339876741979
 20
196.00151268211573
 11
138.45025139885979
 21
87.941609975453972
  0
LINE
  8
_1-0_
  6
CONTINUOUS
 62
    7
 10
125.04514951963684
 20
110.42052810256546
 11
134.48340751029352
 21
89.44628535090267
  0
LINE
  8
_1-0_
  6
DASHED1
 62
    7
 10
137.21916404930323
 20
90.677372700459259
 11
377.67922891152875
 21
198.88438456767315
  0
LINE
  8
_1-3_
  6
CONTINUOUS
 62
    7
 10
136.69263685071792
 20
86.9741202689506
 11
142.32360015044341
 21
74.460859556455873
  0
LINE
  8
_1-3_
  6
CONTINUOUS
 62
    7
 10
123.44811104439401
 20
82.290412284232474
 11
129.55670743375211
 21
68.71575845254435
  0
LINE
  8
_1-0_
  6
CONTINUOUS
 62
    7
 10
138.05290015968117
 20
116.27402640677788
 11
138.60944180875211
 21
116.8305556838577
  0
LINE
  8
_1-0_
  6
CONTINUOUS
 62
    7
 10
134.45310850401182
 20
114.65412449192357
 11
137.99498686919341
 21
118.19600285710516
  0
LINE
  8
_1-0_
  6
CONTINUOUS
 62
    7
 10
130.85327973236909
 20
113.03419783308701
 11
137.38054430162586
 21
119.56146240234375
  0
LINE
  8
_1-0_
  6
CONTINUOUS
 62
    7
 10
127.25346333271749
 20
111.41428354624156
 11
136.76608936206716
 21
120.92690957559122
  0
LINE
  8
_1-0_
  6
CONTINUOUS
 62
    7
 10
123.65363456107475
 20
109.79435688740499
 11
135.71800850533151
 21
121.85871845967061
  0
LINE
  8
_1-0_
  6
CONTINUOUS
 62
    7
 10
121.92440136058912
 20
110.04501342773437
 11
132.68496539141682
 21
120.80557745856208
  0
LINE
  8
_1-0_
  6
CONTINUOUS
 62
    7
 10
121.30994642103042
 20
111.41046060098185
 11
129.65193464949326
 21
119.75244882944469
  0
LINE
  8
_1-0_
  6
CONTINUOUS
 62
    7
 10
120.69550385346284
 20
112.77590777422931
 11
126.61889153557856
 21
118.69930782833616
  0
LINE
  8
_1-0_
  6
CONTINUOUS
 62
    7
 10
120.08104891390414
 20
114.14135494747678
 11
123.58586079365499
 21
117.64616682722763
  0
LINE
  8
_1-0_
  6
CONTINUOUS
 62
    7
 10
119.46659397434544
 20
115.50680212072425
 11
120.5528176797403
 21
116.59302582611909
  0
LINE
  8
_1-0_
  6
DASHED1
 62
    7
 10
111.78113782728042
 20
138.6598824165963
 11
116.16866653029983
 21
140.63424187737542
  0
LINE
  8
_1-0_
  6
DASHED1
 62
    7
 10
367.91391733530406
 20
219.71146867081927
 11
138.72399407464104
 21
116.57602671030406
  0
LINE
  8
_1-0_
  6
DASHED1
 62
    7
 10
122.30940535261826
 20
109.189453125
 11
122.30938060863599
 21
109.18944075300888
  0
LINE
  8
_1-0_
  6
CONTINUOUS
 62
    7
 10
122.30940535261826
 20
109.189453125
 11
138.72399407464104
 21
116.57602671030406
  0
LINE
  8
_1-0_
  6
CONTINUOUS
 62
    7
 10
186.87177503431167
 20
144.82202478357263
 11
172.80420251794766
 21
103.40088921624262
  0
LINE
  8
_1-0_
  6
CONTINUOUS
 62
    7
 10
184.37850952148437
 20
143.70005839579815
 11
170.31096174910263
 21
102.27892901446369
  0
LINE
  8
_1-0_
  6
CONTINUOUS
 62
    7
 10
181.8852811246305
 20
142.57810438001479
 11
167.8177209802576
 21
101.15696262668919
  0
LINE
  8
_1-0_
  6
CONTINUOUS
 62
    7
 10
298.21924982844172
 20
188.34886705553211
 11
297.48539280247047
 21
186.1880616883974
  0
LINE
  8
_1-0_
  6
CONTINUOUS
 62
    7
 10
295.72599668760557
 20
187.2269006677576
 11
295.11781434755068
 21
185.4361291833826
  0
LINE
  8
_1-0_
  6
CONTINUOUS
 62
    7
 10
300.85693359375
 20
196.11534737251901
 11
286.78931158942146
 21
154.69418087521115
  0
LINE
  8
_1-0_
  6
CONTINUOUS
 62
    7
 10
298.36368045291385
 20
194.99336861275339
 11
284.29610793654984
 21
153.57223923141893
  0
LINE
  8
_1-0_
  6
CONTINUOUS
 62
    7
 10
295.87042731207771
 20
193.87141459697003
 11
281.8028547957137
 21
152.45027284364443
  0
LINE
  8
_1-0_
  6
CONTINUOUS
 62
    7
 10
102.79923310150971
 20
146.95945945945948
 11
115.97391901789486
 21
110.76230435758025
  0
LINE
  8
_1-0_
  6
CONTINUOUS
 62
    7
 10
115.97391901789486
 20
110.76230435758025
 11
121.56370833113388
 21
112.55792566247889
  0
LINE
  8
_1-0_
  6
CONTINUOUS
 62
    7
 10
102.79923310150971
 20
146.95945945945948
 11
93.590735358160899
 21
146.95945945945948
  0
LINE
  8
ADD_LINE
  6
DOT
 62
    7
 10
252.07763671875
 20
81.278302991712422
 11
252.07763671875
 21
65.062086775496198
  0
LINE
  8
ADD_LINE
  6
DOT
 62
    7
 10
312.67762880067568
 20
81.278302991712422
 11
312.67762880067568
 21
65.062086775496198
  0
LINE
  8
_1-0_
  6
CONTINUOUS
 62
    7
 10
234.23979888091216
 20
72.359384072793503
 11
355.8614205025338
 21
72.359384072793503
  0
LINE
  8
_1-0_
  6
DASHED1
 62
    7
 10
234.23979888091216
 20
48.359385309992604
 11
355.8614205025338
 21
48.359385309992604
  0
LINE
  8
_1-0_
  6
CONTINUOUS
 62
    7
 10
234.23979888091216
 20
46.359384897592918
 11
355.8614205025338
 21
46.359384897592918
  0
LINE
  8
_1-0_
  6
CONTINUOUS
 62
    7
 10
247.57764661634292
 20
66.359382835594388
 11
256.57762682115708
 21
66.359382835594388
  0
LINE
  8
_1-0_
  6
CONTINUOUS
 62
    7
 10
247.57764661634292
 20
66.359382835594388
 11
248.92614416173987
 21
72.359384072793503
  0
LINE
  8
_1-0_
  6
CONTINUOUS
 62
    7
 10
256.57762682115708
 20
66.359382835594388
 11
255.22912927576016
 21
72.359384072793503
  0
LINE
  8
_1-0_
  6
CONTINUOUS
 62
    7
 10
255.95939842430323
 20
66.359382835594388
 11
256.46417566247891
 21
66.864160073770066
  0
LINE
  8
_1-0_
  6
CONTINUOUS
 62
    7
 10
253.97948393950594
 20
66.359382835594388
 11
256.10085977090375
 21
68.480740109005495
  0
LINE
  8
_1-0_
  6
CONTINUOUS
 62
    7
 10
251.99959419869089
 20
66.359382835594388
 11
255.7375191353463
 21
70.097326330236484
  0
LINE
  8
_1-0_
  6
CONTINUOUS
 62
    7
 10
250.01967971389359
 20
66.359382835594388
 11
255.37420324377112
 21
71.713900179476354
  0
LINE
  8
_1-0_
  6
CONTINUOUS
 62
    7
 10
248.03978997307857
 20
66.359382835594388
 11
254.03978502428211
 21
72.359384072793503
  0
LINE
  8
_1-0_
  6
CONTINUOUS
 62
    7
 10
248.01764410895271
 20
68.317151456265833
 11
252.05989528346709
 21
72.359384072793503
  0
LINE
  8
_1-0_
  6
CONTINUOUS
 62
    7
 10
248.59163026551943
 20
70.871045911634297
 11
250.07998079866977
 21
72.359384072793503
  0
LINE
  8
_1-0_
  6
CONTINUOUS
 62
    7
 10
308.17763869826859
 20
66.359382835594388
 11
317.17761890308276
 21
66.359382835594388
  0
LINE
  8
_1-0_
  6
CONTINUOUS
 62
    7
 10
308.17763869826859
 20
66.359382835594388
 11
309.52613624366558
 21
72.359384072793503
  0
LINE
  8
_1-0_
  6
CONTINUOUS
 62
    7
 10
317.17761890308276
 20
66.359382835594388
 11
315.82912135768584
 21
72.359384072793503
  0
LINE
  8
_1-0_
  6
CONTINUOUS
 62
    7
 10
316.55939050622891
 20
66.359382835594388
 11
317.06416774440459
 21
66.864160073770066
  0
LINE
  8
_1-0_
  6
CONTINUOUS
 62
    7
 10
314.57947602143162
 20
66.359382835594388
 11
316.70085185282943
 21
68.480740109005495
  0
LINE
  8
_1-0_
  6
CONTINUOUS
 62
    7
 10
312.59958628061656
 20
66.359382835594388
 11
316.33751121727198
 21
70.097326330236484
  0
LINE
  8
_1-0_
  6
CONTINUOUS
 62
    7
 10
310.61967179581927
 20
66.359382835594388
 11
315.97419532569683
 21
71.713900179476354
  0
LINE
  8
_1-0_
  6
CONTINUOUS
 62
    7
 10
308.63978205500422
 20
66.359382835594388
 11
314.63977710620776
 21
72.359384072793503
  0
LINE
  8
_1-0_
  6
CONTINUOUS
 62
    7
 10
308.61763619087839
 20
68.317151456265833
 11
312.65988736539276
 21
72.359384072793503
  0
LINE
  8
_1-0_
  6
CONTINUOUS
 62
    7
 10
309.1916223474451
 20
70.871045911634297
 11
310.67997288059547
 21
72.359384072793503
  0
LINE
  8
_1-0_
  6
CONTINUOUS
 62
    7
 10
272.81932933910474
 20
72.359384072793503
 11
246.81934253589529
 21
46.359384897592918
  0
LINE
  8
_1-0_
  6
CONTINUOUS
 62
    7
 10
270.55659113703547
 20
72.359384072793503
 11
244.55660433382602
 21
46.359384897592918
  0
LINE
  8
_1-0_
  6
CONTINUOUS
 62
    7
 10
268.29385293496625
 20
72.359384072793503
 11
242.29386613175677
 21
46.359384897592918
  0
LINE
  8
_1-0_
  6
CONTINUOUS
 62
    7
 10
344.14875752217063
 20
72.359384072793503
 11
318.14877071896115
 21
46.359384897592918
  0
LINE
  8
_1-0_
  6
CONTINUOUS
 62
    7
 10
341.88601932010135
 20
72.359384072793503
 11
315.88603251689193
 21
46.359384897592918
  0
LINE
  8
_1-0_
  6
CONTINUOUS
 62
    7
 10
339.62328111803214
 20
72.359384072793503
 11
313.62329431482266
 21
46.359384897592918
  0
LINE
  8
_1-0_
  6
CONTINUOUS
 62
    7
 10
252.07763671875
 20
82.220603324271536
 11
312.67762880067568
 21
82.220603324271536
  0
LINE
  8
_1-0_
  6
CONTINUOUS
 62
    7
 10
252.07763671875
 20
74.857561266100092
 11
252.07763671875
 21
82.220603324271536
  0
LINE
  8
_1-0_
  6
CONTINUOUS
 62
    7
 10
312.67762880067568
 20
74.857561266100092
 11
312.67762880067568
 21
82.220603324271536
  0
LINE
  8
_1-0_
  6
CONTINUOUS
 62
    7
 10
325.24784397434547
 20
72.359384072793503
 11
325.24784397434547
 21
66.359382835594388
  0
LINE
  8
_1-0_
  6
CONTINUOUS
 62
    7
 10
318.80517908044766
 20
72.359384072793503
 11
325.24784397434547
 21
72.359384072793503
  0
LINE
  8
_1-0_
  6
CONTINUOUS
 62
    7
 10
318.80517908044766
 20
66.359382835594388
 11
325.24784397434547
 21
66.359382835594388
  0
LINE
  8
_1-0_
  6
CONTINUOUS
 62
    7
 10
249.84241382495779
 20
67.630703900311445
 11
246.77178460198482
 21
59.19424314756651
  0
LINE
  8
_1-0_
  6
CONTINUOUS
 62
    7
 10
246.77178460198482
 20
59.19424314756651
 11
242.0943306587838
 21
59.19424314756651
  0
LINE
  8
_1-0_
  6
DASHED1
 62
    7
 10
117.07338075380068
 20
126.89915425068624
 11
111.78113782728042
 21
138.6598824165963
  0
LINE
  8
_1-0_
  6
CONTINUOUS
 62
    5
 10
121.55455305769638
 20
116.94085198479731
 11
117.33127490894215
 21
126.32604650548987
  0
LINE
  8
_1-0_
  6
DASHED1
 62
    7
 10
117.07338075380068
 20
126.89915425068624
 11
117.33127490894215
 21
126.32604650548987
  0
LINE
  8
_1-3_
  6
CONTINUOUS
 62
    7
 10
236.68494972022805
 20
96.921275370829818
 11
230.53191313872466
 21
96.921275370829818
  0
LINE
  8
_1-3_
  6
CONTINUOUS
 62
    7
 10
209.42084235114021
 20
158.09793833139781
 11
230.53191313872466
 21
96.921275370829818
  0
LINE
  8
_1-3_
  6
CONTINUOUS
 62
    7
 10
236.68494972022805
 20
103.09213999155406
 11
228.40244602512669
 21
103.09213999155406
  0
LINE
  8
_1-3_
  6
CONTINUOUS
 62
    7
 10
236.68494972022805
 20
109.03445682010135
 11
226.35186272698482
 21
109.03445682010135
  0
LINE
  8
_1-3_
  6
CONTINUOUS
 62
    7
 10
236.75675675675677
 20
118.41102806297509
 11
223.11614165434966
 21
118.41102806297509
  0
LINE
  8
_1-0_
  6
CONTINUOUS
 62
    7
 10
325.24784397434547
 20
48.359385309992604
 11
318.80517908044766
 21
48.359385309992604
  0
LINE
  8
_1-0_
  6
CONTINUOUS
 62
    7
 10
325.24784397434547
 20
66.359382835594388
 11
318.80517908044766
 21
66.359382835594388
  0
LINE
  8
_1-0_
  6
CONTINUOUS
 62
    7
 10
325.24784397434547
 20
48.359385309992604
 11
325.24784397434547
 21
66.359382835594388
  0
ARC
  8
_1-1_
  6
CONTINUOUS
 62
    3
 10
106.04918196394637
 20
121.47529808250634
 40
0.1999999904954755
 50
286.71995544433594
 51
16.716552734374996
  0
ARC
  8
_1-1_
  6
CONTINUOUS
 62
    3
 10
107.19845333614866
 20
121.82051375105576
 40
0.1999999904954755
 50
196.71995544433597
 51
286.71757507324219
  0
ARC
  8
_1-1_
  6
CONTINUOUS
 62
    3
 10
107.38999650285051
 20
121.87805588180954
 40
0.1999999904954755
 50
286.72097778320312
 51
16.717575073242202
  0
ARC
  8
_1-1_
  6
CONTINUOUS
 62
    3
 10
107.926025390625
 20
122.87437232764992
 40
0.599999959404404
 50
106.71949768066406
 51
196.71870422363284
  0
ARC
  8
_1-2_
  6
CONTINUOUS
 62
    3
 10
157.01240745750636
 20
142.55485740867823
 40
0.599999959404404
 50
108.58587646484376
 51
196.71983337402344
  0
ARC
  8
_1-2_
  6
CONTINUOUS
 62
    3
 10
155.97320969040331
 20
141.49559227195948
 40
0.1999999904954755
 50
196.71755981445312
 51
288.5885009765625
  0
ARC
  8
_1-2_
  6
CONTINUOUS
 62
    3
 10
154.83519683013091
 20
141.11293895824537
 40
0.1999999904954755
 50
288.58401489257812
 51
16.717575073242227
  0
ARC
  8
_1-2_
  6
CONTINUOUS
 62
    3
 10
156.44737862251901
 20
141.65503012167443
 40
0.1999999904954755
 50
288.5885009765625
 51
16.719955444335923
  0
ARC
  8
_1-2_
  6
CONTINUOUS
 62
    3
 10
154.36101552602409
 20
140.95348873653927
 40
0.1999999904954755
 50
196.716552734375
 51
288.58514404296875
  0
ARC
  8
_1-2_
  6
CONTINUOUS
 62
    3
 10
204.56771850585937
 20
163.41558095571159
 40
0.599999959404404
 50
109.08587646484375
 51
197.21983337402344
  0
ARC
  8
_1-2_
  6
CONTINUOUS
 62
    3
 10
203.53782447608742
 20
162.34728426546664
 40
0.1999999904954755
 50
197.21755981445312
 51
289.0885009765625
  0
ARC
  8
_1-2_
  6
CONTINUOUS
 62
    3
 10
202.40315205342063
 20
161.95470861486487
 40
0.1999999904954755
 50
289.08401489257812
 51
17.217575073242223
  0
ARC
  8
_1-2_
  6
CONTINUOUS
 62
    3
 10
204.01054588524073
 20
162.51085436021961
 40
0.1999999904954755
 50
289.0885009765625
 51
17.219955444335916
  0
ARC
  8
_1-2_
  6
CONTINUOUS
 62
    3
 10
201.93039352829393
 20
161.79115089210305
 40
0.1999999904954755
 50
197.216552734375
 51
289.08514404296875
  0
ARC
  8
_1-2_
  6
CONTINUOUS
 62
    3
 10
251.98761811127534
 20
184.754543819943
 40
0.599999959404404
 50
109.08587646484375
 51
197.21983337402344
  0
ARC
  8
_1-2_
  6
CONTINUOUS
 62
    3
 10
250.95772408150339
 20
183.68624712969807
 40
0.1999999904954755
 50
197.21755981445312
 51
289.0885009765625
  0
ARC
  8
_1-2_
  6
CONTINUOUS
 62
    3
 10
249.82306403082771
 20
183.2936714790963
 40
0.1999999904954755
 50
289.08401489257812
 51
17.217575073242223
  0
ARC
  8
_1-2_
  6
CONTINUOUS
 62
    3
 10
251.43045786264781
 20
183.84981722445102
 40
0.1999999904954755
 50
289.0885009765625
 51
17.219955444335916
  0
ARC
  8
_1-2_
  6
CONTINUOUS
 62
    3
 10
249.35030550570102
 20
183.13011375633448
 40
0.1999999904954755
 50
197.216552734375
 51
289.08514404296875
  0
ARC
  8
_1-2_
  6
CONTINUOUS
 62
    3
 10
299.40757957664698
 20
206.09350668417443
 40
0.599999959404404
 50
109.08587646484375
 51
197.21983337402344
  0
ARC
  8
_1-2_
  6
CONTINUOUS
 62
    3
 10
298.377685546875
 20
205.02520999392948
 40
0.1999999904954755
 50
197.21755981445312
 51
289.0885009765625
  0
ARC
  8
_1-2_
  6
CONTINUOUS
 62
    3
 10
297.24300075221709
 20
204.63263434332771
 40
0.1999999904954755
 50
289.08401489257812
 51
17.217575073242223
  0
ARC
  8
_1-2_
  6
CONTINUOUS
 62
    3
 10
298.85039458403719
 20
205.18878008868245
 40
0.1999999904954755
 50
289.0885009765625
 51
17.219955444335916
  0
ARC
  8
_1-2_
  6
CONTINUOUS
 62
    3
 10
296.77024222709036
 20
204.46907662056589
 40
0.1999999904954755
 50
197.216552734375
 51
289.08514404296875
  0
ARC
  8
_1-0_
  6
DASHED1
 62
    7
 10
109.84318913640203
 20
121.50763846732475
 40
20.14543997274863
 50
22.379974365234375
 51
71.700119018554687
  0
CIRCLE
  8
_1-0_
  6
CONTINUOUS
 62
    7
 10
117.56130734005491
 20
133.48012563344597
 40
0.0751351021431587
  0
CIRCLE
  8
_1-0_
  6
CONTINUOUS
 62
    7
 10
118.68829675622889
 20
134.15632918074326
 40
0.0751351021431587
  0
CIRCLE
  8
_1-0_
  6
CONTINUOUS
 62
    7
 10
117.48617223791175
 20
134.30658701303844
 40
0.0751351021431587
  0
CIRCLE
  8
_1-0_
  6
CONTINUOUS
 62
    7
 10
116.05864241316513
 20
134.45685721732477
 40
0.0751351021431587
  0
CIRCLE
  8
_1-0_
  6
CONTINUOUS
 62
    7
 10
115.75811437658362
 20
134.90765545819258
 40
0.0751351021431587
  0
CIRCLE
  8
_1-0_
  6
CONTINUOUS
 62
    7
 10
116.20891261745145
 20
135.43358880120354
 40
0.0751351021431587
  0
CIRCLE
  8
_1-0_
  6
CONTINUOUS
 62
    7
 10
116.80996869061445
 20
135.73411683778505
 40
0.0751351021431587
  0
CIRCLE
  8
_1-0_
  6
CONTINUOUS
 62
    7
 10
117.18563182933912
 20
135.43358880120354
 40
0.0751351021431587
  0
CIRCLE
  8
_1-0_
  6
CONTINUOUS
 62
    7
 10
115.53270907015414
 20
137.01137645824537
 40
0.0751351021431587
  0
CIRCLE
  8
_1-0_
  6
CONTINUOUS
 62
    7
 10
115.23218103357264
 20
137.01137645824537
 40
0.0751351021431587
  0
CIRCLE
  8
_1-0_
  6
CONTINUOUS
 62
    7
 10
114.33058455183701
 20
138.06324314426732
 40
0.0751351021431587
  0
CIRCLE
  8
_1-0_
  6
CONTINUOUS
 62
    7
 10
115.15704593142948
 20
138.28863607870568
 40
0.0751351021431587
  0
CIRCLE
  8
_1-0_
  6
CONTINUOUS
 62
    7
 10
117.03537399704392
 20
138.13837824641047
 40
0.0751351021431587
  0
CIRCLE
  8
_1-0_
  6
CONTINUOUS
 62
    7
 10
117.11050909918708
 20
137.31190449482688
 40
0.0751351021431587
  0
CIRCLE
  8
_1-0_
  6
CONTINUOUS
 62
    7
 10
118.31263361750423
 20
135.50871153135557
 40
0.0751351021431587
  0
CIRCLE
  8
_1-0_
  6
CONTINUOUS
 62
    7
 10
119.89042127454604
 20
135.73411683778505
 40
0.0751351021431587
  0
CIRCLE
  8
_1-0_
  6
CONTINUOUS
 62
    7
 10
120.79201775628168
 20
135.13304839263091
 40
0.0751351021431587
  0
CIRCLE
  8
_1-0_
  6
CONTINUOUS
 62
    7
 10
119.28936520138303
 20
137.31190449482688
 40
0.0751351021431587
  0
CIRCLE
  8
_1-0_
  6
CONTINUOUS
 62
    7
 10
121.24281599714951
 20
136.03464487436656
 40
0.0751351021431587
  0
CIRCLE
  8
_1-0_
  6
CONTINUOUS
 62
    7
 10
122.36981778531462
 20
133.55526073558912
 40
0.0751351021431587
  0
CIRCLE
  8
_1-0_
  6
CONTINUOUS
 62
    7
 10
123.64707740577492
 20
132.57852915171031
 40
0.0751351021431587
  0
CIRCLE
  8
_1-0_
  6
CONTINUOUS
 62
    7
 10
124.99947212837839
 20
131.75206777211784
 40
0.0751351021431587
  0
CIRCLE
  8
_1-0_
  6
CONTINUOUS
 62
    7
 10
124.69894409179687
 20
130.39967304951438
 40
0.0751351021431587
  0
CIRCLE
  8
_1-0_
  6
CONTINUOUS
 62
    7
 10
123.34654936919343
 20
130.02400991078972
 40
0.0751351021431587
  0
CIRCLE
  8
_1-0_
  6
CONTINUOUS
 62
    7
 10
121.16769326699747
 20
129.94887480864654
 40
0.0751351021431587
  0
CIRCLE
  8
_1-0_
  6
CONTINUOUS
 62
    7
 10
118.23749851536107
 20
131.30126953125
 40
0.0751351021431587
  0
CIRCLE
  8
_1-0_
  6
CONTINUOUS
 62
    7
 10
117.78670027449326
 20
130.77533618823904
 40
0.0751351021431587
  0
CIRCLE
  8
_1-0_
  6
CONTINUOUS
 62
    7
 10
116.05864241316513
 20
131.00072912267737
 40
0.0751351021431587
  0
CIRCLE
  8
_1-0_
  6
CONTINUOUS
 62
    7
 10
115.60784417229731
 20
132.80392208614865
 40
0.0751351021431587
  0
CIRCLE
  8
_1-0_
  6
CONTINUOUS
 62
    7
 10
115.00677572714316
 20
134.23145191089529
 40
0.0751351021431587
  0
CIRCLE
  8
_1-0_
  6
CONTINUOUS
 62
    7
 10
115.75811437658362
 20
135.20818349477409
 40
0.0751351021431587
  0
CIRCLE
  8
_1-0_
  6
CONTINUOUS
 62
    7
 10
118.76343185837204
 20
125.816555538693
 40
0.0751351021431587
  0
CIRCLE
  8
_1-0_
  6
CONTINUOUS
 62
    7
 10
118.68829675622889
 20
124.5392959182327
 40
0.0751351021431587
  0
CIRCLE
  8
_1-0_
  6
CONTINUOUS
 62
    7
 10
120.19096168311867
 20
122.88636078705659
 40
0.0751351021431587
  0
CIRCLE
  8
_1-0_
  6
CONTINUOUS
 62
    7
 10
120.19096168311867
 20
120.63236958271749
 40
0.0751351021431587
  0
CIRCLE
  8
_1-0_
  6
CONTINUOUS
 62
    7
 10
120.79201775628168
 20
120.33184154613599
 40
0.0751351021431587
  0
CIRCLE
  8
_1-0_
  6
CONTINUOUS
 62
    7
 10
121.69361423801732
 20
119.88104330526816
 40
0.0751351021431587
  0
CIRCLE
  8
_1-0_
  6
CONTINUOUS
 62
    7
 10
122.14441247888514
 20
119.43024506440034
 40
0.0751351021431587
  0
CIRCLE
  8
_1-0_
  6
CONTINUOUS
 62
    7
 10
122.29468268317146
 20
118.30325564822635
 40
0.0751351021431587
  0
CIRCLE
  8
_1-0_
  6
CONTINUOUS
 62
    7
 10
122.14441247888514
 20
118.2281205460832
 40
0.0751351021431587
  0
CIRCLE
  8
_1-0_
  6
CONTINUOUS
 62
    7
 10
122.29468268317146
 20
118.37837837837839
 40
0.0751351021431587
  0
CIRCLE
  8
_1-0_
  6
CONTINUOUS
 62
    7
 10
121.76874934016048
 20
119.12971702781884
 40
0.0751351021431587
  0
CIRCLE
  8
_1-0_
  6
CONTINUOUS
 62
    7
 10
121.6184915078653
 20
120.03131350955448
 40
0.0751351021431587
  0
CIRCLE
  8
_1-0_
  6
CONTINUOUS
 62
    7
 10
121.24281599714951
 20
120.85777488914697
 40
0.0751351021431587
  0
CIRCLE
  8
_1-0_
  6
CONTINUOUS
 62
    7
 10
120.56662482184333
 20
121.23343802787163
 40
0.0751351021431587
  0
CIRCLE
  8
_1-0_
  6
CONTINUOUS
 62
    7
 10
119.89042127454604
 20
121.60910116659629
 40
0.0751351021431587
  0
CIRCLE
  8
_1-0_
  6
CONTINUOUS
 62
    7
 10
119.89042127454604
 20
123.26203629777238
 40
0.0751351021431587
  0
CIRCLE
  8
_1-0_
  6
CONTINUOUS
 62
    7
 10
119.58989323796453
 20
123.48742923221073
 40
0.0751351021431587
  0
CIRCLE
  8
_1-0_
  6
CONTINUOUS
 62
    7
 10
120.6417599239865
 20
122.51069764833193
 40
0.0751351021431587
  0
CIRCLE
  8
_1-0_
  6
CONTINUOUS
 62
    7
 10
119.43962303367822
 20
122.51069764833193
 40
0.0751351021431587
  0
CIRCLE
  8
_1-0_
  6
CONTINUOUS
 62
    7
 10
119.74016344225085
 20
124.01336257522172
 40
0.0751351021431587
  0
CIRCLE
  8
_1-0_
  6
CONTINUOUS
 62
    7
 10
118.31263361750423
 20
126.04194847313134
 40
0.0751351021431587
  0
CIRCLE
  8
_1-0_
  6
CONTINUOUS
 62
    7
 10
119.06395989495356
 20
128.07054674303211
 40
0.0751351021431587
  0
CIRCLE
  8
_1-0_
  6
CONTINUOUS
 62
    7
 10
118.23749851536107
 20
128.14568184517526
 40
0.0751351021431587
  0
CIRCLE
  8
_1-0_
  6
CONTINUOUS
 62
    7
 10
120.11582658097551
 20
128.52134498389992
 40
0.0751351021431587
  0
CIRCLE
  8
_1-0_
  6
CONTINUOUS
 62
    7
 10
122.06928974873311
 20
128.97214322476773
 40
0.0751351021431587
  0
CIRCLE
  8
_1-0_
  6
CONTINUOUS
 62
    7
 10
120.942287960568
 20
132.2780011151288
 40
0.0751351021431587
  0
CIRCLE
  8
_1-0_
  6
CONTINUOUS
 62
    7
 10
121.09255816485431
 20
131.82720287426099
 40
0.0751351021431587
  0
CIRCLE
  8
_1-0_
  6
CONTINUOUS
 62
    7
 10
120.34121951541385
 20
131.60179756783151
 40
0.0751351021431587
  0
CIRCLE
  8
_1-0_
  6
CONTINUOUS
 62
    7
 10
115.45757396801099
 20
135.88437467008023
 40
0.0751351021431587
  0
CIRCLE
  8
_1-0_
  6
CONTINUOUS
 62
    7
 10
114.40570728198902
 20
135.65896936365075
 40
0.0751351021431587
  0
CIRCLE
  8
_1-0_
  6
CONTINUOUS
 62
    7
 10
117.86183537663641
 20
133.55526073558912
 40
0.0751351021431587
  0
CIRCLE
  8
_1-0_
  6
CONTINUOUS
 62
    7
 10
116.80996869061445
 20
133.32985542915964
 40
0.0751351021431587
  0
CIRCLE
  8
_1-0_
  6
CONTINUOUS
 62
    7
 10
121.9190195444468
 20
133.93092387431378
 40
0.0751351021431587
  0
CIRCLE
  8
_1-0_
  6
CONTINUOUS
 62
    7
 10
120.86715285842483
 20
133.7055185678843
 40
0.0751351021431587
  0
CIRCLE
  8
_1-0_
  6
CONTINUOUS
 62
    7
 10
123.57194230363176
 20
135.05791329048776
 40
0.0751351021431587
  0
CIRCLE
  8
_1-0_
  6
CONTINUOUS
 62
    7
 10
122.52007561760981
 20
134.83250798405828
 40
0.0751351021431587
  0
CIRCLE
  8
_1-0_
  6
CONTINUOUS
 62
    7
 10
122.29468268317146
 20
136.93624135610222
 40
0.0751351021431587
  0
CIRCLE
  8
_1-0_
  6
CONTINUOUS
 62
    7
 10
121.24281599714951
 20
136.71083604967274
 40
0.0751351021431587
  0
CIRCLE
  8
_1-0_
  6
CONTINUOUS
 62
    7
 10
118.38775634765625
 20
139.039962356155
 40
0.0751351021431587
  0
CIRCLE
  8
_1-0_
  6
CONTINUOUS
 62
    7
 10
117.3358896616343
 20
138.81455704972552
 40
0.0751351021431587
  0
CIRCLE
  8
_1-0_
  6
CONTINUOUS
 62
    7
 10
116.28403534760346
 20
139.94155883789062
 40
0.0751351021431587
  0
CIRCLE
  8
_1-0_
  6
CONTINUOUS
 62
    7
 10
115.23216866158151
 20
139.71615353146115
 40
0.0751351021431587
  0
CIRCLE
  8
_1-0_
  6
CONTINUOUS
 62
    7
 10
114.55597748627534
 20
138.06324314426732
 40
0.0751351021431587
  0
CIRCLE
  8
_1-0_
  6
CONTINUOUS
 62
    7
 10
113.50411080025339
 20
137.83783783783784
 40
0.0751351021431587
  0
CIRCLE
  8
_1-0_
  6
CONTINUOUS
 62
    7
 10
127.17832823057434
 20
130.02399753879857
 40
0.0751351021431587
  0
CIRCLE
  8
_1-0_
  6
CONTINUOUS
 62
    7
 10
126.12646154455237
 20
129.79859223236909
 40
0.0751351021431587
  0
CIRCLE
  8
_1-0_
  6
CONTINUOUS
 62
    7
 10
122.97087385847763
 20
129.49806419578758
 40
0.0751351021431587
  0
CIRCLE
  8
_1-0_
  6
CONTINUOUS
 62
    7
 10
121.91900717245566
 20
129.27265888935813
 40
0.0751351021431587
  0
CIRCLE
  8
_1-0_
  6
CONTINUOUS
 62
    7
 10
119.74015107025971
 20
129.57319929793076
 40
0.0751351021431587
  0
CIRCLE
  8
_1-0_
  6
CONTINUOUS
 62
    7
 10
118.68828438423776
 20
129.34779399150128
 40
0.0751351021431587
  0
CIRCLE
  8
_1-0_
  6
CONTINUOUS
 62
    7
 10
118.16236341321792
 20
129.42294146563557
 40
0.0751351021431587
  0
CIRCLE
  8
_1-0_
  6
CONTINUOUS
 62
    7
 10
117.11049672719595
 20
129.19753615920609
 40
0.0751351021431587
  0
CIRCLE
  8
_1-0_
  6
CONTINUOUS
 62
    7
 10
120.19094931112754
 20
125.36575729782517
 40
0.0751351021431587
  0
CIRCLE
  8
_1-0_
  6
CONTINUOUS
 62
    7
 10
119.13908262510559
 20
125.1403519913957
 40
0.0751351021431587
  0
CIRCLE
  8
_1-0_
  6
CONTINUOUS
 62
    7
 10
121.99414227459883
 20
129.19753615920609
 40
0.0751351021431587
  0
CIRCLE
  8
_1-0_
  6
CONTINUOUS
 62
    7
 10
120.94227558857686
 20
128.97213085277662
 40
0.0751351021431587
  0
CIRCLE
  8
_1-0_
  6
CONTINUOUS
 62
    7
 10
118.53802655194258
 20
127.99541164088895
 40
0.0751351021431587
  0
CIRCLE
  8
_1-0_
  6
CONTINUOUS
 62
    7
 10
117.48615986592061
 20
127.77000633445947
 40
0.0751351021431587
  0
CIRCLE
  8
_1-0_
  6
CONTINUOUS
 62
    7
 10
118.31263361750423
 20
130.62506598395271
 40
0.0751351021431587
  0
CIRCLE
  8
_1-0_
  6
CONTINUOUS
 62
    7
 10
117.26076693148227
 20
130.39966067752323
 40
0.0751351021431587
  0
CIRCLE
  8
_1-0_
  6
CONTINUOUS
 62
    7
 10
121.01742306271116
 20
131.1509993269637
 40
0.0751351021431587
  0
CIRCLE
  8
_1-0_
  6
CONTINUOUS
 62
    7
 10
119.96555637668919
 20
130.92559402053422
 40
0.0751351021431587
  0
TEXT
  8
_0-0_
 62
    7
 10
141.89189395389042
 20
14.594594594594582
 40
2.5
 41
1
 50
0
  1
縮尺
  0
TEXT
  8
_0-0_
 62
    7
 10
377.10214563318203
 20
22.865493362014362
 40
2.5
 41
1
 50
0
  1
ＮＯ
  0
TEXT
  8
_1-0_
 62
    7
 10
169.90681828679266
 20
13.3181144095756
 40
2.5
 41
1
 50
0
  1
1/5
  0
TEXT
  8
_0-0_
 62
    7
 10
14.594594336844779
 20
24.324324324324323
 40
2.5
 41
1
 50
0
  1
Ｓ型
  0
TEXT
  8
_0-0_
 62
    7
 10
383.97877873601146
 20
17.689098667454061
 40
2.5
 41
1
 50
0
  1
Ｓ
  0
TEXT
  8
_1-3_
 62
    7
 10
134.59507492544637
 20
71.531313354792232
 40
2.5
 41
1
 50
24.227758246524974
  1
70
  0
TEXT
  8
_1-3_
 62
    7
 10
240.17320375184755
 20
117.06003137536952
 40
2.5
 41
1
 50
0
  1
瓦桟
  0
TEXT
  8
_1-3_
 62
    7
 10
205.55149800068625
 20
212.88010055954393
 40
2.5
 41
1
 50
0
  1
Ｓ型　桟瓦
  0
TEXT
  8
_1-3_
 62
    7
 10
96.217258556469062
 20
175.53113782728042
 40
2.5
 41
1
 50
0
  1
瓦座
  0
TEXT
  8
_1-3_
 62
    7
 10
100.74089256492822
 20
172.45225648622255
 40
2.5
 41
1
 50
0
  1
40ｘ60
  0
TEXT
  8
_1-0_
 62
    7
 10
25.556194717819636
 20
20.211577544341225
 40
2.5
 41
1
 50
0
  1
ＲＣ
  0
TEXT
  8
_1-0_
 62
    7
 10
72.48617017591323
 20
145.86219993797511
 40
2.5
 41
1
 50
0
  1
広小舞　30ｘ90
  0
TEXT
  8
_1-0_
 62
    7
 10
82.350522634145378
 20
142.86000019795188
 40
2.5
 41
1
 50
0
  1
防腐処理
  0
TEXT
  8
_1-0_
 62
    7
 10
280.50263275971287
 20
82.720604973870365
 40
2.5
 41
1
 50
0
  1
303
  0
TEXT
  8
_1-0_
 62
    7
 10
324.74784232474661
 20
68.109383454193946
 40
2.5
 41
1
 50
90
  1
30
  0
TEXT
  8
_1-0_
 62
    7
 10
394.96661624392948
 20
15.27939976872625
 40
2.5
 41
1
 50
0
  1
13
  0
TEXT
  8
_1-0_
 62
    7
 10
39.721903414339636
 20
15.395235628695104
 40
2.5
 41
1
 50
0
  1
軒先　2
  0
TEXT
  8
_1-3_
 62
    7
 10
97.639264625110243
 20
198.45893622475569
 40
2.5
 41
1
 50
24.227719460851628
  1
262
  0
TEXT
  8
_1-3_
 62
    7
 10
145.02764889804735
 20
219.78369708489066
 40
2.5
 41
1
 50
24.227891841336653
  1
262
  0
TEXT
  8
_1-3_
 62
    7
 10
192.43563427600341
 20
241.11729050497087
 40
2.5
 41
1
 50
24.227891841336664
  1
262
  0
TEXT
  8
_1-3_
 62
    7
 10
239.86303853577286
 20
262.45964097983233
 40
2.5
 41
1
 50
24.227969413213476
  1
262
  0
TEXT
  8
_1-0_
 62
    7
 10
100.04278028333511
 20
161.93519798485011
 40
2.5
 41
1
 50
0
  1
面戸
  0
TEXT
  8
_1-0_
 62
    7
 10
206.67012807485222
 20
57.776771751610013
 40
2.5
 41
1
 50
0
  1
木煉瓦
  0
TEXT
  8
_1-0_
 62
    7
 10
221.10328880516261
 20
57.776771751610013
 40
2.5
 41
1
 50
0
  1
防腐処理　45ｘ30
  0
TEXT
  8
_1-0_
 62
    7
 10
244.46101420634503
 20
36.344047752586576
 40
2.5
 41
1
 50
0
  1
必要に応じて不陸調整材を使用
  0
TEXT
  8
_1-0_
 62
    7
 10
254.7470670133024
 20
113.45978195602829
 40
2.5
 41
1
 50
0
  1
※　地域により瓦桟木の大きさは、異なります
  0
TEXT
  8
_1-0_
 62
    7
 10
254.09978918127115
 20
117.05927668391048
 40
2.5
 41
1
 50
0
  1
１５×３０　（防腐処理）
  0
TEXT
  8
_1-3_
 62
    7
 10
240.10140496331292
 20
102.082894814981
 40
2.5
 41
1
 50
0
  1
下葺き材
  0
TEXT
  8
_1-3_
 62
    7
 10
240.10140083931589
 20
108.08288986618454
 40
2.5
 41
1
 50
0
  1
流し桟
  0
TEXT
  8
_1-0_
 62
    7
 10
240.10140083931589
 20
96.082893577781888
 40
2.5
 41
1
 50
0
  1
木煉瓦
  0
TEXT
  8
_1-0_
 62
    7
 10
254.53456156962628
 20
102.082894814981
 40
2.5
 41
1
 50
0
  1
ゴムアス系ルーフィング
  0
TEXT
  8
_1-0_
 62
    7
 10
254.53456156962628
 20
96.082893577781888
 40
2.5
 41
1
 50
0
  1
防腐処理　45ｘ30
  0
TEXT
  8
_1-0_
 62
    7
 10
324.74784232474661
 20
52.359384072793489
 40
2.5
 41
1
 50
90
  1
スラブ厚
  0
POINT
  8
_1-3_
 62
    7
 10
75.834478429845859
 20
188.0984826990076
  0
POINT
  8
_1-3_
 62
    7
 10
123.27412373310811
 20
209.44632865287164
  0
POINT
  8
_1-3_
 62
    7
 10
170.61124234586148
 20
230.74802707981419
  0
POINT
  8
_1-3_
 62
    7
 10
218.09009448902029
 20
252.11351549303211
  0
POINT
  8
_1-3_
 62
    7
 10
265.4660611539274
 20
273.432707915435
  0
POINT
  8
_1-3_
 62
    7
 10
129.55670743375211
 20
68.71575845254435
  0
POINT
  8
_1-3_
 62
    7
 10
142.32360015044341
 20
74.460859556455873
  0
POINT
  8
_1-0_
 62
    7
 10
252.07763671875
 20
82.220603324271536
  0
POINT
  8
_1-0_
 62
    7
 10
312.67762880067568
 20
82.220603324271536
  0
POINT
  8
_1-0_
 62
    7
 10
325.24784397434547
 20
72.359384072793503
  0
POINT
  8
_1-0_
 62
    7
 10
325.24784397434547
 20
66.359382835594388
  0
POINT
  8
_1-0_
 62
    7
 10
325.24784397434547
 20
48.359385309992604
  0
POINT
  8
_1-0_
 62
    7
 10
325.24784397434547
 20
66.359382835594388
  0
TEXT
  8
_1-f_
 62
    7
 10
99.861060739034514
 20
46.348829322177949
 40
2.5
 41
1
 50
0
  1
※軒面戸の納まりには、木製、金属製、樹脂製、面戸付き軒瓦等があります。
  0
TEXT
  8
_1-f_
 62
    7
 10
102.12965910947092
 20
42.593607160556019
 40
2.5
 41
1
 50
0
  1
その他に漆喰またはモルタル仕上げもありますが、この場合は、左官仕事となります。
  0
ENDSEC
  0
EOF
