  0
SECTION
  2
HEADER
  9
$ACADVER
  1
AC1009
  9
$INSBASE
 10
0
 20
0
 30
0
  9
$EXTMIN
 10
0
 20
0
  9
$EXTMAX
 10
2100
 20
1485
  9
$LIMMIN
 10
0
 20
0
  9
$LIMMAX
 10
2100
 20
1485
  9
$LTSCALE
 40
5
  0
ENDSEC
  0
SECTION
  2
TABLES
  0
TABLE
  2
LTYPE
 70
     9
  0
LTYPE
  2
CONTINUOUS
 70
    64
  3
実線
 72
    65
 73
     0
 40
0.0
  0
LTYPE
  2
DASHED1
 70
    64
  3
--  --  --  --  --  --  --  --  
 72
    65
 73
     2
 40
2.5
 49
1.25
 49
-1.25
  0
LTYPE
  2
DASHED2
 70
    64
  3
----    ----    ----    ----    
 72
    65
 73
     2
 40
5.0
 49
2.5
 49
-2.5
  0
LTYPE
  2
DASHED3
 70
    64
  3
------  ------  ------  ------  
 72
    65
 73
     2
 40
5.0
 49
3.75
 49
-1.25
  0
LTYPE
  2
CENTER1
 70
    64
  3
----- - ----- - ----- - ----- - 
 72
    65
 73
     4
 40
10.0
 49
6.25
 49
-1.25
 49
1.25
 49
-1.25
  0
LTYPE
  2
CENTER2
 70
    64
  3
----------  --  ----------  --  
 72
    65
 73
     4
 40
20.0
 49
12.5
 49
-2.5
 49
2.5
 49
-2.5
  0
LTYPE
  2
PHANTOM1
 70
    64
  3
--- - - --- - - --- - - --- - - 
 72
    65
 73
     6
 40
10.0
 49
3.25
 49
-1.25
 49
1.25
 49
-1.25
 49
1.25
 49
-1.25
  0
LTYPE
  2
PHANTOM2
 70
    64
  3
--------  -  -  --------  -  -  
 72
    65
 73
     6
 40
20.0
 49
10.0
 49
-2.5
 49
1.25
 49
-2.5
 49
1.25
 49
-2.5
  0
LTYPE
  2
DOT
 70
    64
  3
-   -   -   -   -   -   -   -   
 72
    65
 73
     2
 40
2.5
 49
0.625
 49
-1.875
  0
LTYPE
  2
DUMMY
 70
    64
  3
ダミー
 72
    65
 73
     0
 40
0.0
  0
LTYPE
  2
RAND1
 70
    64
  3
ランダム線1
 72
    65
 73
     4
 40
10.0
 49
1.0
 49
-2.0
 49
3.0
 49
-4.0
  0
LTYPE
  2
RAND2
 70
    64
  3
ランダム線2
 72
    65
 73
     4
 40
14.0
 49
2.0
 49
-3.0
 49
4.0
 49
-5.0
  0
LTYPE
  2
RAND3
 70
    64
  3
ランダム線3
 72
    65
 73
     4
 40
18.0
 49
3.0
 49
-4.0
 49
5.0
 49
-6.0
  0
LTYPE
  2
RAND4
 70
    64
  3
ランダム線4
 72
    65
 73
     4
 40
22.0
 49
4.0
 49
-5.0
 49
6.0
 49
-7.0
  0
LTYPE
  2
RAND5
 70
    64
  3
ランダム線5
 72
    65
 73
     4
 40
26.0
 49
5.0
 49
-6.0
 49
7.0
 49
-8.0
  0
LTYPE
  2
LONG1
 70
    64
  3
----------  --  ----------  --  
 72
    65
 73
     4
 40
40.0
 49
32.5
 49
-2.5
 49
2.5
 49
-2.5
  0
LTYPE
  2
LONG2
 70
    64
  3
--------  -  -  --------  -  -  
 72
    65
 73
     6
 40
40.0
 49
30.0
 49
-2.5
 49
1.25
 49
-2.5
 49
1.25
 49
-2.5
  0
LTYPE
  2
LONG3
 70
    64
  3
+++++++++++++++..+++++++++++++++
 72
    65
 73
     2
 40
40.0
 49
37.5
 49
-2.5
  0
LTYPE
  2
LONG4
 70
    64
  3
+++++++++++++++..+++++++++++++++
 72
    65
 73
     2
 40
80.0
 49
75.0
 49
-5.0
  0
LTYPE
  2
LONG5
 70
    64
  3
----------  --  ----------  --  
 72
    65
 73
     4
 40
60.0
 49
37.5
 49
-7.5
 49
7.5
 49
-7.5
  0
LTYPE
  2
dashed
 70
   64
  3
-------   -------------   ------
 72
   65
 73
    2
 40
7.5
 49
6
 49
-1.5
  0
LTYPE
  2
dashed_spaced
 70
   64
  3
----        --------        ----
 72
   65
 73
    2
 40
12
 49
6
 49
-6
  0
LTYPE
  2
long_dashed_dotted
 70
   64
  3
------------- --- --------------
 72
   65
 73
    4
 40
15.25
 49
12
 49
-1.5
 49
0.25
 49
-1.5
  0
LTYPE
  2
long_dashed_double-dotted
 70
   64
  3
----------- --- --- ------------
 72
   65
 73
    6
 40
17
 49
12
 49
-1.5
 49
0.25
 49
-1.5
 49
0.25
 49
-1.5
  0
LTYPE
  2
long_dashed_triplicate-dotted
 70
   64
  3
--------- --- --- --- ----------
 72
   65
 73
    8
 40
18.75
 49
12
 49
-1.5
 49
0.25
 49
-1.5
 49
0.25
 49
-1.5
 49
0.25
 49
-1.5
  0
LTYPE
  2
dotted
 70
   64
  3
   -       -       -       -    
 72
   65
 73
    2
 40
1.75
 49
0.25
 49
-1.5
  0
LTYPE
  2
chain
 70
   64
  3
-------------- -- --------------
 72
   65
 73
    4
 40
18.5
 49
12
 49
-1.5
 49
3.5
 49
-1.5
  0
LTYPE
  2
chain_double_dash
 70
   64
  3
------------ -- -- -------------
 72
   65
 73
    6
 40
23.5
 49
12
 49
-1.5
 49
3.5
 49
-1.5
 49
3.5
 49
-1.5
  0
LTYPE
  2
dashed_dotted
 70
   64
  3
-----------     -     ----------
 72
   65
 73
    4
 40
9.25
 49
6
 49
-1.5
 49
0.25
 49
-1.5
  0
LTYPE
  2
double-dashed_dotted
 70
   64
  3
------   -----------   -   -----
 72
   65
 73
    6
 40
16.75
 49
6
 49
-1.5
 49
6
 49
-1.5
 49
0.25
 49
-1.5
  0
LTYPE
  2
dashed_double-dotted
 70
   64
  3
---------    -    -    ---------
 72
   65
 73
    6
 40
11
 49
6
 49
-1.5
 49
0.25
 49
-1.5
 49
0.25
 49
-1.5
  0
LTYPE
  2
double-dashed_double-dotted
 70
   64
  3
-----   ---------   -   -   ----
 72
   65
 73
    8
 40
18.5
 49
6
 49
-1.5
 49
6
 49
-1.5
 49
0.25
 49
-1.5
 49
0.25
 49
-1.5
  0
LTYPE
  2
dashed_triplicate-dotted
 70
   64
  3
-------    -    -    -    ------
 72
   65
 73
    8
 40
12.75
 49
6
 49
-1.5
 49
0.25
 49
-1.5
 49
0.25
 49
-1.5
 49
0.25
 49
-1.5
  0
LTYPE
  2
double-dashed_triplicate-dotted
 70
   64
  3
-----  ---------  -  -  -  -----
 72
   65
 73
   10
 40
20.25
 49
6
 49
-1.5
 49
6
 49
-1.5
 49
0.25
 49
-1.5
 49
0.25
 49
-1.5
 49
0.25
 49
-1.5
  0
LTYPE
  2
undefined
 70
   64
  3
--------------------------------
 72
   65
 73
    0
 40
0
  0
ENDTAB
  0
TABLE
  2
STYLE
  5
3
100
AcDbSymbolTable
 70
     1
  0
STYLE
  5
10
100
AcDbSymbolTableRecord
100
AcDbTextStyleTableRecord
  2
STANDARD
 70
     0
 40
0.0
 41
1.0
 50
0.0
 71
     0
 42
0.2
  3
txt
  4
bigfont.shx
  0
STYLE
  5
26
100
AcDbSymbolTableRecord
100
AcDbTextStyleTableRecord
  2
TATEGAKI
 70
    68
 40
0.0
 41
1.0
 50
0.0
 71
     0
 42
1.0
  3
txt
  4
bigfont.shx
  0
ENDTAB
  0
TABLE
  2
LAYER
 70
    8
  0
LAYER
  2
_0-0_
 70
   64
 62
    7
  6
CONTINUOUS
  0
LAYER
  2
_0-1_
 70
   64
 62
    7
  6
CONTINUOUS
  0
LAYER
  2
_0-2_
 70
   64
 62
    7
  6
CONTINUOUS
  0
LAYER
  2
_0-3_
 70
   64
 62
    7
  6
CONTINUOUS
  0
LAYER
  2
_0-4_下地
 70
   64
 62
    7
  6
CONTINUOUS
  0
LAYER
  2
_0-5_
 70
   64
 62
    7
  6
CONTINUOUS
  0
LAYER
  2
_1-0_
 70
   64
 62
    7
  6
CONTINUOUS
  0
LAYER
  2
ADD_LINE
 70
   64
 62
    7
  6
CONTINUOUS
  0
ENDTAB
  0
ENDSEC
  0
SECTION
  2
BLOCKS
  0
ENDSEC
  0
SECTION
  2
ENTITIES
  0
LINE
  8
_0-1_
  6
CONTINUOUS
 62
    7
 10
435.67570866765203
 20
839.35249947212833
 11
417.26507238439615
 21
846.62995209565042
  0
LINE
  8
ADD_LINE
  6
DOT
 62
    7
 10
389.98606913798568
 20
864.86484424487969
 11
391.6458336082664
 21
864.86484424487969
  0
LINE
  8
_0-1_
  6
CONTINUOUS
 62
    7
 10
385.6756674276815
 20
864.86484424487969
 11
395.67570041965791
 21
864.86484424487969
  0
LINE
  8
_0-1_
  6
CONTINUOUS
 62
    7
 10
385.6756674276815
 20
864.86484424487969
 11
385.6756674276815
 21
849.86485661687084
  0
LINE
  8
ADD_LINE
  6
DOT
 62
    7
 10
488.76169565561662
 20
814.35247885214324
 11
528.82541965793916
 21
814.35247885214324
  0
LINE
  8
ADD_LINE
  6
DOT
 62
    7
 10
488.76169565561662
 20
814.35247885214324
 11
463.54176289326438
 21
814.35247885214324
  0
LINE
  8
_0-1_
  6
CONTINUOUS
 62
    7
 10
528.82541965793916
 20
814.35247885214324
 11
726.71708802919125
 21
814.35247885214324
  0
LINE
  8
_0-1_
  6
CONTINUOUS
 62
    7
 10
435.67570866765203
 20
839.35249947212833
 11
417.26507238439615
 21
846.62995209565042
  0
LINE
  8
_0-1_
  6
CONTINUOUS
 62
    7
 10
695.67570041965791
 20
839.35249947212833
 11
677.26506413640209
 21
846.62995209565042
  0
LINE
  8
ADD_LINE
  6
DOT
 62
    7
 10
649.98606088999156
 20
864.86484424487969
 11
651.6458253602724
 21
864.86484424487969
  0
LINE
  8
_0-1_
  6
CONTINUOUS
 62
    7
 10
395.67570041965791
 20
864.86484424487969
 11
395.67570041965791
 21
861.65140512827281
  0
LINE
  8
_0-1_
  6
CONTINUOUS
 62
    7
 10
645.6756591796875
 20
864.86484424487969
 11
655.67569217166397
 21
864.86484424487969
  0
LINE
  8
_0-1_
  6
CONTINUOUS
 62
    7
 10
645.6756591796875
 20
864.86484424487969
 11
645.6756591796875
 21
849.86485661687084
  0
LINE
  8
_0-4_下地
  6
CONTINUOUS
 62
    7
 10
748.7616874076225
 20
814.35247885214324
 11
788.82541140994522
 21
814.35247885214324
  0
LINE
  8
_0-4_下地
  6
CONTINUOUS
 62
    7
 10
748.7616874076225
 20
814.35247885214324
 11
723.54175464527032
 21
814.35247885214324
  0
LINE
  8
_0-1_
  6
CONTINUOUS
 62
    7
 10
788.82541140994522
 20
814.35247885214324
 11
986.71701792124168
 21
814.35247885214324
  0
LINE
  8
_0-1_
  6
CONTINUOUS
 62
    7
 10
955.67569217166397
 20
839.35249947212833
 11
937.26505588840791
 21
846.62995209565042
  0
LINE
  8
_0-1_
  6
CONTINUOUS
 62
    7
 10
655.67569217166397
 20
864.86484424487969
 11
655.67569217166397
 21
861.65140512827281
  0
LINE
  8
_0-1_
  6
CONTINUOUS
 62
    7
 10
955.67569217166397
 20
839.35249947212833
 11
937.26505588840791
 21
846.62995209565042
  0
LINE
  8
_1-0_
  6
CONTINUOUS
 62
    5
 10
41.891871271906638
 20
1425
 11
2041.8919743718329
 21
1425
  0
LINE
  8
_1-0_
  6
CONTINUOUS
 62
    5
 10
2041.8919743718329
 20
75
 11
41.891871271906638
 21
75
  0
LINE
  8
_1-0_
  6
CONTINUOUS
 62
    5
 10
2041.8919743718329
 20
174.99998969000742
 11
41.891809411951044
 21
174.99998969000742
  0
LINE
  8
_1-0_
  6
CONTINUOUS
 62
    5
 10
1866.8921393317146
 20
75
 11
1866.8921393317146
 21
174.99998969000742
  0
LINE
  8
_1-0_
  6
CONTINUOUS
 62
    5
 10
693.24330510319896
 20
174.99998969000742
 11
693.24330510319896
 21
75
  0
LINE
  8
_1-0_
  6
CONTINUOUS
 62
    5
 10
1082.4324324324325
 20
174.99998969000742
 11
1082.4324324324325
 21
75
  0
LINE
  8
_1-0_
  6
CONTINUOUS
 62
    5
 10
693.24330510319896
 20
124.99999484500371
 11
1082.4324324324325
 21
124.99999484500371
  0
LINE
  8
_1-0_
  6
CONTINUOUS
 62
    5
 10
1990.5406642604521
 20
154.05405405405403
 11
1927.7025789827915
 21
91.216223948710677
  0
LINE
  8
_0-1_
  6
CONTINUOUS
 62
    7
 10
1335.5453078811233
 20
844.83892079946156
 11
1352.9899390968117
 21
844.83892079946156
  0
LINE
  8
_0-1_
  6
CONTINUOUS
 62
    7
 10
1469.5453540698904
 20
818.53260349582979
 11
1469.5453540698904
 21
759.83888780748532
  0
LINE
  8
_0-1_
  6
CONTINUOUS
 62
    7
 10
1469.5453540698904
 20
759.83888780748532
 11
1485.5453078811233
 21
759.83888780748532
  0
LINE
  8
_0-1_
  6
CONTINUOUS
 62
    7
 10
1485.5453078811233
 20
818.83893399625219
 11
1485.5453078811233
 21
759.83888780748532
  0
LINE
  8
_0-1_
  6
CONTINUOUS
 62
    7
 10
905.67565093169355
 20
864.86484424487969
 11
915.67568392366979
 21
864.86484424487969
  0
LINE
  8
_0-1_
  6
CONTINUOUS
 62
    7
 10
905.67565093169355
 20
864.86484424487969
 11
905.67565093169355
 21
849.86485661687084
  0
LINE
  8
ADD_LINE
  6
DOT
 62
    7
 10
1008.7616791596283
 20
814.35247885214324
 11
1048.825403161951
 21
814.35247885214324
  0
LINE
  8
ADD_LINE
  6
DOT
 62
    7
 10
1008.7616791596283
 20
814.35247885214324
 11
983.54162267736501
 21
814.35247885214324
  0
LINE
  8
ADD_LINE
  6
DOT
 62
    7
 10
1048.825403161951
 20
814.35247885214324
 11
1246.7171333931587
 21
814.35247885214324
  0
LINE
  8
_0-1_
  6
CONTINUOUS
 62
    7
 10
915.67568392366979
 20
864.86484424487969
 11
915.67568392366979
 21
861.65140512827281
  0
LINE
  8
ADD_LINE
  6
DOT
 62
    7
 10
1198.752532134185
 20
844.44400684253594
 11
1206.4763661977408
 21
844.44400684253594
  0
LINE
  8
ADD_LINE
  6
DOT
 62
    7
 10
1198.752532134185
 20
844.44400684253594
 11
1196.7439393739442
 21
844.44400684253594
  0
LINE
  8
ADD_LINE
  6
DOT
 62
    7
 10
1198.752532134185
 20
844.44400684253594
 11
1198.752532134185
 21
848.53344479122688
  0
LINE
  8
ADD_LINE
  6
DOT
 62
    7
 10
1198.752532134185
 20
844.44406870249156
 11
1198.752532134185
 21
840.26085106102198
  0
LINE
  8
_0-3_
  6
CONTINUOUS
 62
    7
 10
1165.6756426836994
 20
851.35246483055323
 11
1165.6756426836994
 21
836.35247720254438
  0
LINE
  8
_0-3_
  6
CONTINUOUS
 62
    7
 10
1197.265047640414
 20
846.62995209565042
 11
1215.6756839236698
 21
839.35249947212833
  0
LINE
  8
_0-1_
  6
CONTINUOUS
 62
    7
 10
1465.5453656170821
 20
789.35245823215791
 11
1423.5454250026394
 21
789.35245823215791
  0
LINE
  8
_0-2_
  6
CONTINUOUS
 62
    7
 10
1385.6756261877113
 20
851.35252669050885
 11
1385.6756261877113
 21
836.3525390625
  0
LINE
  8
_0-1_
  6
CONTINUOUS
 62
    7
 10
295.67561793971709
 20
789.35245823215791
 11
1441.5453111803211
 21
789.35245823215791
  0
LINE
  8
_0-1_
  6
CONTINUOUS
 62
    7
 10
295.67561793971709
 20
814.35247885214324
 11
466.71709627718542
 21
814.35247885214324
  0
LINE
  8
_0-1_
  6
CONTINUOUS
 62
    7
 10
295.67561793971709
 20
814.35247885214324
 11
1309.4594594594596
 21
814.35247885214324
  0
LINE
  8
_0-2_
  6
CONTINUOUS
 62
    7
 10
340.67570454365494
 20
793.35244668496625
 11
340.67570454365494
 21
796.3524070945947
  0
LINE
  8
_0-2_
  6
CONTINUOUS
 62
    7
 10
340.67570454365494
 20
796.3524070945947
 11
390.67562206371406
 21
796.3524070945947
  0
LINE
  8
_0-2_
  6
CONTINUOUS
 62
    7
 10
390.67562206371406
 20
796.3524070945947
 11
390.67562206371406
 21
793.35244668496625
  0
LINE
  8
_0-2_
  6
CONTINUOUS
 62
    7
 10
390.67562206371406
 20
793.35244668496625
 11
340.67570454365494
 21
793.35244668496625
  0
LINE
  8
_0-2_
  6
CONTINUOUS
 62
    7
 10
340.67570454365494
 20
793.35244668496625
 11
390.67562206371406
 21
796.3524070945947
  0
LINE
  8
_0-2_
  6
CONTINUOUS
 62
    7
 10
600.67569629566094
 20
793.35244668496625
 11
600.67569629566094
 21
796.3524070945947
  0
LINE
  8
_0-2_
  6
CONTINUOUS
 62
    7
 10
600.67569629566094
 20
796.3524070945947
 11
650.67561381572
 21
796.3524070945947
  0
LINE
  8
_0-2_
  6
CONTINUOUS
 62
    7
 10
650.67561381572
 20
796.3524070945947
 11
650.67561381572
 21
793.35244668496625
  0
LINE
  8
_0-2_
  6
CONTINUOUS
 62
    7
 10
650.67561381572
 20
793.35244668496625
 11
600.67569629566094
 21
793.35244668496625
  0
LINE
  8
_0-2_
  6
CONTINUOUS
 62
    7
 10
600.67569629566094
 20
793.35244668496625
 11
650.67561381572
 21
796.3524070945947
  0
LINE
  8
ADD_LINE
  6
DOT
 62
    7
 10
625.67565505569053
 20
800.56271939664282
 11
625.67565505569053
 21
789.51613967483115
  0
LINE
  8
_0-2_
  6
CONTINUOUS
 62
    7
 10
860.6757499076225
 20
793.35244668496625
 11
860.6757499076225
 21
796.3524070945947
  0
LINE
  8
_0-2_
  6
CONTINUOUS
 62
    7
 10
860.6757499076225
 20
796.3524070945947
 11
910.67566742768167
 21
796.3524070945947
  0
LINE
  8
_0-2_
  6
CONTINUOUS
 62
    7
 10
910.67566742768167
 20
793.35244668496625
 11
860.6757499076225
 21
793.35244668496625
  0
LINE
  8
_0-2_
  6
CONTINUOUS
 62
    7
 10
860.6757499076225
 20
793.35244668496625
 11
910.67566742768167
 21
796.3524070945947
  0
LINE
  8
_0-2_
  6
CONTINUOUS
 62
    7
 10
1120.6756179397171
 20
793.35244668496625
 11
1120.6756179397171
 21
796.3524070945947
  0
LINE
  8
_0-2_
  6
CONTINUOUS
 62
    7
 10
1120.6756179397171
 20
796.3524070945947
 11
1170.6755354597763
 21
796.3524070945947
  0
LINE
  8
_0-2_
  6
CONTINUOUS
 62
    7
 10
1170.6755354597763
 20
796.3524070945947
 11
1170.6755354597763
 21
793.35244668496625
  0
LINE
  8
_0-2_
  6
CONTINUOUS
 62
    7
 10
1170.6755354597763
 20
793.35244668496625
 11
1120.6756179397171
 21
793.35244668496625
  0
LINE
  8
_0-2_
  6
CONTINUOUS
 62
    7
 10
1120.6756179397171
 20
793.35244668496625
 11
1170.6755354597763
 21
796.3524070945947
  0
LINE
  8
_0-2_
  6
DASHED1
 62
    7
 10
1441.9566798854519
 20
808.9665180927999
 11
1433.3983550200592
 21
806.27097052496833
  0
LINE
  8
_0-2_
  6
DASHED1
 62
    7
 10
1433.3983550200592
 20
806.27097052496833
 11
1441.9566798854519
 21
803.96650159681167
  0
LINE
  8
_0-2_
  6
DASHED1
 62
    7
 10
1441.9566798854519
 20
808.9665180927999
 11
1485.5453078811233
 21
808.9665180927999
  0
LINE
  8
_0-2_
  6
DASHED1
 62
    7
 10
1441.9566798854519
 20
803.96650159681167
 11
1485.5453078811233
 21
803.96650159681167
  0
LINE
  8
_0-2_
  6
DASHED1
 62
    7
 10
1441.9566798854519
 20
808.9665180927999
 11
1441.9566798854519
 21
803.96650159681167
  0
LINE
  8
_0-2_
  6
CONTINUOUS
 62
    7
 10
1488.5523203256969
 20
813.08595811998532
 11
1485.5453078811233
 21
813.08595811998532
  0
LINE
  8
_0-2_
  6
CONTINUOUS
 62
    7
 10
1488.5523203256969
 20
798.02961607237125
 11
1485.5453078811233
 21
798.02961607237125
  0
LINE
  8
_0-2_
  6
CONTINUOUS
 62
    7
 10
1488.5523203256969
 20
813.08595811998532
 11
1488.5523203256969
 21
798.02961607237125
  0
LINE
  8
_0-5_
  6
CONTINUOUS
 62
    7
 10
435.67570866765203
 20
1090.5405405405406
 11
695.67563855970229
 21
1090.5405405405406
  0
LINE
  8
_0-5_
  6
CONTINUOUS
 62
    7
 10
435.67570866765203
 20
956.75675675675677
 11
435.67570866765203
 21
1090.5405405405406
  0
LINE
  8
_0-5_
  6
CONTINUOUS
 62
    7
 10
695.67563855970229
 20
956.75675675675677
 11
695.67563855970229
 21
1090.5405405405406
  0
LINE
  8
_0-5_
  6
CONTINUOUS
 62
    7
 10
695.67563855970229
 20
1090.5405405405406
 11
955.67569217166397
 21
1090.5405405405406
  0
LINE
  8
_0-5_
  6
CONTINUOUS
 62
    7
 10
955.67569217166397
 20
956.75675675675677
 11
955.67569217166397
 21
1090.5405405405406
  0
LINE
  8
_0-5_
  6
CONTINUOUS
 62
    7
 10
955.67569217166397
 20
1090.5405405405406
 11
1215.6755602037586
 21
1090.5405405405406
  0
LINE
  8
_0-5_
  6
CONTINUOUS
 62
    7
 10
1215.6755602037586
 20
956.75675675675677
 11
1215.6755602037586
 21
1090.5405405405406
  0
LINE
  8
_0-5_
  6
CONTINUOUS
 62
    7
 10
1215.6755602037586
 20
1090.5405405405406
 11
1335.6755849477408
 21
1090.5405405405406
  0
LINE
  8
_0-5_
  6
CONTINUOUS
 62
    7
 10
1335.6755849477408
 20
956.75675675675677
 11
1335.6755849477408
 21
1090.5405405405406
  0
LINE
  8
_0-5_
  6
CONTINUOUS
 62
    7
 10
1226.7035819388725
 20
827.52796894795199
 11
1295.3562556086358
 21
1016.1496755239126
  0
LINE
  8
_0-5_
  6
CONTINUOUS
 62
    7
 10
1461.001256994299
 20
868.68315000791813
 11
1526.0359892974029
 21
1047.3646421690246
  0
LINE
  8
_0-5_
  6
CONTINUOUS
 62
    7
 10
1493.8689360747467
 20
804.31706196553012
 11
1530.5693342879013
 21
905.15052176810605
  0
LINE
  8
_0-5_
  6
CONTINUOUS
 62
    7
 10
870.87027060019011
 20
885.41948473131345
 11
834.52767037056583
 21
985.26986611856
  0
LINE
  8
_0-5_
  6
CONTINUOUS
 62
    7
 10
834.52767037056583
 20
985.26986611856
 11
825.77479594462625
 21
985.26986611856
  0
LINE
  8
_0-5_
  6
CONTINUOUS
 62
    7
 10
1295.3562556086358
 20
1016.1496755239126
 11
1309.2872413429054
 21
1016.1496755239126
  0
LINE
  8
_0-5_
  6
CONTINUOUS
 62
    7
 10
1526.0359892974029
 20
1047.3646421690246
 11
1537.5978624498523
 21
1047.3646421690246
  0
LINE
  8
_0-5_
  6
CONTINUOUS
 62
    7
 10
1513.9411307669977
 20
965.85641809411959
 11
1530.2724065007392
 21
965.85641809411959
  0
LINE
  8
_0-5_
  6
CONTINUOUS
 62
    7
 10
1530.5693342879013
 20
905.15052176810605
 11
1544.9233183989654
 21
905.15052176810605
  0
LINE
  8
_0-2_
  6
CONTINUOUS
 62
    7
 10
1375.5453161291175
 20
789.35245823215791
 11
1375.5453161291175
 21
744.35243348817562
  0
LINE
  8
_0-2_
  6
CONTINUOUS
 62
    7
 10
1465.5453656170821
 20
744.35243348817562
 11
1375.5453161291175
 21
744.35243348817562
  0
LINE
  8
_0-2_
  6
CONTINUOUS
 62
    7
 10
1465.5453656170821
 20
789.35245823215791
 11
1465.5453656170821
 21
744.35243348817562
  0
LINE
  8
_0-2_
  6
CONTINUOUS
 62
    7
 10
1435.5452666411529
 20
624.35247060414906
 11
1450.5453161291175
 21
624.35247060414906
  0
LINE
  8
_0-2_
  6
CONTINUOUS
 62
    7
 10
1435.5452666411529
 20
624.35247060414906
 11
1435.5452666411529
 21
609.35248297614021
  0
LINE
  8
_0-2_
  6
CONTINUOUS
 62
    7
 10
1450.5453161291175
 20
744.35243348817562
 11
1450.5453161291175
 21
624.35247060414906
  0
LINE
  8
_0-2_
  6
CONTINUOUS
 62
    7
 10
1457.1159568992823
 20
744.35243348817562
 11
1465.5453656170821
 21
752.78190406593126
  0
LINE
  8
_0-2_
  6
CONTINUOUS
 62
    7
 10
1447.2163844752956
 20
744.35243348817562
 11
1465.5453656170821
 21
762.68141462996198
  0
LINE
  8
_0-2_
  6
CONTINUOUS
 62
    7
 10
1437.3169357712206
 20
744.35243348817562
 11
1465.5453656170821
 21
772.5808633340373
  0
LINE
  8
_0-2_
  6
CONTINUOUS
 62
    7
 10
1427.4173633472342
 20
744.35243348817562
 11
1465.5453656170821
 21
782.48037389806791
  0
LINE
  8
_0-2_
  6
CONTINUOUS
 62
    7
 10
1417.5179146431587
 20
744.35243348817562
 11
1462.5179393871413
 21
789.35245823215791
  0
LINE
  8
_0-2_
  6
CONTINUOUS
 62
    7
 10
1407.6184659390835
 20
744.35243348817562
 11
1452.6183669631546
 21
789.35245823215791
  0
LINE
  8
_0-2_
  6
CONTINUOUS
 62
    7
 10
1397.7188935150971
 20
744.35243348817562
 11
1442.7189182590794
 21
789.35245823215791
  0
LINE
  8
_0-2_
  6
CONTINUOUS
 62
    7
 10
1387.8193210911106
 20
744.35243348817562
 11
1432.8194695550042
 21
789.35245823215791
  0
LINE
  8
_0-2_
  6
CONTINUOUS
 62
    7
 10
1377.9197486671242
 20
744.35243348817562
 11
1422.9198971310177
 21
789.35245823215791
  0
LINE
  8
_0-2_
  6
CONTINUOUS
 62
    7
 10
1375.5453161291175
 20
751.87738779428844
 11
1413.0203247070312
 21
789.35245823215791
  0
LINE
  8
_0-2_
  6
CONTINUOUS
 62
    7
 10
1375.5453161291175
 20
761.77689835831927
 11
1403.1208760029563
 21
789.35245823215791
  0
LINE
  8
_0-2_
  6
CONTINUOUS
 62
    7
 10
1375.5453161291175
 20
771.67640892235011
 11
1393.2213035789698
 21
789.35245823215791
  0
LINE
  8
_0-2_
  6
CONTINUOUS
 62
    7
 10
1375.5453161291175
 20
781.57598134633656
 11
1383.3217311549831
 21
789.35245823215791
  0
LINE
  8
_0-2_
  6
CONTINUOUS
 62
    7
 10
295.67561793971709
 20
609.35248297614021
 11
1435.5452666411529
 21
609.35248297614021
  0
LINE
  8
_0-2_
  6
DASHED1
 62
    7
 10
1435.5452666411529
 20
624.35247060414906
 11
295.67574165962839
 21
624.35247060414906
  0
LINE
  8
_0-2_
  6
CONTINUOUS
 62
    7
 10
1485.5453078811233
 20
512.15310998865084
 11
1465.5453656170821
 21
512.15310998865084
  0
LINE
  8
_0-2_
  6
CONTINUOUS
 62
    7
 10
1465.5453656170821
 20
512.15310998865084
 11
1450.5453161291175
 21
512.15310998865084
  0
LINE
  8
_0-2_
  6
CONTINUOUS
 62
    7
 10
1455.7654303473396
 20
849.35247060414906
 11
1455.7654303473396
 21
789.35245823215791
  0
LINE
  8
_0-2_
  6
CONTINUOUS
 62
    7
 10
1455.7654303473396
 20
789.35245823215791
 11
1395.7654798353042
 21
789.35245823215791
  0
LINE
  8
_0-2_
  6
CONTINUOUS
 62
    7
 10
1439.8309243691936
 20
824.26819672455667
 11
1462.4072100665121
 21
824.26819672455667
  0
LINE
  8
_0-5_
  6
CONTINUOUS
 62
    7
 10
1462.4072100665121
 20
824.26819672455667
 11
1513.9411307669977
 21
965.85641809411959
  0
LINE
  8
_0-2_
  6
CONTINUOUS
 62
    7
 10
1450.5453161291175
 20
611.85199634448907
 11
1450.5453161291175
 21
512.15310998865084
  0
LINE
  8
_0-2_
  6
CONTINUOUS
 62
    7
 10
1465.5453656170821
 20
611.85199634448907
 11
1465.5453656170821
 21
512.15310998865084
  0
LINE
  8
_0-2_
  6
CONTINUOUS
 62
    7
 10
1485.5453078811233
 20
611.85199634448907
 11
1485.5453078811233
 21
512.15310998865084
  0
LINE
  8
_0-2_
  6
CONTINUOUS
 62
    7
 10
295.67561793971709
 20
739.35247885214324
 11
1450.5453161291175
 21
739.35247885214324
  0
LINE
  8
_0-2_
  6
CONTINUOUS
 62
    7
 10
629.05543559306375
 20
739.35247885214324
 11
499.05537785710521
 21
609.35248297614021
  0
LINE
  8
_0-2_
  6
CONTINUOUS
 62
    7
 10
600.77108434728677
 20
739.35247885214324
 11
470.77105754130599
 21
609.35248297614021
  0
LINE
  8
_0-2_
  6
CONTINUOUS
 62
    7
 10
614.9132599701752
 20
739.35247885214324
 11
484.91320223421667
 21
609.35248297614021
  0
LINE
  8
_0-2_
  6
CONTINUOUS
 62
    7
 10
1118.7976734058277
 20
739.35247885214324
 11
988.7976775298248
 21
609.35248297614021
  0
LINE
  8
_0-2_
  6
CONTINUOUS
 62
    7
 10
1090.5133221600508
 20
739.35247885214324
 11
960.51338814400333
 21
609.35248297614021
  0
LINE
  8
_0-2_
  6
CONTINUOUS
 62
    7
 10
1104.6554977829392
 20
739.35247885214324
 11
974.65550190693637
 21
609.35248297614021
  0
LINE
  8
_0-2_
  6
CONTINUOUS
 62
    7
 10
1453.5426784206081
 20
760.95688278610646
 11
1497.0469294367608
 21
641.42990112304687
  0
LINE
  8
_0-2_
  6
CONTINUOUS
 62
    7
 10
1497.0469294367608
 20
641.42990112304687
 11
1521.0373337204394
 21
641.42990112304687
  0
ARC
  8
_0-1_
  6
CONTINUOUS
 62
    7
 10
364.88292797191718
 20
821.97473886850719
 40
57.894481194985879
 50
25.205398559570313
 51
167.5159912109375
  0
ARC
  8
_0-1_
  6
CONTINUOUS
 62
    7
 10
624.88291972392312
 20
821.97473886850719
 40
72.894480421736432
 50
13.791900634765625
 51
161.69851684570312
  0
ARC
  8
_0-1_
  6
CONTINUOUS
 62
    7
 10
488.76169565561662
 20
981.72887853674001
 40
167.37638421960781
 50
231.9831237792969
 51
298.39506530761719
  0
ARC
  8
_0-1_
  6
CONTINUOUS
 62
    7
 10
624.88291972392312
 20
821.97473886850719
 40
57.894481194985879
 50
25.205398559570313
 51
167.5159912109375
  0
ARC
  8
_0-1_
  6
CONTINUOUS
 62
    7
 10
488.01919060784422
 20
984.86480712890625
 40
155.49068966427365
 50
234.57966613769534
 51
295.79264831542969
  0
ARC
  8
_0-1_
  6
CONTINUOUS
 62
    7
 10
405.4803796716638
 20
865.42999679977834
 40
10.507658687797754
 50
201.07586669921878
 51
223.8392028808594
  0
ARC
  8
_0-1_
  6
CONTINUOUS
 62
    7
 10
884.88291147592906
 20
821.97473886850719
 40
72.894480421736432
 50
13.791900634765625
 51
161.69851684570312
  0
ARC
  8
_0-1_
  6
CONTINUOUS
 62
    7
 10
748.7616874076225
 20
981.72887853674001
 40
167.37638421960781
 50
231.9831237792969
 51
298.39506530761719
  0
ARC
  8
_0-1_
  6
CONTINUOUS
 62
    7
 10
884.88291147592906
 20
821.97473886850719
 40
57.894481194985879
 50
25.205398559570313
 51
167.5159912109375
  0
ARC
  8
_0-1_
  6
CONTINUOUS
 62
    7
 10
748.01924421980573
 20
984.86480712890625
 40
155.49068966427365
 50
234.57966613769534
 51
295.79264831542969
  0
ARC
  8
_0-1_
  6
CONTINUOUS
 62
    7
 10
665.48037142366979
 20
865.42999679977834
 40
10.507658687797754
 50
201.07586669921878
 51
223.8392028808594
  0
ARC
  8
_0-1_
  6
CONTINUOUS
 62
    7
 10
1408.0346597207561
 20
817.35478994008656
 40
77.524790892729897
 50
1.0969390869140625
 51
159.23590087890625
  0
ARC
  8
_0-1_
  6
CONTINUOUS
 62
    7
 10
1408.0346597207561
 20
817.35478994008656
 40
61.524790686530039
 50
1.0969390869140625
 51
153.46676635742187
  0
ARC
  8
_0-1_
  6
CONTINUOUS
 62
    7
 10
1144.882903227935
 20
821.97473886850719
 40
72.894480421736432
 50
13.791900634765625
 51
161.69851684570312
  0
ARC
  8
_0-1_
  6
CONTINUOUS
 62
    7
 10
1008.7616791596283
 20
981.72887853674001
 40
167.37638421960781
 50
231.9831237792969
 51
298.39506530761719
  0
ARC
  8
_0-1_
  6
CONTINUOUS
 62
    7
 10
1144.882903227935
 20
821.97473886850719
 40
57.894481194985879
 50
25.205398559570313
 51
167.5159912109375
  0
ARC
  8
_0-1_
  6
CONTINUOUS
 62
    7
 10
1008.0191122519004
 20
984.86480712890625
 40
155.49068966427365
 50
234.57966613769534
 51
295.79264831542969
  0
ARC
  8
_0-1_
  6
CONTINUOUS
 62
    7
 10
925.48036317567585
 20
865.42999679977834
 40
10.507658687797754
 50
201.07586669921878
 51
223.8392028808594
  0
ARC
  8
_0-3_
  6
CONTINUOUS
 62
    7
 10
1275.6756344357054
 20
1143.8524400865711
 40
312.4998865900813
 50
249.39030456542969
 51
290.60969543457031
  0
ARC
  8
_0-3_
  6
CONTINUOUS
 62
    7
 10
1275.6756344357054
 20
1100.3525192673142
 40
285.99997855521542
 50
247.38014221191406
 51
292.61985778808594
  0
ARC
  8
_0-1_
  6
CONTINUOUS
 62
    7
 10
364.88292797191718
 20
821.97473886850719
 40
72.894480421736432
 50
13.791900634765625
 51
161.69857788085937
  0
ARC
  8
_0-1_
  6
CONTINUOUS
 62
    7
 10
228.76170390361068
 20
981.72887853674001
 40
167.37638421960781
 50
293.56448364257812
 51
298.39506530761719
  0
ARC
  8
_0-1_
  6
CONTINUOUS
 62
    7
 10
228.01926071579402
 20
984.86480712890625
 40
155.49068966427365
 50
295.79257202148437
 51
295.79264831542969
  0
ARC
  8
_0-2_
  6
CONTINUOUS
 62
    7
 10
1487.9976839632602
 20
806.03324271537167
 40
4.517616130210258
 50
277.0521240234375
 51
82.9478759765625
  0
CIRCLE
  8
_0-2_
  6
CONTINUOUS
 62
    7
 10
349.46260194520704
 20
766.36492754961989
 40
2.5044312348236906
  0
CIRCLE
  8
_0-2_
  6
CONTINUOUS
 62
    7
 10
335.6881837587099
 20
758.85154105521542
 40
2.5044312348236906
  0
CIRCLE
  8
_0-2_
  6
CONTINUOUS
 62
    7
 10
336.94041484111068
 20
753.84274044552376
 40
2.5044312348236906
  0
CIRCLE
  8
_0-2_
  6
CONTINUOUS
 62
    7
 10
349.46260194520704
 20
763.86046538481855
 40
2.5044312348236906
  0
CIRCLE
  8
_0-2_
  6
CONTINUOUS
 62
    7
 10
364.48918935414906
 20
765.11263460726354
 40
2.5044312348236906
  0
CIRCLE
  8
_0-2_
  6
CONTINUOUS
 62
    7
 10
358.22809580210105
 20
750.08610905827709
 40
2.5044312348236906
  0
CIRCLE
  8
_0-2_
  6
CONTINUOUS
 62
    7
 10
390.78576371476458
 20
752.59050936312292
 40
2.5044312348236906
  0
CIRCLE
  8
_0-2_
  6
CONTINUOUS
 62
    7
 10
325.6704588194151
 20
763.86046538481855
 40
2.5044312348236906
  0
CIRCLE
  8
_0-2_
  6
CONTINUOUS
 62
    7
 10
301.87831569362334
 20
771.37372815931167
 40
2.5044312348236906
  0
CIRCLE
  8
_0-2_
  6
CONTINUOUS
 62
    7
 10
321.91382743216849
 20
775.13042140651396
 40
2.5044312348236906
  0
CIRCLE
  8
_0-2_
  6
CONTINUOUS
 62
    7
 10
353.21923333245365
 20
777.6348217113599
 40
2.5044312348236906
  0
CIRCLE
  8
_0-2_
  6
CONTINUOUS
 62
    7
 10
378.26360754064609
 20
775.13042140651396
 40
2.5044312348236906
  0
CIRCLE
  8
_0-2_
  6
CONTINUOUS
 62
    7
 10
444.63111258841849
 20
766.36492754961989
 40
2.5044312348236906
  0
CIRCLE
  8
_0-2_
  6
CONTINUOUS
 62
    7
 10
440.87448120117187
 20
757.59937183277032
 40
2.5044312348236906
  0
CIRCLE
  8
_0-2_
  6
CONTINUOUS
 62
    7
 10
410.82124452333198
 20
756.34714075036959
 40
2.5044312348236906
  0
CIRCLE
  8
_0-2_
  6
CONTINUOUS
 62
    7
 10
393.29019494958828
 20
767.61709677206511
 40
2.5044312348236906
  0
CIRCLE
  8
_0-2_
  6
CONTINUOUS
 62
    7
 10
380.76803877546979
 20
761.35600322001687
 40
2.5044312348236906
  0
CIRCLE
  8
_0-2_
  6
CONTINUOUS
 62
    7
 10
299.3739153887775
 20
755.09490966796875
 40
2.5044312348236906
  0
CIRCLE
  8
_0-2_
  6
CONTINUOUS
 62
    7
 10
390.78576371476458
 20
778.88705279376052
 40
2.5044312348236906
  0
CIRCLE
  8
_0-2_
  6
CONTINUOUS
 62
    7
 10
409.56904437090895
 20
781.39151495856208
 40
2.5044312348236906
  0
CIRCLE
  8
_0-2_
  6
CONTINUOUS
 62
    7
 10
423.34343162742823
 20
770.12155893686656
 40
2.5044312348236906
  0
CIRCLE
  8
_0-2_
  6
CONTINUOUS
 62
    7
 10
500.98089269689615
 20
766.36492754961989
 40
2.5044312348236906
  0
CIRCLE
  8
_0-2_
  6
CONTINUOUS
 62
    7
 10
487.20647451039906
 20
758.85154105521542
 40
2.5044312348236906
  0
CIRCLE
  8
_0-2_
  6
CONTINUOUS
 62
    7
 10
488.4587055927999
 20
753.84274044552376
 40
2.5044312348236906
  0
CIRCLE
  8
_0-2_
  6
CONTINUOUS
 62
    7
 10
500.98089269689615
 20
763.86046538481855
 40
2.5044312348236906
  0
CIRCLE
  8
_0-2_
  6
CONTINUOUS
 62
    7
 10
516.00748010583834
 20
765.11263460726354
 40
2.5044312348236906
  0
CIRCLE
  8
_0-2_
  6
CONTINUOUS
 62
    7
 10
509.74638655379016
 20
750.08610905827709
 40
2.5044312348236906
  0
CIRCLE
  8
_0-2_
  6
CONTINUOUS
 62
    7
 10
542.30408539643167
 20
752.59050936312292
 40
2.5044312348236906
  0
CIRCLE
  8
_0-2_
  6
CONTINUOUS
 62
    7
 10
477.18874957110438
 20
763.86046538481855
 40
2.5044312348236906
  0
CIRCLE
  8
_0-2_
  6
CONTINUOUS
 62
    7
 10
453.3966064453125
 20
771.37372815931167
 40
2.5044312348236906
  0
CIRCLE
  8
_0-2_
  6
CONTINUOUS
 62
    7
 10
473.43211818385771
 20
775.13042140651396
 40
2.5044312348236906
  0
CIRCLE
  8
_0-2_
  6
CONTINUOUS
 62
    7
 10
504.73752408414276
 20
777.6348217113599
 40
2.5044312348236906
  0
CIRCLE
  8
_0-2_
  6
CONTINUOUS
 62
    7
 10
529.78189829233531
 20
775.13042140651396
 40
2.5044312348236906
  0
CIRCLE
  8
_0-2_
  6
CONTINUOUS
 62
    7
 10
596.14940334010771
 20
766.36492754961989
 40
2.5044312348236906
  0
CIRCLE
  8
_0-2_
  6
CONTINUOUS
 62
    7
 10
592.39277195286104
 20
757.59937183277032
 40
2.5044312348236906
  0
CIRCLE
  8
_0-2_
  6
CONTINUOUS
 62
    7
 10
562.33953527502115
 20
756.34714075036959
 40
2.5044312348236906
  0
CIRCLE
  8
_0-2_
  6
CONTINUOUS
 62
    7
 10
544.8084857012775
 20
767.61709677206511
 40
2.5044312348236906
  0
CIRCLE
  8
_0-2_
  6
CONTINUOUS
 62
    7
 10
532.28636045713688
 20
761.35600322001687
 40
2.5044312348236906
  0
CIRCLE
  8
_0-2_
  6
CONTINUOUS
 62
    7
 10
450.89220614046667
 20
755.09490966796875
 40
2.5044312348236906
  0
CIRCLE
  8
_0-2_
  6
CONTINUOUS
 62
    7
 10
542.30408539643167
 20
778.88705279376052
 40
2.5044312348236906
  0
CIRCLE
  8
_0-2_
  6
CONTINUOUS
 62
    7
 10
561.08736605257604
 20
781.39151495856208
 40
2.5044312348236906
  0
CIRCLE
  8
_0-2_
  6
CONTINUOUS
 62
    7
 10
574.86172237911751
 20
770.12155893686656
 40
2.5044312348236906
  0
CIRCLE
  8
_0-2_
  6
CONTINUOUS
 62
    7
 10
644.98592067409209
 20
772.62602110166813
 40
2.5044312348236906
  0
CIRCLE
  8
_0-2_
  6
CONTINUOUS
 62
    7
 10
631.211502487595
 20
765.11263460726354
 40
2.5044312348236906
  0
CIRCLE
  8
_0-2_
  6
CONTINUOUS
 62
    7
 10
632.46373356999584
 20
760.10383399757188
 40
2.5044312348236906
  0
CIRCLE
  8
_0-2_
  6
CONTINUOUS
 62
    7
 10
644.98592067409209
 20
770.12155893686656
 40
2.5044312348236906
  0
CIRCLE
  8
_0-2_
  6
CONTINUOUS
 62
    7
 10
660.01250808303428
 20
771.37372815931167
 40
2.5044312348236906
  0
CIRCLE
  8
_0-2_
  6
CONTINUOUS
 62
    7
 10
653.75141453098604
 20
756.34720261032521
 40
2.5044312348236906
  0
CIRCLE
  8
_0-2_
  6
CONTINUOUS
 62
    7
 10
686.30911337362761
 20
758.85160291517104
 40
2.5044312348236906
  0
CIRCLE
  8
_0-2_
  6
CONTINUOUS
 62
    7
 10
621.1937775483002
 20
770.12155893686656
 40
2.5044312348236906
  0
CIRCLE
  8
_0-2_
  6
CONTINUOUS
 62
    7
 10
597.40163442250844
 20
777.6348217113599
 40
2.5044312348236906
  0
CIRCLE
  8
_0-2_
  6
CONTINUOUS
 62
    7
 10
617.43714616105365
 20
781.39151495856208
 40
2.5044312348236906
  0
CIRCLE
  8
_0-2_
  6
CONTINUOUS
 62
    7
 10
648.74255206133864
 20
783.89591526340791
 40
2.5044312348236906
  0
CIRCLE
  8
_0-2_
  6
CONTINUOUS
 62
    7
 10
673.78692626953125
 20
781.39151495856208
 40
2.5044312348236906
  0
CIRCLE
  8
_0-2_
  6
CONTINUOUS
 62
    7
 10
740.15443131730365
 20
772.62602110166813
 40
2.5044312348236906
  0
CIRCLE
  8
_0-2_
  6
CONTINUOUS
 62
    7
 10
736.39779993005709
 20
763.86046538481855
 40
2.5044312348236906
  0
CIRCLE
  8
_0-2_
  6
CONTINUOUS
 62
    7
 10
706.34456325221709
 20
762.60823430241771
 40
2.5044312348236906
  0
CIRCLE
  8
_0-2_
  6
CONTINUOUS
 62
    7
 10
688.81351367847344
 20
773.87819032411312
 40
2.5044312348236906
  0
CIRCLE
  8
_0-2_
  6
CONTINUOUS
 62
    7
 10
676.29138843433282
 20
767.61709677206511
 40
2.5044312348236906
  0
CIRCLE
  8
_0-2_
  6
CONTINUOUS
 62
    7
 10
594.89723411766261
 20
761.35600322001687
 40
2.5044312348236906
  0
CIRCLE
  8
_0-2_
  6
CONTINUOUS
 62
    7
 10
686.30911337362761
 20
785.14814634580875
 40
2.5044312348236906
  0
CIRCLE
  8
_0-2_
  6
CONTINUOUS
 62
    7
 10
705.09239402977198
 20
787.65260851061032
 40
2.5044312348236906
  0
CIRCLE
  8
_0-2_
  6
CONTINUOUS
 62
    7
 10
718.86675035631345
 20
776.38265248891469
 40
2.5044312348236906
  0
CIRCLE
  8
_0-2_
  6
CONTINUOUS
 62
    7
 10
697.57906939532302
 20
760.1038958575275
 40
2.5044312348236906
  0
CIRCLE
  8
_0-2_
  6
CONTINUOUS
 62
    7
 10
683.80465120882604
 20
752.59050936312292
 40
2.5044312348236906
  0
CIRCLE
  8
_0-2_
  6
CONTINUOUS
 62
    7
 10
685.05688229122688
 20
747.58170875343126
 40
2.5044312348236906
  0
CIRCLE
  8
_0-2_
  6
CONTINUOUS
 62
    7
 10
697.57906939532302
 20
757.59943369272594
 40
2.5044312348236906
  0
CIRCLE
  8
_0-2_
  6
CONTINUOUS
 62
    7
 10
712.60565680426521
 20
758.85160291517104
 40
2.5044312348236906
  0
CIRCLE
  8
_0-2_
  6
CONTINUOUS
 62
    7
 10
706.34456325221709
 20
743.82507736618459
 40
2.5044312348236906
  0
CIRCLE
  8
_0-2_
  6
CONTINUOUS
 62
    7
 10
738.90220023490292
 20
746.32947767103042
 40
2.5044312348236906
  0
CIRCLE
  8
_0-2_
  6
CONTINUOUS
 62
    7
 10
673.78692626953125
 20
757.59943369272594
 40
2.5044312348236906
  0
CIRCLE
  8
_0-2_
  6
CONTINUOUS
 62
    7
 10
649.99478314373948
 20
765.11269646721928
 40
2.5044312348236906
  0
CIRCLE
  8
_0-2_
  6
CONTINUOUS
 62
    7
 10
670.03029488228458
 20
768.86938971442146
 40
2.5044312348236906
  0
CIRCLE
  8
_0-2_
  6
CONTINUOUS
 62
    7
 10
701.33570078256969
 20
771.37379001926729
 40
2.5044312348236906
  0
CIRCLE
  8
_0-2_
  6
CONTINUOUS
 62
    7
 10
726.3800749907623
 20
768.86938971442146
 40
2.5044312348236906
  0
CIRCLE
  8
_0-2_
  6
CONTINUOUS
 62
    7
 10
792.74758003853458
 20
760.1038958575275
 40
2.5044312348236906
  0
CIRCLE
  8
_0-2_
  6
CONTINUOUS
 62
    7
 10
788.99094865128802
 20
751.33834014067793
 40
2.5044312348236906
  0
CIRCLE
  8
_0-2_
  6
CONTINUOUS
 62
    7
 10
758.93771197344802
 20
750.08610905827709
 40
2.5044312348236906
  0
CIRCLE
  8
_0-2_
  6
CONTINUOUS
 62
    7
 10
741.40666239970437
 20
761.3560650799725
 40
2.5044312348236906
  0
CIRCLE
  8
_0-2_
  6
CONTINUOUS
 62
    7
 10
728.88447529560824
 20
755.09497152792449
 40
2.5044312348236906
  0
CIRCLE
  8
_0-2_
  6
CONTINUOUS
 62
    7
 10
647.49038283889365
 20
748.83387797587625
 40
2.5044312348236906
  0
CIRCLE
  8
_0-2_
  6
CONTINUOUS
 62
    7
 10
738.90220023490292
 20
772.62602110166813
 40
2.5044312348236906
  0
CIRCLE
  8
_0-2_
  6
CONTINUOUS
 62
    7
 10
757.6854808910474
 20
775.1304832664697
 40
2.5044312348236906
  0
CIRCLE
  8
_0-2_
  6
CONTINUOUS
 62
    7
 10
771.45989907754438
 20
763.86052724477406
 40
2.5044312348236906
  0
CIRCLE
  8
_0-2_
  6
CONTINUOUS
 62
    7
 10
887.91609068174625
 20
766.36492754961989
 40
2.5044312348236906
  0
CIRCLE
  8
_0-2_
  6
CONTINUOUS
 62
    7
 10
874.14167249524917
 20
758.85154105521542
 40
2.5044312348236906
  0
CIRCLE
  8
_0-2_
  6
CONTINUOUS
 62
    7
 10
875.39390357765001
 20
753.84274044552376
 40
2.5044312348236906
  0
CIRCLE
  8
_0-2_
  6
CONTINUOUS
 62
    7
 10
887.91609068174625
 20
763.86046538481855
 40
2.5044312348236906
  0
CIRCLE
  8
_0-2_
  6
CONTINUOUS
 62
    7
 10
902.94267809068845
 20
765.11263460726354
 40
2.5044312348236906
  0
CIRCLE
  8
_0-2_
  6
CONTINUOUS
 62
    7
 10
896.68158453864021
 20
750.08610905827709
 40
2.5044312348236906
  0
CIRCLE
  8
_0-2_
  6
CONTINUOUS
 62
    7
 10
929.23922152132604
 20
752.59050936312292
 40
2.5044312348236906
  0
CIRCLE
  8
_0-2_
  6
CONTINUOUS
 62
    7
 10
864.12394755595437
 20
763.86046538481855
 40
2.5044312348236906
  0
CIRCLE
  8
_0-2_
  6
CONTINUOUS
 62
    7
 10
840.33180443016261
 20
771.37372815931167
 40
2.5044312348236906
  0
CIRCLE
  8
_0-2_
  6
CONTINUOUS
 62
    7
 10
860.36731616870782
 20
775.13042140651396
 40
2.5044312348236906
  0
CIRCLE
  8
_0-2_
  6
CONTINUOUS
 62
    7
 10
891.67272206899281
 20
777.6348217113599
 40
2.5044312348236906
  0
CIRCLE
  8
_0-2_
  6
CONTINUOUS
 62
    7
 10
916.71709627718542
 20
775.13042140651396
 40
2.5044312348236906
  0
CIRCLE
  8
_0-2_
  6
CONTINUOUS
 62
    7
 10
983.08460132495782
 20
766.36492754961989
 40
2.5044312348236906
  0
CIRCLE
  8
_0-2_
  6
CONTINUOUS
 62
    7
 10
979.32796993771126
 20
757.59937183277032
 40
2.5044312348236906
  0
CIRCLE
  8
_0-2_
  6
CONTINUOUS
 62
    7
 10
949.27473325987125
 20
756.34714075036959
 40
2.5044312348236906
  0
CIRCLE
  8
_0-2_
  6
CONTINUOUS
 62
    7
 10
931.74368368612761
 20
767.61709677206511
 40
2.5044312348236906
  0
CIRCLE
  8
_0-2_
  6
CONTINUOUS
 62
    7
 10
919.22149658203125
 20
761.35600322001687
 40
2.5044312348236906
  0
CIRCLE
  8
_0-2_
  6
CONTINUOUS
 62
    7
 10
837.82740412531678
 20
755.09490966796875
 40
2.5044312348236906
  0
CIRCLE
  8
_0-2_
  6
CONTINUOUS
 62
    7
 10
929.23922152132604
 20
778.88705279376052
 40
2.5044312348236906
  0
CIRCLE
  8
_0-2_
  6
CONTINUOUS
 62
    7
 10
948.02250217747041
 20
781.39151495856208
 40
2.5044312348236906
  0
CIRCLE
  8
_0-2_
  6
CONTINUOUS
 62
    7
 10
961.79692036396762
 20
770.12155893686656
 40
2.5044312348236906
  0
CIRCLE
  8
_0-2_
  6
CONTINUOUS
 62
    7
 10
852.85399153425885
 20
780.13934573611709
 40
2.5044312348236906
  0
CIRCLE
  8
_0-2_
  6
CONTINUOUS
 62
    7
 10
839.07957334776188
 20
772.62595924171251
 40
2.5044312348236906
  0
CIRCLE
  8
_0-2_
  6
CONTINUOUS
 62
    7
 10
840.33180443016261
 20
767.61715863202073
 40
2.5044312348236906
  0
CIRCLE
  8
_0-2_
  6
CONTINUOUS
 62
    7
 10
852.85399153425885
 20
777.63488357131553
 40
2.5044312348236906
  0
CIRCLE
  8
_0-2_
  6
CONTINUOUS
 62
    7
 10
867.88057894320104
 20
778.88705279376052
 40
2.5044312348236906
  0
CIRCLE
  8
_0-2_
  6
CONTINUOUS
 62
    7
 10
861.61948539115292
 20
763.86052724477406
 40
2.5044312348236906
  0
CIRCLE
  8
_0-2_
  6
CONTINUOUS
 62
    7
 10
894.17712237383864
 20
766.36492754961989
 40
2.5044312348236906
  0
CIRCLE
  8
_0-2_
  6
CONTINUOUS
 62
    7
 10
829.06184840846709
 20
777.63488357131553
 40
2.5044312348236906
  0
CIRCLE
  8
_0-2_
  6
CONTINUOUS
 62
    7
 10
805.2697052826752
 20
785.14814634580875
 40
2.5044312348236906
  0
CIRCLE
  8
_0-2_
  6
CONTINUOUS
 62
    7
 10
948.02250217747041
 20
780.13934573611709
 40
2.5044312348236906
  0
CIRCLE
  8
_0-2_
  6
CONTINUOUS
 62
    7
 10
944.26587079022386
 20
771.37379001926729
 40
2.5044312348236906
  0
CIRCLE
  8
_0-2_
  6
CONTINUOUS
 62
    7
 10
914.21263411238385
 20
770.12155893686656
 40
2.5044312348236906
  0
CIRCLE
  8
_0-2_
  6
CONTINUOUS
 62
    7
 10
896.68158453864021
 20
781.39151495856208
 40
2.5044312348236906
  0
CIRCLE
  8
_0-2_
  6
CONTINUOUS
 62
    7
 10
884.15939743454396
 20
775.13042140651396
 40
2.5044312348236906
  0
CIRCLE
  8
_0-2_
  6
CONTINUOUS
 62
    7
 10
802.76530497782937
 20
768.86932785446584
 40
2.5044312348236906
  0
CIRCLE
  8
_0-2_
  6
CONTINUOUS
 62
    7
 10
926.73482121648021
 20
783.89597712336365
 40
2.5044312348236906
  0
CIRCLE
  8
_0-2_
  6
CONTINUOUS
 62
    7
 10
1073.2442494985221
 20
763.86052724477406
 40
2.5044312348236906
  0
CIRCLE
  8
_0-2_
  6
CONTINUOUS
 62
    7
 10
1059.4698931719806
 20
756.34714075036959
 40
2.5044312348236906
  0
CIRCLE
  8
_0-2_
  6
CONTINUOUS
 62
    7
 10
1060.7220623944258
 20
751.33834014067793
 40
2.5044312348236906
  0
CIRCLE
  8
_0-2_
  6
CONTINUOUS
 62
    7
 10
1073.2442494985221
 20
761.3560650799725
 40
2.5044312348236906
  0
CIRCLE
  8
_0-2_
  6
CONTINUOUS
 62
    7
 10
1088.2708987674198
 20
762.60823430241771
 40
2.5044312348236906
  0
CIRCLE
  8
_0-2_
  6
CONTINUOUS
 62
    7
 10
1082.0098052153717
 20
747.58170875343126
 40
2.5044312348236906
  0
CIRCLE
  8
_0-2_
  6
CONTINUOUS
 62
    7
 10
1114.5674421980575
 20
750.08610905827709
 40
2.5044312348236906
  0
CIRCLE
  8
_0-2_
  6
CONTINUOUS
 62
    7
 10
1049.4521682326858
 20
761.3560650799725
 40
2.5044312348236906
  0
CIRCLE
  8
_0-2_
  6
CONTINUOUS
 62
    7
 10
1025.660025106894
 20
768.86932785446584
 40
2.5044312348236906
  0
CIRCLE
  8
_0-2_
  6
CONTINUOUS
 62
    7
 10
1045.6955368454392
 20
772.62602110166813
 40
2.5044312348236906
  0
CIRCLE
  8
_0-2_
  6
CONTINUOUS
 62
    7
 10
1077.0008808857685
 20
775.13042140651396
 40
2.5044312348236906
  0
CIRCLE
  8
_0-2_
  6
CONTINUOUS
 62
    7
 10
1102.0452550939613
 20
772.62602110166813
 40
2.5044312348236906
  0
CIRCLE
  8
_0-2_
  6
CONTINUOUS
 62
    7
 10
1168.4128220016892
 20
763.86052724477406
 40
2.5044312348236906
  0
CIRCLE
  8
_0-2_
  6
CONTINUOUS
 62
    7
 10
1164.6561906144425
 20
755.09497152792449
 40
2.5044312348236906
  0
CIRCLE
  8
_0-2_
  6
CONTINUOUS
 62
    7
 10
1134.6028920766471
 20
753.84274044552376
 40
2.5044312348236906
  0
CIRCLE
  8
_0-2_
  6
CONTINUOUS
 62
    7
 10
1117.071904362859
 20
765.11269646721928
 40
2.5044312348236906
  0
CIRCLE
  8
_0-2_
  6
CONTINUOUS
 62
    7
 10
1104.5497172587627
 20
758.85160291517104
 40
2.5044312348236906
  0
CIRCLE
  8
_0-2_
  6
CONTINUOUS
 62
    7
 10
1023.1556248020481
 20
752.59050936312292
 40
2.5044312348236906
  0
CIRCLE
  8
_0-2_
  6
CONTINUOUS
 62
    7
 10
1114.5674421980575
 20
776.38265248891469
 40
2.5044312348236906
  0
CIRCLE
  8
_0-2_
  6
CONTINUOUS
 62
    7
 10
1133.3507228542019
 20
778.88711465371625
 40
2.5044312348236906
  0
CIRCLE
  8
_0-2_
  6
CONTINUOUS
 62
    7
 10
1147.1250791807433
 20
767.61715863202073
 40
2.5044312348236906
  0
CIRCLE
  8
_0-2_
  6
CONTINUOUS
 62
    7
 10
1248.5546215160475
 20
766.36492754961989
 40
2.5044312348236906
  0
CIRCLE
  8
_0-2_
  6
CONTINUOUS
 62
    7
 10
1234.7802651895061
 20
758.85154105521542
 40
2.5044312348236906
  0
CIRCLE
  8
_0-2_
  6
CONTINUOUS
 62
    7
 10
1236.032434411951
 20
753.84274044552376
 40
2.5044312348236906
  0
CIRCLE
  8
_0-2_
  6
CONTINUOUS
 62
    7
 10
1248.5546215160475
 20
763.86046538481855
 40
2.5044312348236906
  0
CIRCLE
  8
_0-2_
  6
CONTINUOUS
 62
    7
 10
1263.5812707849452
 20
765.11263460726354
 40
2.5044312348236906
  0
CIRCLE
  8
_0-2_
  6
CONTINUOUS
 62
    7
 10
1257.3201772328971
 20
750.08610905827709
 40
2.5044312348236906
  0
CIRCLE
  8
_0-2_
  6
CONTINUOUS
 62
    7
 10
1289.8778142155829
 20
752.59050936312292
 40
2.5044312348236906
  0
CIRCLE
  8
_0-2_
  6
CONTINUOUS
 62
    7
 10
1224.7625402502113
 20
763.86046538481855
 40
2.5044312348236906
  0
CIRCLE
  8
_0-2_
  6
CONTINUOUS
 62
    7
 10
1200.970458984375
 20
771.37372815931167
 40
2.5044312348236906
  0
CIRCLE
  8
_0-2_
  6
CONTINUOUS
 62
    7
 10
1221.0059088629646
 20
775.13042140651396
 40
2.5044312348236906
  0
CIRCLE
  8
_0-2_
  6
CONTINUOUS
 62
    7
 10
1252.311252903294
 20
777.6348217113599
 40
2.5044312348236906
  0
CIRCLE
  8
_0-2_
  6
CONTINUOUS
 62
    7
 10
1277.3556271114867
 20
775.13042140651396
 40
2.5044312348236906
  0
CIRCLE
  8
_0-2_
  6
CONTINUOUS
 62
    7
 10
1343.7231940192146
 20
766.36492754961989
 40
2.5044312348236906
  0
CIRCLE
  8
_0-2_
  6
CONTINUOUS
 62
    7
 10
1339.9665626319679
 20
757.59937183277032
 40
2.5044312348236906
  0
CIRCLE
  8
_0-2_
  6
CONTINUOUS
 62
    7
 10
1309.9132640941725
 20
756.34714075036959
 40
2.5044312348236906
  0
CIRCLE
  8
_0-2_
  6
CONTINUOUS
 62
    7
 10
1292.3822763803844
 20
767.61709677206511
 40
2.5044312348236906
  0
CIRCLE
  8
_0-2_
  6
CONTINUOUS
 62
    7
 10
1279.8600892762879
 20
761.35600322001687
 40
2.5044312348236906
  0
CIRCLE
  8
_0-2_
  6
CONTINUOUS
 62
    7
 10
1198.4659968195735
 20
755.09490966796875
 40
2.5044312348236906
  0
CIRCLE
  8
_0-2_
  6
CONTINUOUS
 62
    7
 10
1289.8778142155829
 20
778.88705279376052
 40
2.5044312348236906
  0
CIRCLE
  8
_0-2_
  6
CONTINUOUS
 62
    7
 10
1308.6610948717273
 20
781.39151495856208
 40
2.5044312348236906
  0
CIRCLE
  8
_0-2_
  6
CONTINUOUS
 62
    7
 10
1322.4354511982688
 20
770.12155893686656
 40
2.5044312348236906
  0
CIRCLE
  8
_0-2_
  6
CONTINUOUS
 62
    7
 10
1333.7054690799198
 20
766.36498940957563
 40
2.5044312348236906
  0
CIRCLE
  8
_0-2_
  6
CONTINUOUS
 62
    7
 10
1319.9311127533783
 20
758.85160291517104
 40
2.5044312348236906
  0
CIRCLE
  8
_0-2_
  6
CONTINUOUS
 62
    7
 10
1321.1832819758233
 20
753.84280230547927
 40
2.5044312348236906
  0
CIRCLE
  8
_0-2_
  6
CONTINUOUS
 62
    7
 10
1333.7054690799198
 20
763.86052724477406
 40
2.5044312348236906
  0
CIRCLE
  8
_0-2_
  6
CONTINUOUS
 62
    7
 10
1348.7321183488177
 20
765.11269646721928
 40
2.5044312348236906
  0
CIRCLE
  8
_0-2_
  6
CONTINUOUS
 62
    7
 10
1342.4710247967696
 20
750.08617091823271
 40
2.5044312348236906
  0
CIRCLE
  8
_0-2_
  6
CONTINUOUS
 62
    7
 10
1309.9133878140835
 20
763.86052724477406
 40
2.5044312348236906
  0
CIRCLE
  8
_0-2_
  6
CONTINUOUS
 62
    7
 10
1306.1567564268371
 20
775.1304832664697
 40
2.5044312348236906
  0
CIRCLE
  8
_0-2_
  6
CONTINUOUS
 62
    7
 10
1337.4621004671665
 20
777.63488357131553
 40
2.5044312348236906
  0
CIRCLE
  8
_0-2_
  6
CONTINUOUS
 62
    7
 10
1362.5064746753592
 20
775.1304832664697
 40
2.5044312348236906
  0
CIRCLE
  8
_0-2_
  6
CONTINUOUS
 62
    7
 10
1365.0109368401604
 20
761.3560650799725
 40
2.5044312348236906
  0
CIRCLE
  8
_0-2_
  6
CONTINUOUS
 62
    7
 10
1001.8678819811022
 20
778.88717651367187
 40
2.5044312348236906
  0
CIRCLE
  8
_0-2_
  6
CONTINUOUS
 62
    7
 10
988.09352565456084
 20
771.37379001926729
 40
2.5044312348236906
  0
CIRCLE
  8
_0-2_
  6
CONTINUOUS
 62
    7
 10
989.34569487700605
 20
766.36498940957563
 40
2.5044312348236906
  0
CIRCLE
  8
_0-2_
  6
CONTINUOUS
 62
    7
 10
1001.8678819811022
 20
776.38271434887042
 40
2.5044312348236906
  0
CIRCLE
  8
_0-2_
  6
CONTINUOUS
 62
    7
 10
1016.89453125
 20
777.63488357131553
 40
2.5044312348236906
  0
CIRCLE
  8
_0-2_
  6
CONTINUOUS
 62
    7
 10
1010.633437697952
 20
762.60835802232907
 40
2.5044312348236906
  0
CIRCLE
  8
_0-2_
  6
CONTINUOUS
 62
    7
 10
978.07580071526615
 20
776.38271434887042
 40
2.5044312348236906
  0
CIRCLE
  8
_0-2_
  6
CONTINUOUS
 62
    7
 10
974.3191693280196
 20
787.65267037056583
 40
2.5044312348236906
  0
CIRCLE
  8
_0-2_
  6
CONTINUOUS
 62
    7
 10
1030.6688875765415
 20
787.65267037056583
 40
2.5044312348236906
  0
CIRCLE
  8
_0-2_
  6
CONTINUOUS
 62
    7
 10
1033.1733497413429
 20
773.87825218406886
 40
2.5044312348236906
  0
CIRCLE
  8
_0-2_
  6
CONTINUOUS
 62
    7
 10
814.03519913956927
 20
758.85166477512666
 40
2.5044312348236906
  0
CIRCLE
  8
_0-2_
  6
CONTINUOUS
 62
    7
 10
800.26084281302792
 20
751.33827828072208
 40
2.5044312348236906
  0
CIRCLE
  8
_0-2_
  6
CONTINUOUS
 62
    7
 10
801.51301203547303
 20
746.32947767103042
 40
2.5044312348236906
  0
CIRCLE
  8
_0-2_
  6
CONTINUOUS
 62
    7
 10
814.03519913956927
 20
756.34720261032521
 40
2.5044312348236906
  0
CIRCLE
  8
_0-2_
  6
CONTINUOUS
 62
    7
 10
829.06184840846709
 20
757.59937183277032
 40
2.5044312348236906
  0
CIRCLE
  8
_0-2_
  6
CONTINUOUS
 62
    7
 10
822.80075485641896
 20
742.57284628378386
 40
2.5044312348236906
  0
CIRCLE
  8
_0-2_
  6
CONTINUOUS
 62
    7
 10
790.24311787373324
 20
756.34720261032521
 40
2.5044312348236906
  0
CIRCLE
  8
_0-2_
  6
CONTINUOUS
 62
    7
 10
786.48648648648657
 20
767.61715863202073
 40
2.5044312348236906
  0
CIRCLE
  8
_0-2_
  6
CONTINUOUS
 62
    7
 10
817.79183052681583
 20
770.12155893686656
 40
2.5044312348236906
  0
CIRCLE
  8
_0-2_
  6
CONTINUOUS
 62
    7
 10
842.83620473500844
 20
767.61715863202073
 40
2.5044312348236906
  0
CIRCLE
  8
_0-2_
  6
CONTINUOUS
 62
    7
 10
845.34066689981
 20
753.84274044552376
 40
2.5044312348236906
  0
CIRCLE
  8
_0-2_
  6
CONTINUOUS
 62
    7
 10
628.70704032279355
 20
760.1038958575275
 40
2.5044312348236906
  0
CIRCLE
  8
_0-2_
  6
CONTINUOUS
 62
    7
 10
614.93268399625219
 20
752.59050936312292
 40
2.5044312348236906
  0
CIRCLE
  8
_0-2_
  6
CONTINUOUS
 62
    7
 10
616.1848532186973
 20
747.58170875343126
 40
2.5044312348236906
  0
CIRCLE
  8
_0-2_
  6
CONTINUOUS
 62
    7
 10
628.70704032279355
 20
757.59943369272594
 40
2.5044312348236906
  0
CIRCLE
  8
_0-2_
  6
CONTINUOUS
 62
    7
 10
643.73368959169125
 20
758.85160291517104
 40
2.5044312348236906
  0
CIRCLE
  8
_0-2_
  6
CONTINUOUS
 62
    7
 10
637.47259603964312
 20
743.82507736618459
 40
2.5044312348236906
  0
CIRCLE
  8
_0-2_
  6
CONTINUOUS
 62
    7
 10
604.9149590569574
 20
757.59943369272594
 40
2.5044312348236906
  0
CIRCLE
  8
_0-2_
  6
CONTINUOUS
 62
    7
 10
601.15832766971073
 20
768.86938971442146
 40
2.5044312348236906
  0
CIRCLE
  8
_0-2_
  6
CONTINUOUS
 62
    7
 10
632.46367171004022
 20
771.37379001926729
 40
2.5044312348236906
  0
CIRCLE
  8
_0-2_
  6
CONTINUOUS
 62
    7
 10
657.50804591823271
 20
768.86938971442146
 40
2.5044312348236906
  0
CIRCLE
  8
_0-2_
  6
CONTINUOUS
 62
    7
 10
660.01250808303428
 20
755.09497152792449
 40
2.5044312348236906
  0
CIRCLE
  8
_0-2_
  6
CONTINUOUS
 62
    7
 10
448.38768211570948
 20
760.1038958575275
 40
2.5044312348236906
  0
CIRCLE
  8
_0-2_
  6
CONTINUOUS
 62
    7
 10
434.61332578916813
 20
752.59050936312292
 40
2.5044312348236906
  0
CIRCLE
  8
_0-2_
  6
CONTINUOUS
 62
    7
 10
435.86549501161323
 20
747.58170875343126
 40
2.5044312348236906
  0
CIRCLE
  8
_0-2_
  6
CONTINUOUS
 62
    7
 10
448.38768211570948
 20
757.59943369272594
 40
2.5044312348236906
  0
CIRCLE
  8
_0-2_
  6
CONTINUOUS
 62
    7
 10
463.41433138460729
 20
758.85160291517104
 40
2.5044312348236906
  0
CIRCLE
  8
_0-2_
  6
CONTINUOUS
 62
    7
 10
457.15323783255911
 20
743.82507736618459
 40
2.5044312348236906
  0
CIRCLE
  8
_0-2_
  6
CONTINUOUS
 62
    7
 10
424.59560084987334
 20
757.59943369272594
 40
2.5044312348236906
  0
CIRCLE
  8
_0-2_
  6
CONTINUOUS
 62
    7
 10
420.83896946262666
 20
768.86938971442146
 40
2.5044312348236906
  0
CIRCLE
  8
_0-2_
  6
CONTINUOUS
 62
    7
 10
452.14431350295615
 20
771.37379001926729
 40
2.5044312348236906
  0
CIRCLE
  8
_0-2_
  6
CONTINUOUS
 62
    7
 10
477.1886877111487
 20
768.86938971442146
 40
2.5044312348236906
  0
CIRCLE
  8
_0-2_
  6
CONTINUOUS
 62
    7
 10
479.69314987595021
 20
755.09497152792449
 40
2.5044312348236906
  0
CIRCLE
  8
_0-2_
  6
CONTINUOUS
 62
    7
 10
448.38768211570948
 20
778.88717651367187
 40
2.5044312348236906
  0
CIRCLE
  8
_0-2_
  6
CONTINUOUS
 62
    7
 10
434.61332578916813
 20
771.37379001926729
 40
2.5044312348236906
  0
CIRCLE
  8
_0-2_
  6
CONTINUOUS
 62
    7
 10
435.86549501161323
 20
766.36498940957563
 40
2.5044312348236906
  0
CIRCLE
  8
_0-2_
  6
CONTINUOUS
 62
    7
 10
448.38768211570948
 20
776.38271434887042
 40
2.5044312348236906
  0
CIRCLE
  8
_0-2_
  6
CONTINUOUS
 62
    7
 10
463.41433138460729
 20
777.63488357131553
 40
2.5044312348236906
  0
CIRCLE
  8
_0-2_
  6
CONTINUOUS
 62
    7
 10
457.15323783255911
 20
762.60835802232907
 40
2.5044312348236906
  0
CIRCLE
  8
_0-2_
  6
CONTINUOUS
 62
    7
 10
424.59560084987334
 20
776.38271434887042
 40
2.5044312348236906
  0
CIRCLE
  8
_0-2_
  6
CONTINUOUS
 62
    7
 10
479.69314987595021
 20
773.87825218406886
 40
2.5044312348236906
  0
CIRCLE
  8
_0-2_
  6
CONTINUOUS
 62
    7
 10
330.67925942910676
 20
765.1127583271749
 40
2.5044312348236906
  0
CIRCLE
  8
_0-2_
  6
CONTINUOUS
 62
    7
 10
316.90490310256553
 20
757.59937183277032
 40
2.5044312348236906
  0
CIRCLE
  8
_0-2_
  6
CONTINUOUS
 62
    7
 10
318.15707232501052
 20
752.59057122307865
 40
2.5044312348236906
  0
CIRCLE
  8
_0-2_
  6
CONTINUOUS
 62
    7
 10
330.67925942910676
 20
762.60829616237334
 40
2.5044312348236906
  0
CIRCLE
  8
_0-2_
  6
CONTINUOUS
 62
    7
 10
345.70590869800469
 20
763.86046538481855
 40
2.5044312348236906
  0
CIRCLE
  8
_0-2_
  6
CONTINUOUS
 62
    7
 10
339.44481514595651
 20
748.83393983583187
 40
2.5044312348236906
  0
CIRCLE
  8
_0-2_
  6
CONTINUOUS
 62
    7
 10
306.88717816327073
 20
762.60829616237334
 40
2.5044312348236906
  0
CIRCLE
  8
_0-2_
  6
CONTINUOUS
 62
    7
 10
303.13054677602406
 20
773.87825218406886
 40
2.5044312348236906
  0
CIRCLE
  8
_0-2_
  6
CONTINUOUS
 62
    7
 10
334.43589081635338
 20
776.38265248891469
 40
2.5044312348236906
  0
CIRCLE
  8
_0-2_
  6
CONTINUOUS
 62
    7
 10
359.4802650245461
 20
773.87825218406886
 40
2.5044312348236906
  0
CIRCLE
  8
_0-2_
  6
CONTINUOUS
 62
    7
 10
361.98472718934767
 20
760.10383399757188
 40
2.5044312348236906
  0
TEXT
  8
_1-0_
 62
    7
 10
717.5675778775601
 20
145.94594594594597
 40
12.5
 41
1
 50
0
  1
図名
  0
TEXT
  8
_1-0_
 62
    7
 10
717.5675778775601
 20
97.297297297297263
 40
12.5
 41
1
 50
0
  1
縮尺
  0
TEXT
  8
_1-0_
 62
    7
 10
1893.6189599939298
 20
138.65179113439609
 40
12.5
 41
1
 50
0
  1
ＮＯ
  0
TEXT
  8
_1-0_
 62
    7
 10
81.081079792332105
 20
145.94594594594597
 40
12.5
 41
1
 50
0
  1
Ｓ型
  0
TEXT
  8
_1-0_
 62
    7
 10
206.71764322229336
 20
101.30050246779987
 40
12.5
 41
1
 50
0
  1
袖
  0
TEXT
  8
_1-0_
 62
    7
 10
1927.7262301058386
 20
115.24704598091745
 40
12.5
 41
1
 50
0
  1
Ｓ
  0
TEXT
  8
_1-0_
 62
    7
 10
239.94052732313008
 20
101.30050246779987
 40
12.5
 41
1
 50
0
  1
2
  0
TEXT
  8
_1-0_
 62
    7
 10
849.03475787188552
 20
91.357117730217965
 40
12.5
 41
1
 50
0
  1
1/5
  0
TEXT
  8
_0-5_
 62
    7
 10
556.30064268369938
 20
1093.0405487885346
 40
12.5
 41
1
 50
0
  1
260
  0
TEXT
  8
_0-5_
 62
    7
 10
816.30063443570532
 20
1093.0405487885346
 40
12.5
 41
1
 50
0
  1
260
  0
TEXT
  8
_0-5_
 62
    7
 10
1076.3006261877113
 20
1093.0405487885346
 40
12.5
 41
1
 50
0
  1
260
  0
TEXT
  8
_0-5_
 62
    7
 10
1266.300510715794
 20
1093.0405487885346
 40
12.5
 41
1
 50
0
  1
120
  0
TEXT
  8
_0-5_
 62
    7
 10
744.20847506136511
 20
981.7971719277873
 40
12.5
 41
1
 50
0
  1
Ｓ　桟瓦
  0
TEXT
  8
_0-5_
 62
    7
 10
1321.9972558923673
 20
1014.507479281039
 40
12.5
 41
1
 50
0
  1
Ｓ　半瓦
  0
TEXT
  8
_0-5_
 62
    7
 10
1555.1679250356312
 20
1041.5123192039696
 40
12.5
 41
1
 50
0
  1
Ｓ　右袖瓦
  0
TEXT
  8
_1-0_
 62
    7
 10
1991.27619975322
 20
103.47229725605729
 40
12.5
 41
1
 50
0
  1
15
  0
TEXT
  8
_1-0_
 62
    7
 10
135.88908169720625
 20
125.3822120460304
 40
12.5
 41
1
 50
0
  1
ＲＣ
  0
TEXT
  8
_0-2_
 62
    7
 10
1469.2953367491027
 20
514.6531182366449
 40
12.5
 41
1
 50
0
  1
20
  0
TEXT
  8
_0-2_
 62
    7
 10
1451.7954027330552
 20
514.6531182366449
 40
12.5
 41
1
 50
0
  1
15
  0
TEXT
  8
_0-2_
 62
    7
 10
1554.8022295977621
 20
900.76186721389365
 40
12.5
 41
1
 50
0
  1
パッキン付改良ステンレススクリュウ釘
  0
TEXT
  8
_0-2_
 62
    7
 10
1529.4740419130067
 20
634.40465153874584
 40
12.5
 41
1
 50
0
  1
登り淀
  0
POINT
  8
_0-5_
 62
    7
 10
435.67570866765203
 20
1090.5405405405406
  0
POINT
  8
_0-5_
 62
    7
 10
695.67563855970229
 20
1090.5405405405406
  0
POINT
  8
_0-5_
 62
    7
 10
955.67569217166397
 20
1090.5405405405406
  0
POINT
  8
_0-5_
 62
    7
 10
1215.6755602037586
 20
1090.5405405405406
  0
POINT
  8
_0-5_
 62
    7
 10
1335.6755849477408
 20
1090.5405405405406
  0
POINT
  8
_0-2_
 62
    7
 10
1485.5453078811233
 20
512.15310998865084
  0
POINT
  8
_0-2_
 62
    7
 10
1465.5453656170821
 20
512.15310998865084
  0
POINT
  8
_0-2_
 62
    7
 10
1450.5453161291175
 20
512.15310998865084
  0
LINE
  8
_0-2_
  6
CONTINUOUS
 62
    7
 10
1410.7654303473396
 20
789.35245823215791
 11
1455.7654303473396
 21
849.35247060414906
  0
LINE
  8
_0-2_
  6
CONTINUOUS
 62
    7
 10
1410.7654303473396
 20
849.35247060414906
 11
1455.7654303473396
 21
789.35245823215791
  0
LINE
  8
_0-2_
  6
CONTINUOUS
 62
    7
 10
1410.7654303473396
 20
849.35247060414906
 11
1410.7654303473396
 21
789.35245823215791
  0
LINE
  8
_0-2_
  6
CONTINUOUS
 62
    7
 10
1410.7654303473396
 20
849.35247060414906
 11
1455.7654303473396
 21
849.35247060414906
  0
LINE
  8
_0-2_
  6
DASHED1
 62
    3
 10
294.61335878114437
 20
791.2257014094173
 11
1407.9205207073071
 21
791.2257014094173
  0
LINE
  8
_0-2_
  6
DASHED1
 62
    3
 10
1407.9205207073071
 20
851.9265870790224
 11
1407.9205207073071
 21
791.2257014094173
  0
LINE
  8
_0-2_
  6
DASHED1
 62
    3
 10
1407.9205207073071
 20
851.9265870790224
 11
1456.6106847814613
 21
851.9265870790224
  0
LINE
  8
_0-2_
  6
CONTINUOUS
 62
    7
 10
1352.5633054030532
 20
793.35244668496625
 11
1352.5633054030532
 21
796.3524070945947
  0
LINE
  8
_0-2_
  6
CONTINUOUS
 62
    7
 10
1402.5632229231123
 20
796.3524070945947
 11
1402.5632229231123
 21
793.35244668496625
  0
LINE
  8
_0-2_
  6
CONTINUOUS
 62
    7
 10
1402.5632229231123
 20
793.35244668496625
 11
1352.5633054030532
 21
793.35244668496625
  0
LINE
  8
_0-2_
  6
CONTINUOUS
 62
    7
 10
1352.5633054030532
 20
793.35244668496625
 11
1402.5632229231123
 21
796.3524070945947
  0
LINE
  8
_0-2_
  6
CONTINUOUS
 62
    7
 10
1352.5633054030532
 20
796.3524070945947
 11
1403.4620480788344
 21
796.3524070945947
  0
LINE
  8
_0-1_
  6
CONTINUOUS
 62
    7
 10
1309.4594594594596
 20
814.35247885214324
 11
1403.4620480788344
 21
814.35247885214324
  0
LINE
  8
_0-2_
  6
CONTINUOUS
 62
    7
 10
1403.4620480788344
 20
796.3524070945947
 11
1403.4620480788344
 21
814.35247885214324
  0
LINE
  8
_0-1_
  6
CONTINUOUS
 62
    7
 10
295.67561793971709
 20
796.3524689545502
 11
1403.4620480788344
 21
796.3524689545502
  0
LINE
  8
_0-1_
  6
CONTINUOUS
 62
    7
 10
295.67561793971709
 20
793.35244668496625
 11
1402.5632229231123
 21
793.35244668496625
  0
TEXT
  8
_0-2_
 62
    7
 10
1545.6873919512777
 20
960.81984236433698
 40
12.5
 41
1
 50
0
  1
登り瓦座　45ｘ60
  0
TEXT
  8
_0-5_
 62
    7
 10
751.33026214339156
 20
510.39628724794136
 40
12.5
 41
1
 50
0
  1
瓦桟
  0
LINE
  8
_0-5_
  6
CONTINUOUS
 62
    7
 10
1027.6478947819892
 20
436.65581160971203
 11
1062.3602377401817
 21
436.65581160971203
  0
LINE
  8
_0-2_
  6
CONTINUOUS
 62
    7
 10
1062.3602377401817
 20
436.65581160971203
 11
1189.7353301177154
 21
808.59226536106416
  0
TEXT
  8
_0-2_
 62
    7
 10
751.33025183339896
 20
468.41959978142859
 40
12.5
 41
1
 50
0
  1
流し桟
  0
TEXT
  8
_0-2_
 62
    7
 10
751.33024152340624
 20
448.41959565743161
 40
12.5
 41
1
 50
0
  1
下葺き材
  0
TEXT
  8
_0-2_
 62
    7
 10
818.11256912383385
 20
448.41959565743161
 40
12.5
 41
1
 50
0
  1
ゴムアス系ルーフィング
  0
TEXT
  8
_0-2_
 62
    7
 10
751.33025183339896
 20
428.41959153343453
 40
12.5
 41
1
 50
0
  1
パーライト系モルタル　　ｔ＝50
  0
TEXT
  8
_0-2_
 62
    7
 10
811.37701058181324
 20
493.544423504684
 40
12.5
 41
1
 50
0
  1
※　地域により瓦桟木の大きさは、異なります
  0
LINE
  8
_0-5_
  6
CONTINUOUS
 62
    7
 10
1027.6478947819892
 20
455.37642813077406
 11
1068.7713873725561
 21
455.37642813077406
  0
LINE
  8
_0-5_
  6
CONTINUOUS
 62
    7
 10
1027.6478947819892
 20
475.5371444195726
 11
1075.6757202869087
 21
475.5371444195726
  0
LINE
  8
_0-5_
  6
CONTINUOUS
 62
    7
 10
1027.6478947819892
 20
517.67454405088688
 11
1090.1062906611044
 21
517.67454405088688
  0
TEXT
  8
_0-2_
 62
    7
 10
810.22258008930908
 20
509.48016668194327
 40
12.5
 41
1
 50
0
  1
15×30以上　（防腐処理）
  0
ENDSEC
  0
EOF
