  0
SECTION
  2
HEADER
  9
$ACADVER
  1
AC1009
  9
$INSBASE
 10
0
 20
0
 30
0
  9
$EXTMIN
 10
0
 20
0
  9
$EXTMAX
 10
420
 20
297
  9
$LIMMIN
 10
0
 20
0
  9
$LIMMAX
 10
420
 20
297
  9
$LTSCALE
 40
1
  0
ENDSEC
  0
SECTION
  2
TABLES
  0
TABLE
  2
LTYPE
 70
     9
  0
LTYPE
  2
CONTINUOUS
 70
    64
  3
実線
 72
    65
 73
     0
 40
0.0
  0
LTYPE
  2
DASHED1
 70
    64
  3
--  --  --  --  --  --  --  --  
 72
    65
 73
     2
 40
2.5
 49
1.25
 49
-1.25
  0
LTYPE
  2
DASHED2
 70
    64
  3
----    ----    ----    ----    
 72
    65
 73
     2
 40
5.0
 49
2.5
 49
-2.5
  0
LTYPE
  2
DASHED3
 70
    64
  3
------  ------  ------  ------  
 72
    65
 73
     2
 40
5.0
 49
3.75
 49
-1.25
  0
LTYPE
  2
CENTER1
 70
    64
  3
----- - ----- - ----- - ----- - 
 72
    65
 73
     4
 40
10.0
 49
6.25
 49
-1.25
 49
1.25
 49
-1.25
  0
LTYPE
  2
CENTER2
 70
    64
  3
----------  --  ----------  --  
 72
    65
 73
     4
 40
20.0
 49
12.5
 49
-2.5
 49
2.5
 49
-2.5
  0
LTYPE
  2
PHANTOM1
 70
    64
  3
--- - - --- - - --- - - --- - - 
 72
    65
 73
     6
 40
10.0
 49
3.25
 49
-1.25
 49
1.25
 49
-1.25
 49
1.25
 49
-1.25
  0
LTYPE
  2
PHANTOM2
 70
    64
  3
--------  -  -  --------  -  -  
 72
    65
 73
     6
 40
20.0
 49
10.0
 49
-2.5
 49
1.25
 49
-2.5
 49
1.25
 49
-2.5
  0
LTYPE
  2
DOT
 70
    64
  3
-   -   -   -   -   -   -   -   
 72
    65
 73
     2
 40
2.5
 49
0.625
 49
-1.875
  0
LTYPE
  2
DUMMY
 70
    64
  3
ダミー
 72
    65
 73
     0
 40
0.0
  0
LTYPE
  2
RAND1
 70
    64
  3
ランダム線1
 72
    65
 73
     4
 40
10.0
 49
1.0
 49
-2.0
 49
3.0
 49
-4.0
  0
LTYPE
  2
RAND2
 70
    64
  3
ランダム線2
 72
    65
 73
     4
 40
14.0
 49
2.0
 49
-3.0
 49
4.0
 49
-5.0
  0
LTYPE
  2
RAND3
 70
    64
  3
ランダム線3
 72
    65
 73
     4
 40
18.0
 49
3.0
 49
-4.0
 49
5.0
 49
-6.0
  0
LTYPE
  2
RAND4
 70
    64
  3
ランダム線4
 72
    65
 73
     4
 40
22.0
 49
4.0
 49
-5.0
 49
6.0
 49
-7.0
  0
LTYPE
  2
RAND5
 70
    64
  3
ランダム線5
 72
    65
 73
     4
 40
26.0
 49
5.0
 49
-6.0
 49
7.0
 49
-8.0
  0
LTYPE
  2
LONG1
 70
    64
  3
----------  --  ----------  --  
 72
    65
 73
     4
 40
40.0
 49
32.5
 49
-2.5
 49
2.5
 49
-2.5
  0
LTYPE
  2
LONG2
 70
    64
  3
--------  -  -  --------  -  -  
 72
    65
 73
     6
 40
40.0
 49
30.0
 49
-2.5
 49
1.25
 49
-2.5
 49
1.25
 49
-2.5
  0
LTYPE
  2
LONG3
 70
    64
  3
+++++++++++++++..+++++++++++++++
 72
    65
 73
     2
 40
40.0
 49
37.5
 49
-2.5
  0
LTYPE
  2
LONG4
 70
    64
  3
+++++++++++++++..+++++++++++++++
 72
    65
 73
     2
 40
80.0
 49
75.0
 49
-5.0
  0
LTYPE
  2
LONG5
 70
    64
  3
----------  --  ----------  --  
 72
    65
 73
     4
 40
60.0
 49
37.5
 49
-7.5
 49
7.5
 49
-7.5
  0
LTYPE
  2
dashed
 70
   64
  3
-------   -------------   ------
 72
   65
 73
    2
 40
7.5
 49
6
 49
-1.5
  0
LTYPE
  2
dashed_spaced
 70
   64
  3
----        --------        ----
 72
   65
 73
    2
 40
12
 49
6
 49
-6
  0
LTYPE
  2
long_dashed_dotted
 70
   64
  3
------------- --- --------------
 72
   65
 73
    4
 40
15.25
 49
12
 49
-1.5
 49
0.25
 49
-1.5
  0
LTYPE
  2
long_dashed_double-dotted
 70
   64
  3
----------- --- --- ------------
 72
   65
 73
    6
 40
17
 49
12
 49
-1.5
 49
0.25
 49
-1.5
 49
0.25
 49
-1.5
  0
LTYPE
  2
long_dashed_triplicate-dotted
 70
   64
  3
--------- --- --- --- ----------
 72
   65
 73
    8
 40
18.75
 49
12
 49
-1.5
 49
0.25
 49
-1.5
 49
0.25
 49
-1.5
 49
0.25
 49
-1.5
  0
LTYPE
  2
dotted
 70
   64
  3
   -       -       -       -    
 72
   65
 73
    2
 40
1.75
 49
0.25
 49
-1.5
  0
LTYPE
  2
chain
 70
   64
  3
-------------- -- --------------
 72
   65
 73
    4
 40
18.5
 49
12
 49
-1.5
 49
3.5
 49
-1.5
  0
LTYPE
  2
chain_double_dash
 70
   64
  3
------------ -- -- -------------
 72
   65
 73
    6
 40
23.5
 49
12
 49
-1.5
 49
3.5
 49
-1.5
 49
3.5
 49
-1.5
  0
LTYPE
  2
dashed_dotted
 70
   64
  3
-----------     -     ----------
 72
   65
 73
    4
 40
9.25
 49
6
 49
-1.5
 49
0.25
 49
-1.5
  0
LTYPE
  2
double-dashed_dotted
 70
   64
  3
------   -----------   -   -----
 72
   65
 73
    6
 40
16.75
 49
6
 49
-1.5
 49
6
 49
-1.5
 49
0.25
 49
-1.5
  0
LTYPE
  2
dashed_double-dotted
 70
   64
  3
---------    -    -    ---------
 72
   65
 73
    6
 40
11
 49
6
 49
-1.5
 49
0.25
 49
-1.5
 49
0.25
 49
-1.5
  0
LTYPE
  2
double-dashed_double-dotted
 70
   64
  3
-----   ---------   -   -   ----
 72
   65
 73
    8
 40
18.5
 49
6
 49
-1.5
 49
6
 49
-1.5
 49
0.25
 49
-1.5
 49
0.25
 49
-1.5
  0
LTYPE
  2
dashed_triplicate-dotted
 70
   64
  3
-------    -    -    -    ------
 72
   65
 73
    8
 40
12.75
 49
6
 49
-1.5
 49
0.25
 49
-1.5
 49
0.25
 49
-1.5
 49
0.25
 49
-1.5
  0
LTYPE
  2
double-dashed_triplicate-dotted
 70
   64
  3
-----  ---------  -  -  -  -----
 72
   65
 73
   10
 40
20.25
 49
6
 49
-1.5
 49
6
 49
-1.5
 49
0.25
 49
-1.5
 49
0.25
 49
-1.5
 49
0.25
 49
-1.5
  0
LTYPE
  2
undefined
 70
   64
  3
--------------------------------
 72
   65
 73
    0
 40
0
  0
ENDTAB
  0
TABLE
  2
STYLE
  5
3
100
AcDbSymbolTable
 70
     1
  0
STYLE
  5
10
100
AcDbSymbolTableRecord
100
AcDbTextStyleTableRecord
  2
STANDARD
 70
     0
 40
0.0
 41
1.0
 50
0.0
 71
     0
 42
0.2
  3
txt
  4
bigfont.shx
  0
STYLE
  5
26
100
AcDbSymbolTableRecord
100
AcDbTextStyleTableRecord
  2
TATEGAKI
 70
    68
 40
0.0
 41
1.0
 50
0.0
 71
     0
 42
1.0
  3
txt
  4
bigfont.shx
  0
ENDTAB
  0
TABLE
  2
LAYER
 70
    8
  0
LAYER
  2
_0-0_
 70
   64
 62
    7
  6
CONTINUOUS
  0
LAYER
  2
_1-0_
 70
   64
 62
    7
  6
CONTINUOUS
  0
LAYER
  2
_1-1_
 70
   64
 62
    7
  6
CONTINUOUS
  0
LAYER
  2
_1-2_
 70
   64
 62
    7
  6
CONTINUOUS
  0
LAYER
  2
_1-3_
 70
   64
 62
    7
  6
CONTINUOUS
  0
LAYER
  2
_1-4_
 70
   64
 62
    7
  6
CONTINUOUS
  0
LAYER
  2
_1-f_
 70
   64
 62
    7
  6
CONTINUOUS
  0
LAYER
  2
ADD_LINE
 70
   64
 62
    7
  6
CONTINUOUS
  0
ENDTAB
  0
ENDSEC
  0
SECTION
  2
BLOCKS
  0
ENDSEC
  0
SECTION
  2
ENTITIES
  0
LINE
  8
_1-4_
  6
CONTINUOUS
 62
    7
 10
276.48648648648651
 20
185.6174778293919
 11
276.48648648648651
 21
215.6174778293919
  0
LINE
  8
_0-0_
  6
CONTINUOUS
 62
    5
 10
6.7567526327597136
 20
280.13513513513516
 11
406.75677325274495
 21
280.13513513513516
  0
LINE
  8
_0-0_
  6
CONTINUOUS
 62
    5
 10
406.75677325274495
 20
10.13513513513513
 11
6.7567526327597136
 21
10.13513513513513
  0
LINE
  8
_0-0_
  6
CONTINUOUS
 62
    5
 10
406.75677325274495
 20
30.135133073136615
 11
6.7567402607685949
 21
30.135133073136615
  0
LINE
  8
_0-0_
  6
CONTINUOUS
 62
    5
 10
371.75678150073907
 20
10.13513513513513
 11
371.75678150073907
 21
30.135133073136615
  0
LINE
  8
_0-0_
  6
CONTINUOUS
 62
    5
 10
137.02703939901818
 20
30.135133073136615
 11
137.02703939901818
 21
10.13513513513513
  0
LINE
  8
_0-0_
  6
CONTINUOUS
 62
    5
 10
214.86486486486487
 20
30.135133073136615
 11
214.86486486486487
 21
10.13513513513513
  0
LINE
  8
_0-0_
  6
CONTINUOUS
 62
    5
 10
137.02703939901818
 20
20.135134104135886
 11
214.86486486486487
 21
20.135134104135886
  0
LINE
  8
_0-0_
  6
CONTINUOUS
 62
    5
 10
396.48648648648651
 20
25.945945945945951
 11
383.91891891891896
 21
13.378379924877265
  0
LINE
  8
_1-3_
  6
CONTINUOUS
 62
    7
 10
126.16404765361065
 20
115.4826272500528
 11
116.01767875052788
 21
143.35950696790542
  0
LINE
  8
_1-3_
  6
CONTINUOUS
 62
    7
 10
116.01767875052788
 20
143.35950696790542
 11
114.74380905563767
 21
143.35950696790542
  0
LINE
  8
_1-3_
  6
CONTINUOUS
 62
    7
 10
178.29647579708615
 20
64.86486486486487
 11
163.84839032147383
 21
64.86486486486487
  0
LINE
  8
_1-3_
  6
CONTINUOUS
 62
    7
 10
178.29647579708615
 20
58.465440079972552
 11
166.17759085990289
 21
58.465440079972552
  0
LINE
  8
_1-3_
  6
CONTINUOUS
 62
    7
 10
178.29647579708615
 20
52.523123251425261
 11
168.34041286159206
 21
52.523123251425261
  0
LINE
  8
_1-3_
  6
CONTINUOUS
 62
    7
 10
178.29647579708615
 20
46.352258630701016
 11
170.5864241316512
 21
46.352258630701016
  0
LINE
  8
_1-3_
  6
CONTINUOUS
 62
    7
 10
148.02462603594807
 20
108.34028914168076
 11
172.68731194573482
 21
40.580130912162161
  0
LINE
  8
_1-3_
  6
CONTINUOUS
 62
    7
 10
172.68731194573482
 20
40.580130912162161
 11
178.29647579708615
 21
40.580130912162161
  0
LINE
  8
_1-1_
  6
CONTINUOUS
 62
    7
 10
234.0616174646326
 20
175.17252329233531
 11
233.08071651974242
 21
178.0076145481419
  0
LINE
  8
_1-1_
  6
CONTINUOUS
 62
    7
 10
233.08071651974242
 20
178.0076145481419
 11
250.09131354254646
 21
183.89313156540331
  0
LINE
  8
_1-1_
  6
CONTINUOUS
 62
    7
 10
250.09131354254646
 20
183.89313156540331
 11
251.07223923141893
 21
181.05802793760557
  0
LINE
  8
_1-1_
  6
CONTINUOUS
 62
    7
 10
251.07223923141893
 20
181.05802793760557
 11
234.0616174646326
 21
175.17252329233531
  0
LINE
  8
_1-1_
  6
CONTINUOUS
 62
    7
 10
233.08071651974242
 20
178.0076145481419
 11
251.07223923141893
 21
181.05802793760557
  0
LINE
  8
_1-1_
  6
CONTINUOUS
 62
    3
 10
232.00950003959039
 20
178.26662218248524
 11
252.56049078864021
 21
185.37709004170188
  0
LINE
  8
_1-1_
  6
CONTINUOUS
 62
    3
 10
252.56049078864021
 20
185.37709004170188
 11
253.25527706661742
 21
185.6174778293919
  0
LINE
  8
_1-1_
  6
CONTINUOUS
 62
    3
 10
253.25527706661742
 20
185.6174778293919
 11
253.25527706661742
 21
215.6174778293919
  0
LINE
  8
_1-1_
  6
CONTINUOUS
 62
    7
 10
249.25528861380914
 20
189.18011639569258
 11
249.25528861380914
 21
261.33685962573901
  0
LINE
  8
_1-1_
  6
CONTINUOUS
 62
    7
 10
246.85529554212417
 20
189.18011639569258
 11
246.85529554212417
 21
261.33685962573901
  0
LINE
  8
_1-1_
  6
CONTINUOUS
 62
    7
 10
249.25528861380914
 20
188.25553275443414
 11
249.25528861380914
 21
196.25553440403294
  0
LINE
  8
_1-1_
  6
CONTINUOUS
 62
    7
 10
249.25528861380914
 20
196.25553440403294
 11
253.25527706661742
 21
196.25553440403294
  0
LINE
  8
_1-1_
  6
CONTINUOUS
 62
    7
 10
253.25527706661742
 20
196.25553440403294
 11
253.25527706661742
 21
188.25553275443414
  0
LINE
  8
_1-1_
  6
CONTINUOUS
 62
    7
 10
253.25527706661742
 20
188.25553275443414
 11
249.25528861380914
 21
188.25553275443414
  0
LINE
  8
_1-1_
  6
CONTINUOUS
 62
    7
 10
249.25528861380914
 20
196.25553440403294
 11
253.25527706661742
 21
188.25553275443414
  0
LINE
  8
_1-1_
  6
CONTINUOUS
 62
    7
 10
243.4772470835093
 20
184.24450848553633
 11
224.97122274862755
 21
235.08938351192992
  0
LINE
  8
_1-1_
  6
CONTINUOUS
 62
    7
 10
247.64012517155828
 20
218.10266443201016
 11
231.83488175675677
 21
261.52719033731
  0
LINE
  8
_1-1_
  6
CONTINUOUS
 62
    7
 10
214.89208324535474
 20
196.73317986565669
 11
225.71091935441302
 21
167.0086669921875
  0
LINE
  8
_1-1_
  6
CONTINUOUS
 62
    7
 10
231.83488175675677
 20
261.52719033731
 11
224.59459459459461
 21
261.52719033731
  0
LINE
  8
_1-1_
  6
CONTINUOUS
 62
    7
 10
224.97122274862755
 20
235.08938351192992
 11
220.54054054054055
 21
235.08938351192992
  0
LINE
  8
_1-1_
  6
CONTINUOUS
 62
    7
 10
214.89208324535474
 20
196.73317986565669
 11
210.81081081081084
 21
196.73317986565669
  0
LINE
  8
_1-1_
  6
CONTINUOUS
 62
    7
 10
250.98870354729732
 20
146.90259778821792
 11
254.19552364864867
 21
150.10943026156039
  0
LINE
  8
_1-1_
  6
CONTINUOUS
 62
    7
 10
246.87462059227198
 20
145.05125303526182
 11
254.05228073532518
 21
152.22892555030617
  0
LINE
  8
_1-1_
  6
CONTINUOUS
 62
    7
 10
242.76053763724664
 20
143.19993302628802
 11
249.93819778029984
 21
150.37759316934122
  0
LINE
  8
_1-1_
  6
CONTINUOUS
 62
    7
 10
238.6464546822213
 20
141.34858827333193
 11
245.82413956925677
 21
148.52626078837628
  0
LINE
  8
_1-1_
  6
CONTINUOUS
 62
    7
 10
234.53237172719597
 20
139.49725589236698
 11
241.71003187024917
 21
146.67491603542018
  0
LINE
  8
_1-1_
  6
CONTINUOUS
 62
    7
 10
230.41833826013516
 20
137.64592351140203
 11
237.59597365920609
 21
144.82358365445523
  0
LINE
  8
_1-1_
  6
CONTINUOUS
 62
    7
 10
226.30423056112755
 20
135.79459113043708
 11
233.48189070418076
 21
142.97225127349029
  0
LINE
  8
_1-1_
  6
CONTINUOUS
 62
    7
 10
222.19017235008448
 20
133.94325874947214
 11
229.36783249313768
 21
141.12093126451649
  0
LINE
  8
_1-1_
  6
CONTINUOUS
 62
    7
 10
218.07603990709461
 20
132.09191399651604
 11
225.25370005014781
 21
139.26956176757813
  0
LINE
  8
_1-1_
  6
CONTINUOUS
 62
    7
 10
213.96198169605154
 20
130.24056924355997
 11
221.13964183910474
 21
137.41824175860432
  0
LINE
  8
_1-1_
  6
CONTINUOUS
 62
    7
 10
209.8478987410262
 20
128.38924923458615
 11
217.0255588840794
 21
135.56689700564823
  0
LINE
  8
_1-1_
  6
CONTINUOUS
 62
    7
 10
205.73385290197425
 20
126.53791685362121
 11
212.91150067303633
 21
133.71557699667443
  0
LINE
  8
_1-1_
  6
CONTINUOUS
 62
    7
 10
201.61976994694891
 20
124.68658447265625
 11
208.79741771801099
 21
131.86423224371833
  0
LINE
  8
_1-1_
  6
CONTINUOUS
 62
    7
 10
197.50568699192357
 20
122.8352520916913
 11
204.68333476298565
 21
130.01289986275339
  0
LINE
  8
_1-1_
  6
CONTINUOUS
 62
    7
 10
193.39160403689823
 20
120.98391971072635
 11
200.56927655194258
 21
128.16156748178844
  0
LINE
  8
_1-1_
  6
CONTINUOUS
 62
    7
 10
189.27753345386404
 20
119.13257495777027
 11
196.45519359691724
 21
126.31023510082349
  0
LINE
  8
_1-1_
  6
CONTINUOUS
 62
    7
 10
185.16346287082982
 20
117.28125494879646
 11
192.3411106418919
 21
124.45890271985854
  0
LINE
  8
_1-1_
  6
CONTINUOUS
 62
    7
 10
181.04940465978675
 20
115.42992256783151
 11
188.22704005885771
 21
122.60757033889359
  0
LINE
  8
_1-1_
  6
CONTINUOUS
 62
    7
 10
176.93533407675255
 20
113.57859018686656
 11
184.11296947582349
 21
120.75623795792863
  0
LINE
  8
_1-1_
  6
CONTINUOUS
 62
    7
 10
172.82125112172722
 20
111.72724543391048
 11
179.99891126478042
 21
118.90490557696369
  0
LINE
  8
_1-1_
  6
CONTINUOUS
 62
    7
 10
168.70719291068414
 20
109.87592542493667
 11
175.88485305373734
 21
117.05358556798987
  0
LINE
  8
_1-1_
  6
CONTINUOUS
 62
    7
 10
164.59313469964107
 20
108.02460541596284
 11
171.77077009871201
 21
115.20225318702492
  0
LINE
  8
_1-1_
  6
CONTINUOUS
 62
    7
 10
160.47906411660685
 20
106.17327303499789
 11
167.65671188766893
 21
113.35092080605997
  0
LINE
  8
_1-1_
  6
CONTINUOUS
 62
    7
 10
156.36498116158151
 20
104.32194065403294
 11
163.54262893264359
 21
111.49957605310389
  0
LINE
  8
_1-1_
  6
CONTINUOUS
 62
    7
 10
152.25089820655617
 20
102.47059590107686
 11
159.42854597761826
 21
109.64824367213895
  0
LINE
  8
_1-1_
  6
CONTINUOUS
 62
    7
 10
148.13682762352198
 20
100.61926970610747
 11
155.31446302259292
 21
107.796911291174
  0
LINE
  8
_1-1_
  6
CONTINUOUS
 62
    7
 10
144.02276941247888
 20
98.7679435111381
 11
151.20040481154984
 21
105.94557891020904
  0
LINE
  8
_1-1_
  6
CONTINUOUS
 62
    7
 10
139.90869882944469
 20
96.916611130173152
 11
147.08633422851563
 21
104.09424652924409
  0
LINE
  8
_1-1_
  6
CONTINUOUS
 62
    7
 10
135.79461587441935
 20
95.065272563212631
 11
142.97223890149917
 21
102.24290796228358
  0
LINE
  8
_1-1_
  6
CONTINUOUS
 62
    7
 10
131.68053291939401
 20
93.213933996252123
 11
138.85818069045609
 21
100.39158176731419
  0
LINE
  8
_1-1_
  6
CONTINUOUS
 62
    7
 10
127.56646233635981
 20
91.362607801282735
 11
134.74411010742187
 21
98.540249386349245
  0
LINE
  8
_1-1_
  6
CONTINUOUS
 62
    7
 10
123.45237938133447
 20
89.511269234322214
 11
130.63002715239654
 21
96.688910819388724
  0
LINE
  8
_1-1_
  6
CONTINUOUS
 62
    7
 10
119.33832117029139
 20
87.659943039352839
 11
126.51595656936234
 21
94.83758462441935
  0
LINE
  8
_1-1_
  6
CONTINUOUS
 62
    7
 10
115.22423821526606
 20
85.808610658387892
 11
122.40188598632812
 21
92.986252243454402
  0
LINE
  8
_1-1_
  6
CONTINUOUS
 62
    7
 10
111.11016763223185
 20
83.95727209142737
 11
118.2878030313028
 21
91.134913676493881
  0
LINE
  8
_1-1_
  6
CONTINUOUS
 62
    7
 10
106.99609704919764
 20
82.105939710462422
 11
114.17373244826858
 21
89.283581295528933
  0
LINE
  8
_1-1_
  6
CONTINUOUS
 62
    7
 10
102.88202646616344
 20
80.254607329497475
 11
110.05967423722551
 21
87.432255100559544
  0
LINE
  8
_1-1_
  6
CONTINUOUS
 62
    7
 10
98.7679435111381
 20
78.403274948532527
 11
105.94559128220017
 21
85.580916533599037
  0
LINE
  8
_1-1_
  6
CONTINUOUS
 62
    7
 10
94.65386674210832
 20
76.551942567567565
 11
101.83149595518371
 21
83.729571780642956
  0
LINE
  8
_1-1_
  6
CONTINUOUS
 62
    7
 10
90.539796159074115
 20
74.700610186602617
 11
97.717437744140625
 21
81.878251771669142
  0
LINE
  8
_1-1_
  6
CONTINUOUS
 62
    7
 10
86.425725576039909
 20
72.849277805637669
 11
93.603354789115286
 21
80.02691320470862
  0
LINE
  8
_1-1_
  6
CONTINUOUS
 62
    7
 10
82.311636435019011
 20
70.997939238677162
 11
89.489259462098829
 21
78.17556845175254
  0
LINE
  8
_1-1_
  6
CONTINUOUS
 62
    7
 10
79.973107415276615
 20
73.893300649282097
 11
82.69567541173987
 21
71.170757396801108
  0
LINE
  8
_1-1_
  6
CONTINUOUS
 62
    7
 10
81.53362377269849
 20
74.595534865920612
 11
84.256179397170612
 21
71.87298542744405
  0
LINE
  8
_1-1_
  6
CONTINUOUS
 62
    7
 10
83.094140130120365
 20
75.297762896563555
 11
85.816683382601354
 21
72.575207272091433
  0
LINE
  8
_1-1_
  6
CONTINUOUS
 62
    7
 10
84.654644115551108
 20
75.999990927206511
 11
87.37719355402767
 21
73.277435302734375
  0
LINE
  8
_1-1_
  6
CONTINUOUS
 62
    7
 10
86.21514810098185
 20
76.702218957849453
 11
88.937697539458412
 21
73.979669519372891
  0
LINE
  8
_1-1_
  6
CONTINUOUS
 62
    7
 10
87.775652086412592
 20
77.40444698849241
 11
90.498207710884714
 21
74.681897550015847
  0
LINE
  8
_1-1_
  6
CONTINUOUS
 62
    7
 10
89.336156071843334
 20
78.106675019135352
 11
92.058711696315456
 21
75.38412558065879
  0
LINE
  8
_1-1_
  6
CONTINUOUS
 62
    7
 10
90.896672429265209
 20
78.808903049778294
 11
93.619221867741771
 21
76.086347425306172
  0
LINE
  8
_1-1_
  6
CONTINUOUS
 62
    7
 10
92.457176414695951
 20
79.511131080421251
 11
95.179725853172513
 21
76.788575455949115
  0
LINE
  8
_1-1_
  6
CONTINUOUS
 62
    7
 10
94.017692772117826
 20
80.213359111064193
 11
96.740236024598829
 21
77.490803486592071
  0
LINE
  8
_1-1_
  6
CONTINUOUS
 62
    7
 10
95.578184385557435
 20
80.915587141707135
 11
98.300740010029571
 21
78.193031517235013
  0
LINE
  8
_1-1_
  6
CONTINUOUS
 62
    7
 10
97.138688370988177
 20
81.617808986354518
 11
99.861250181455873
 21
78.895259547877956
  0
LINE
  8
_1-1_
  6
CONTINUOUS
 62
    7
 10
98.699204728410052
 20
82.320043202993034
 11
101.42175416688661
 21
79.597487578520912
  0
LINE
  8
_1-1_
  6
CONTINUOUS
 62
    7
 10
100.25970871384079
 20
83.02227123363599
 11
102.98226433831293
 21
80.299721795159428
  0
LINE
  8
_1-1_
  6
CONTINUOUS
 62
    7
 10
101.82022507126267
 20
83.724499264278933
 11
104.54276832374367
 21
81.001943639806797
  0
LINE
  8
_1-1_
  6
CONTINUOUS
 62
    7
 10
103.38071668470229
 20
84.426721108926316
 11
106.10328468116555
 21
81.704177856445313
  0
LINE
  8
_1-1_
  6
CONTINUOUS
 62
    7
 10
104.94123304212417
 20
85.128955325564831
 11
107.66378866659629
 21
82.406405887088269
  0
LINE
  8
_1-1_
  6
CONTINUOUS
 62
    7
 10
106.50173702755491
 20
85.831183356207774
 11
109.22429265202703
 21
83.108633917731211
  0
LINE
  8
_1-1_
  6
CONTINUOUS
 62
    7
 10
108.06224101298565
 20
86.533411386850716
 11
110.78479663745777
 21
83.810861948374153
  0
LINE
  8
_1-1_
  6
CONTINUOUS
 62
    7
 10
109.62274499841639
 20
87.235639417493672
 11
112.34530062288852
 21
84.513083793021536
  0
LINE
  8
_1-1_
  6
CONTINUOUS
 62
    7
 10
111.18326135583827
 20
87.937873634132188
 11
113.90581698031039
 21
85.215318009660052
  0
LINE
  8
_1-1_
  6
CONTINUOUS
 62
    7
 10
112.74376534126901
 20
88.640095478779571
 11
115.46632096574113
 21
85.917539854307435
  0
LINE
  8
_1-1_
  6
CONTINUOUS
 62
    7
 10
114.30428169869089
 20
89.342329695418073
 11
117.02682495117187
 21
86.619767884950392
  0
LINE
  8
_1-1_
  6
CONTINUOUS
 62
    7
 10
115.8647733121305
 20
90.044551540065456
 11
118.58734130859375
 21
87.321995915593334
  0
LINE
  8
_1-1_
  6
CONTINUOUS
 62
    7
 10
117.42528966955237
 20
90.746779570708412
 11
120.14784529402451
 21
88.02423013223185
  0
LINE
  8
_1-1_
  6
CONTINUOUS
 62
    7
 10
118.98579365498311
 20
91.449007601351354
 11
121.70834927945525
 21
88.726451976879233
  0
LINE
  8
_1-1_
  6
CONTINUOUS
 62
    7
 10
120.54631001240499
 20
92.151235631994311
 11
123.26885326488599
 21
89.428680007522175
  0
LINE
  8
_1-1_
  6
CONTINUOUS
 62
    7
 10
122.10682636982686
 20
92.853469848632812
 11
124.82935725031673
 21
90.130908038165117
  0
LINE
  8
_1-1_
  6
CONTINUOUS
 62
    7
 10
123.66730561127534
 20
93.555685507284636
 11
126.38986123574747
 21
90.833136068808074
  0
LINE
  8
_1-1_
  6
CONTINUOUS
 62
    7
 10
125.22782196869721
 20
94.257919723923152
 11
127.95036522117822
 21
91.535364099451016
  0
LINE
  8
_1-1_
  6
CONTINUOUS
 62
    7
 10
126.78832595412797
 20
94.960147754566094
 11
129.51088157860008
 21
92.237592130093972
  0
LINE
  8
_1-1_
  6
CONTINUOUS
 62
    7
 10
128.3488299395587
 20
95.662375785209036
 11
131.07139793602195
 21
92.939820160736915
  0
LINE
  8
_1-1_
  6
CONTINUOUS
 62
    7
 10
129.90934629698057
 20
96.364610001847552
 11
132.63190192145271
 21
93.64205437737543
  0
LINE
  8
_1-1_
  6
CONTINUOUS
 62
    7
 10
131.46986265440245
 20
97.066838032490509
 11
134.19240590688347
 21
94.344276222022813
  0
LINE
  8
_1-1_
  6
CONTINUOUS
 62
    7
 10
133.0303666398332
 20
97.769066063133451
 11
135.75290989231419
 21
95.046504252665756
  0
LINE
  8
_1-1_
  6
CONTINUOUS
 62
    7
 10
134.59087062526393
 20
98.471294093776393
 11
137.31342624973607
 21
95.748738469304271
  0
LINE
  8
_1-1_
  6
CONTINUOUS
 62
    7
 10
136.15136223870354
 20
99.173515938423776
 11
138.87391786317568
 21
96.450966499947214
  0
LINE
  8
_1-1_
  6
CONTINUOUS
 62
    7
 10
137.71187859612542
 20
99.875750155062292
 11
140.4344465925887
 21
97.153188344594597
  0
LINE
  8
_1-1_
  6
CONTINUOUS
 62
    7
 10
139.27238258155617
 20
100.57797818570525
 11
141.99493820602831
 21
97.855416375237553
  0
LINE
  8
_1-1_
  6
CONTINUOUS
 62
    7
 10
140.83289893897805
 20
101.28020003035262
 11
143.55545456345018
 21
98.557650591876055
  0
LINE
  8
_1-1_
  6
CONTINUOUS
 62
    7
 10
142.3934029244088
 20
101.98243424699113
 11
145.11595854888091
 21
99.259878622519011
  0
LINE
  8
_1-1_
  6
CONTINUOUS
 62
    7
 10
143.95390690983953
 20
102.68465609163852
 11
146.67646253431167
 21
99.962100467166394
  0
LINE
  8
_1-1_
  6
CONTINUOUS
 62
    7
 10
145.51441089527029
 20
103.38689030827703
 11
148.2369665197424
 21
100.66432849780934
  0
LINE
  8
_1-1_
  6
CONTINUOUS
 62
    7
 10
147.07491488070102
 20
104.08911215292441
 11
149.79747050517315
 21
101.36655652845229
  0
LINE
  8
_1-1_
  6
CONTINUOUS
 62
    7
 10
148.63541886613177
 20
104.7913339975718
 11
151.35797449060388
 21
102.06878455909523
  0
LINE
  8
_1-1_
  6
CONTINUOUS
 62
    7
 10
150.19594759554477
 20
105.49356821421031
 11
152.91849084802575
 21
102.77101258973818
  0
LINE
  8
_1-1_
  6
CONTINUOUS
 62
    7
 10
151.75645158097552
 20
106.19580243084883
 11
154.47900720544763
 21
103.47324680637669
  0
LINE
  8
_1-1_
  6
CONTINUOUS
 62
    7
 10
153.31695556640625
 20
106.89803664748733
 11
156.03951119087839
 21
104.17546865102408
  0
LINE
  8
_1-1_
  6
CONTINUOUS
 62
    7
 10
154.87745955183701
 20
107.60025849213471
 11
157.60001517630914
 21
104.87769049567146
  0
LINE
  8
_1-1_
  6
CONTINUOUS
 62
    7
 10
156.43796353726773
 20
108.3024803367821
 11
159.16051916173987
 21
105.57992471230997
  0
LINE
  8
_1-1_
  6
CONTINUOUS
 62
    7
 10
157.99846752269849
 20
109.00471455342061
 11
160.72102314717063
 21
106.28215892894849
  0
LINE
  8
_1-1_
  6
CONTINUOUS
 62
    7
 10
159.55897150812922
 20
109.706936398068
 11
162.28152713260135
 21
106.98438077359587
  0
LINE
  8
_1-1_
  6
CONTINUOUS
 62
    7
 10
161.11948786555109
 20
110.40917061470651
 11
163.84203111803211
 21
107.68661499023437
  0
LINE
  8
_1-1_
  6
CONTINUOUS
 62
    7
 10
162.67999185098185
 20
111.11139245935389
 11
165.40254747545399
 21
108.38883683488176
  0
LINE
  8
_1-1_
  6
CONTINUOUS
 62
    7
 10
164.24049583641261
 20
111.81362667599241
 11
166.96305146088471
 21
109.09107105152027
  0
LINE
  8
_1-1_
  6
CONTINUOUS
 62
    7
 10
165.80101219383448
 20
112.51584852063979
 11
168.52356781830659
 21
109.79330526815879
  0
LINE
  8
_1-1_
  6
CONTINUOUS
 62
    7
 10
167.36151617926521
 20
113.21808273727829
 11
170.08407180373734
 21
110.49552711280617
  0
LINE
  8
_1-1_
  6
CONTINUOUS
 62
    7
 10
168.92200779270482
 20
113.92030458192568
 11
171.64457578916807
 21
111.19774895745356
  0
LINE
  8
_1-1_
  6
CONTINUOUS
 62
    7
 10
170.48252415012669
 20
114.62253879856419
 11
173.20507977459883
 21
111.89998317409207
  0
LINE
  8
_1-1_
  6
CONTINUOUS
 62
    7
 10
172.04304050754857
 20
115.32477301520271
 11
174.7655961320207
 21
112.60220501873945
  0
LINE
  8
_1-1_
  6
CONTINUOUS
 62
    7
 10
173.60353212098818
 20
116.02699485985009
 11
176.32610011745143
 21
113.30443923537796
  0
LINE
  8
_1-1_
  6
CONTINUOUS
 62
    7
 10
175.16404847841005
 20
116.72921670449747
 11
177.88660410288219
 21
114.00666108002534
  0
LINE
  8
_1-1_
  6
CONTINUOUS
 62
    7
 10
176.72456483583193
 20
117.43145092113599
 11
179.44712046030406
 21
114.70889529666385
  0
LINE
  8
_1-1_
  6
CONTINUOUS
 62
    7
 10
178.28506882126268
 20
118.13368513777451
 11
181.00762444573482
 21
115.41112951330237
  0
LINE
  8
_1-1_
  6
CONTINUOUS
 62
    7
 10
179.84557280669341
 20
118.83590698242187
 11
182.56814080315669
 21
116.11335135794975
  0
LINE
  8
_1-1_
  6
CONTINUOUS
 62
    7
 10
181.40608916411529
 20
119.53814119906039
 11
184.12865716057857
 21
116.81558557458827
  0
LINE
  8
_1-1_
  6
CONTINUOUS
 62
    7
 10
182.96660552153716
 20
120.24036304370777
 11
185.6891611460093
 21
117.51780741923565
  0
LINE
  8
_1-1_
  6
CONTINUOUS
 62
    7
 10
184.52709713497677
 20
120.94259726034629
 11
187.24965275944891
 21
118.22002926388303
  0
LINE
  8
_1-1_
  6
CONTINUOUS
 62
    7
 10
186.08761349239865
 20
121.64481910499367
 11
188.81016911687078
 21
118.92226348052155
  0
LINE
  8
_1-1_
  6
CONTINUOUS
 62
    7
 10
187.6481174778294
 20
122.34705332163219
 11
190.37066073031039
 21
119.62448532516892
  0
LINE
  8
_1-1_
  6
CONTINUOUS
 62
    7
 10
189.20862146326016
 20
123.04927516627957
 11
191.93117708773227
 21
120.32671954180744
  0
LINE
  8
_1-1_
  6
CONTINUOUS
 62
    7
 10
190.76912544869089
 20
123.75150938291809
 11
193.49168107316302
 21
121.02894138645482
  0
LINE
  8
_1-1_
  6
CONTINUOUS
 62
    7
 10
192.32962943412164
 20
124.45373122756547
 11
195.0521974305849
 21
121.73117560309333
  0
LINE
  8
_1-1_
  6
CONTINUOUS
 62
    7
 10
193.89013341955237
 20
125.15596544420397
 11
196.61270141601562
 21
122.43339744774072
  0
LINE
  8
_1-1_
  6
CONTINUOUS
 62
    7
 10
195.45063740498313
 20
125.85818728885135
 11
198.17320540144638
 21
123.13563166437923
  0
LINE
  8
_1-1_
  6
CONTINUOUS
 62
    7
 10
197.01116613439612
 20
126.56042150548987
 11
199.73370938687711
 21
123.83786588101775
  0
LINE
  8
_1-1_
  6
CONTINUOUS
 62
    7
 10
198.57167011982688
 20
127.26265572212839
 11
201.29422574429898
 21
124.54008772566513
  0
LINE
  8
_1-1_
  6
CONTINUOUS
 62
    7
 10
200.1321741052576
 20
127.96487756677577
 11
202.85474210172086
 21
125.24232194230363
  0
LINE
  8
_1-1_
  6
CONTINUOUS
 62
    7
 10
201.69267809068836
 20
128.66711178341427
 11
204.41525845914273
 21
125.94454378695102
  0
LINE
  8
_1-1_
  6
CONTINUOUS
 62
    7
 10
203.25319444811024
 20
129.36933362806167
 11
205.97575007258237
 21
126.64677800358953
  0
LINE
  8
_1-1_
  6
CONTINUOUS
 62
    7
 10
204.81369843354096
 20
130.07156784470018
 11
207.53626643000425
 21
127.34901222022805
  0
LINE
  8
_1-1_
  6
CONTINUOUS
 62
    7
 10
206.37420241897172
 20
130.77378968934755
 11
209.09674567145271
 21
128.0512216928843
  0
LINE
  8
_1-1_
  6
CONTINUOUS
 62
    7
 10
207.93471877639359
 20
131.47602390598607
 11
210.65724965688347
 21
128.75345590952281
  0
LINE
  8
_1-1_
  6
CONTINUOUS
 62
    7
 10
209.49519801784209
 20
132.17824575063347
 11
212.21777838629646
 21
129.45569012616133
  0
LINE
  8
_1-1_
  6
CONTINUOUS
 62
    7
 10
211.05570200327281
 20
132.88046759528083
 11
213.77828237172722
 21
130.1579119708087
  0
LINE
  8
_1-1_
  6
CONTINUOUS
 62
    7
 10
212.61623073268584
 20
133.58270181191935
 11
215.33878635715794
 21
130.86013381545609
  0
LINE
  8
_1-1_
  6
CONTINUOUS
 62
    7
 10
214.17673471811656
 20
134.28492365656672
 11
216.8992903425887
 21
131.56236803209461
  0
LINE
  8
_1-1_
  6
CONTINUOUS
 62
    7
 10
215.73723870354732
 20
134.98715787320523
 11
218.45979432801943
 21
132.26460224873313
  0
LINE
  8
_1-1_
  6
CONTINUOUS
 62
    7
 10
217.29774268897805
 20
135.68939208984375
 11
220.02032305743245
 21
132.9668240933805
  0
LINE
  8
_1-1_
  6
CONTINUOUS
 62
    7
 10
218.8582466744088
 20
136.39161393449115
 11
221.58082704286318
 21
133.66904593802789
  0
LINE
  8
_1-1_
  6
CONTINUOUS
 62
    7
 10
220.41875065983953
 20
137.09383577913852
 11
223.14133102829393
 21
134.37128015466638
  0
LINE
  8
_1-1_
  6
CONTINUOUS
 62
    7
 10
221.97925464527029
 20
137.79606999577703
 11
224.70183501372466
 21
135.07350199931378
  0
LINE
  8
_1-1_
  6
CONTINUOUS
 62
    7
 10
223.53978337468328
 20
138.49830421241555
 11
226.26233899915542
 21
135.77573621595229
  0
LINE
  8
_1-1_
  6
CONTINUOUS
 62
    7
 10
225.10028736011404
 20
139.20052605706292
 11
227.82284298458617
 21
136.47797043259081
  0
LINE
  8
_1-1_
  6
CONTINUOUS
 62
    7
 10
226.66079134554477
 20
139.90276027370143
 11
229.3833469700169
 21
137.18019227723818
  0
LINE
  8
_1-1_
  6
CONTINUOUS
 62
    7
 10
228.22129533097552
 20
140.60498211834883
 11
230.94385095544766
 21
137.88242649387669
  0
LINE
  8
_1-1_
  6
CONTINUOUS
 62
    7
 10
229.78182406038852
 20
141.30721633498734
 11
232.50437968486065
 21
138.58466071051521
  0
LINE
  8
_1-1_
  6
CONTINUOUS
 62
    7
 10
231.34232804581927
 20
142.00943817963471
 11
234.06488367029141
 21
139.28688255516261
  0
LINE
  8
_1-1_
  6
CONTINUOUS
 62
    7
 10
232.90283203125
 20
142.71167239627323
 11
235.62538765572214
 21
139.98910439980997
  0
LINE
  8
_1-1_
  6
CONTINUOUS
 62
    7
 10
234.46331127269849
 20
143.41389424092063
 11
237.18586689717063
 21
140.69133861644849
  0
LINE
  8
_1-1_
  6
CONTINUOUS
 62
    7
 10
236.02384000211151
 20
144.116116085568
 11
238.74637088260135
 21
141.39356046109586
  0
LINE
  8
_1-1_
  6
CONTINUOUS
 62
    7
 10
237.58434398754224
 20
144.81835030220651
 11
240.30689961201438
 21
142.09578230574326
  0
LINE
  8
_1-1_
  6
CONTINUOUS
 62
    7
 10
239.144847972973
 20
145.52057214685388
 11
241.86742834142737
 21
142.79801652238177
  0
LINE
  8
_1-1_
  6
CONTINUOUS
 62
    7
 10
240.70535195840372
 20
146.2228063634924
 11
243.42793232685813
 21
143.50025073902029
  0
LINE
  8
_1-1_
  6
CONTINUOUS
 62
    7
 10
242.26585594383448
 20
146.92504058013091
 11
244.98841156830659
 21
144.20246021167654
  0
LINE
  8
_1-1_
  6
CONTINUOUS
 62
    7
 10
243.82635992926521
 20
147.62726242477831
 11
246.54894029771961
 21
144.90469442831505
  0
LINE
  8
_1-1_
  6
CONTINUOUS
 62
    7
 10
245.38686391469597
 20
148.32948426942568
 11
248.10944428315034
 21
145.60692864495357
  0
LINE
  8
_1-1_
  6
CONTINUOUS
 62
    7
 10
246.94736790012669
 20
149.03171848606419
 11
249.66994826858109
 21
146.30916286159206
  0
LINE
  8
_1-1_
  6
CONTINUOUS
 62
    7
 10
248.50789662953972
 20
149.73395270270271
 11
251.23045225401185
 21
147.01138470623945
  0
LINE
  8
_1-1_
  6
CONTINUOUS
 62
    7
 10
250.06840061497044
 20
150.43617454735011
 11
252.79095623944258
 21
147.71360655088682
  0
LINE
  8
_1-1_
  6
CONTINUOUS
 62
    7
 10
251.6289046004012
 20
151.13840876398859
 11
254.19552364864867
 21
148.57178971574115
  0
LINE
  8
_1-1_
  6
CONTINUOUS
 62
    7
 10
253.18940858583193
 20
151.84063060863599
 11
254.19552364864867
 21
150.83452791781039
  0
LINE
  8
_1-1_
  6
CONTINUOUS
 62
    3
 10
228.88445879961995
 20
172.36238634264149
 11
229.72919361011404
 21
167.02887045370568
  0
LINE
  8
_1-4_
  6
CONTINUOUS
 62
    3
 10
248.56889054581927
 20
179.12496618322425
 11
249.13206358213685
 21
175.56929304793076
  0
LINE
  8
_1-4_
  6
CONTINUOUS
 62
    3
 10
233.48206391205659
 20
174.6520707413957
 11
233.59892974028716
 21
175.98918605495143
  0
LINE
  8
_1-1_
  6
CONTINUOUS
 62
    3
 10
232.00950003959039
 20
178.26662218248524
 11
233.48206391205659
 21
174.65209548537797
  0
LINE
  8
_1-4_
  6
CONTINUOUS
 62
    7
 10
243.4772470835093
 20
184.24450848553633
 11
244.64696935705237
 21
181.03071058118667
  0
LINE
  8
_1-1_
  6
CONTINUOUS
 62
    7
 10
216.57051705025339
 20
216.26685889991555
 11
213.24324324324326
 21
216.26685889991555
  0
LINE
  8
_1-4_
  6
CONTINUOUS
 62
    7
 10
230.95585178684544
 20
176.74345686629013
 11
216.57051705025339
 21
216.26685889991555
  0
LINE
  8
_1-4_
  6
CONTINUOUS
 62
    7
 10
230.95585178684544
 20
176.74345686629013
 11
232.60800748258026
 21
176.74345686629013
  0
LINE
  8
_1-4_
  6
CONTINUOUS
 62
    7
 10
229.47668127111487
 20
171.73276334195523
 11
217.20272579708617
 21
205.45518617372255
  0
LINE
  8
_1-4_
  6
CONTINUOUS
 62
    7
 10
217.20272579708617
 20
205.45518617372255
 11
214.60094555004224
 21
205.45518617372255
  0
LINE
  8
_1-4_
  6
CONTINUOUS
 62
    7
 10
225.71091935441302
 20
167.0086669921875
 11
227.93817468591641
 21
160.88933171452703
  0
LINE
  8
_1-4_
  6
CONTINUOUS
 62
    7
 10
227.93817468591641
 20
160.88933171452703
 11
240.93445649018159
 21
162.77810174065669
  0
LINE
  8
_1-4_
  6
CONTINUOUS
 62
    7
 10
246.85529554212417
 20
189.18011639569258
 11
246.85529554212417
 21
185.75785044077281
  0
LINE
  8
_1-4_
  6
CONTINUOUS
 62
    7
 10
246.85529554212417
 20
185.75785044077281
 11
249.25528861380914
 21
185.75785044077281
  0
LINE
  8
_1-4_
  6
CONTINUOUS
 62
    7
 10
249.25528861380914
 20
188.25553275443414
 11
249.25528861380914
 21
185.75785044077281
  0
LINE
  8
_1-4_
  6
CONTINUOUS
 62
    7
 10
263.64683408994932
 20
185.6174778293919
 11
276.48648648648651
 21
185.6174778293919
  0
LINE
  8
_1-4_
  6
CONTINUOUS
 62
    7
 10
263.64683408994932
 20
215.6174778293919
 11
276.48648648648651
 21
215.6174778293919
  0
CIRCLE
  8
_1-1_
  6
CONTINUOUS
 62
    7
 10
249.77936615815034
 20
173.85010590424409
 40
0.0608883012790937
  0
CIRCLE
  8
_1-1_
  6
CONTINUOUS
 62
    7
 10
248.90714078336151
 20
172.29417955553211
 40
0.0608883012790937
  0
CIRCLE
  8
_1-1_
  6
CONTINUOUS
 62
    7
 10
248.10729155669344
 20
171.38006261877112
 40
0.0608883012790937
  0
CIRCLE
  8
_1-1_
  6
CONTINUOUS
 62
    7
 10
240.10874980204815
 20
167.95211791992187
 40
0.0608883012790937
  0
CIRCLE
  8
_1-1_
  6
CONTINUOUS
 62
    7
 10
241.02286673880914
 20
169.09475790487755
 40
0.0608883012790937
  0
CIRCLE
  8
_1-1_
  6
CONTINUOUS
 62
    7
 10
251.19244549725508
 20
178.58765060837206
 40
0.0608883012790937
  0
CIRCLE
  8
_1-1_
  6
CONTINUOUS
 62
    7
 10
249.59274704391893
 20
176.4166259765625
 40
0.0608883012790937
  0
CIRCLE
  8
_1-1_
  6
CONTINUOUS
 62
    7
 10
249.93552543021539
 20
173.90278584248313
 40
0.0608883012790937
  0
CIRCLE
  8
_1-1_
  6
CONTINUOUS
 62
    7
 10
248.90714078336151
 20
175.72212425438136
 40
0.0608883012790937
  0
CIRCLE
  8
_1-1_
  6
CONTINUOUS
 62
    7
 10
249.70701475401185
 20
174.92226265572214
 40
0.0608883012790937
  0
CIRCLE
  8
_1-1_
  6
CONTINUOUS
 62
    7
 10
247.65024546030406
 20
173.43683191247891
 40
0.0608883012790937
  0
CIRCLE
  8
_1-1_
  6
CONTINUOUS
 62
    7
 10
247.76451317039698
 20
172.75123802391261
 40
0.0608883012790937
  0
CIRCLE
  8
_1-1_
  6
CONTINUOUS
 62
    7
 10
247.07890690983953
 20
169.55182874524917
 40
0.0608883012790937
  0
CIRCLE
  8
_1-1_
  6
CONTINUOUS
 62
    7
 10
247.19317461993245
 20
167.83785020982899
 40
0.0608883012790937
  0
CIRCLE
  8
_1-1_
  6
CONTINUOUS
 62
    7
 10
246.50759310335727
 20
168.18064096811656
 40
0.0608883012790937
  0
CIRCLE
  8
_1-1_
  6
CONTINUOUS
 62
    7
 10
244.2222883894637
 20
168.40917638830237
 40
0.0608883012790937
  0
CIRCLE
  8
_1-1_
  6
CONTINUOUS
 62
    7
 10
242.85110061233109
 20
168.18064096811656
 40
0.0608883012790937
  0
CIRCLE
  8
_1-1_
  6
CONTINUOUS
 62
    7
 10
239.83921360325169
 20
169.60397668786953
 40
0.0608883012790937
  0
CIRCLE
  8
_1-1_
  6
CONTINUOUS
 62
    7
 10
239.77171201963685
 20
169.36777063318203
 40
0.0608883012790937
  0
CIRCLE
  8
_1-1_
  6
CONTINUOUS
 62
    7
 10
239.56925675675677
 20
168.76040484454182
 40
0.0608883012790937
  0
CIRCLE
  8
_1-1_
  6
CONTINUOUS
 62
    7
 10
239.6704843881968
 20
168.18677747571792
 40
0.0608883012790937
  0
CIRCLE
  8
_1-1_
  6
CONTINUOUS
 62
    7
 10
239.87293965107688
 20
166.60087379249367
 40
0.0608883012790937
  0
CIRCLE
  8
_1-1_
  6
CONTINUOUS
 62
    7
 10
240.88521596547722
 20
167.61316247888516
 40
0.0608883012790937
  0
CIRCLE
  8
_1-1_
  6
CONTINUOUS
 62
    7
 10
241.52633254592484
 20
168.32175589896539
 40
0.0608883012790937
  0
CIRCLE
  8
_1-1_
  6
CONTINUOUS
 62
    7
 10
243.34842991184544
 20
167.81561774176521
 40
0.0608883012790937
  0
CIRCLE
  8
_1-1_
  6
CONTINUOUS
 62
    7
 10
242.06622149493245
 20
169.53648747624578
 40
0.0608883012790937
  0
CIRCLE
  8
_1-1_
  6
CONTINUOUS
 62
    7
 10
247.74607890361065
 20
174.18146494272594
 40
0.0608883012790937
  0
CIRCLE
  8
_1-1_
  6
CONTINUOUS
 62
    7
 10
248.37608543602198
 20
172.60706721125422
 40
0.0608883012790937
  0
CIRCLE
  8
_1-1_
  6
CONTINUOUS
 62
    7
 10
248.47731306746201
 20
173.01197773701438
 40
0.0608883012790937
  0
CIRCLE
  8
_1-1_
  6
CONTINUOUS
 62
    7
 10
247.80244569520693
 20
173.88928800015836
 40
0.0608883012790937
  0
CIRCLE
  8
_1-1_
  6
CONTINUOUS
 62
    7
 10
248.48102466480154
 20
169.65897018845018
 40
0.0608883012790937
  0
CIRCLE
  8
_1-1_
  6
CONTINUOUS
 62
    7
 10
248.25248924461573
 20
168.97337629988388
 40
0.0608883012790937
  0
CIRCLE
  8
_1-1_
  6
CONTINUOUS
 62
    7
 10
249.11103119721284
 20
168.08457245697846
 40
0.0608883012790937
  0
CIRCLE
  8
_1-1_
  6
CONTINUOUS
 62
    7
 10
248.53739145639781
 20
169.3667932458826
 40
0.0608883012790937
  0
CIRCLE
  8
_1-1_
  6
CONTINUOUS
 62
    7
 10
247.55886593380492
 20
169.67047614020271
 40
0.0608883012790937
  0
CIRCLE
  8
_1-1_
  6
CONTINUOUS
 62
    7
 10
247.41351978198904
 20
166.87591552734375
 40
0.0608883012790937
  0
CIRCLE
  8
_1-1_
  6
CONTINUOUS
 62
    7
 10
246.95647368559969
 20
165.73326317039698
 40
0.0608883012790937
  0
CIRCLE
  8
_1-1_
  6
CONTINUOUS
 62
    7
 10
248.27206173458617
 20
165.98711168443836
 40
0.0608883012790937
  0
CIRCLE
  8
_1-1_
  6
CONTINUOUS
 62
    7
 10
248.3732893660262
 20
166.39202221019849
 40
0.0608883012790937
  0
CIRCLE
  8
_1-1_
  6
CONTINUOUS
 62
    7
 10
247.69842199377112
 20
167.2693324733425
 40
0.0608883012790937
  0
CIRCLE
  8
_1-1_
  6
CONTINUOUS
 62
    7
 10
246.71989647117823
 20
167.57301536766261
 40
0.0608883012790937
  0
CIRCLE
  8
_1-1_
  6
CONTINUOUS
 62
    7
 10
250.7882525469806
 20
166.827392578125
 40
0.0608883012790937
  0
CIRCLE
  8
_1-1_
  6
CONTINUOUS
 62
    7
 10
250.55971712679477
 20
166.1417986895587
 40
0.0608883012790937
  0
CIRCLE
  8
_1-1_
  6
CONTINUOUS
 62
    7
 10
250.10267103040542
 20
164.99914633261193
 40
0.0608883012790937
  0
CIRCLE
  8
_1-1_
  6
CONTINUOUS
 62
    7
 10
251.4182590793919
 20
165.25299484665331
 40
0.0608883012790937
  0
CIRCLE
  8
_1-1_
  6
CONTINUOUS
 62
    7
 10
251.51948671083193
 20
165.65790537241344
 40
0.0608883012790937
  0
CIRCLE
  8
_1-1_
  6
CONTINUOUS
 62
    7
 10
250.84461933857688
 20
166.53521563555745
 40
0.0608883012790937
  0
CIRCLE
  8
_1-1_
  6
CONTINUOUS
 62
    7
 10
249.86609381598396
 20
166.83889852987755
 40
0.0608883012790937
  0
CIRCLE
  8
_1-1_
  6
CONTINUOUS
 62
    7
 10
251.62722200960727
 20
169.2394730851457
 40
0.0608883012790937
  0
CIRCLE
  8
_1-1_
  6
CONTINUOUS
 62
    7
 10
251.39868658942146
 20
168.5538791965794
 40
0.0608883012790937
  0
CIRCLE
  8
_1-1_
  6
CONTINUOUS
 62
    7
 10
250.94164049303211
 20
167.4112268396326
 40
0.0608883012790937
  0
CIRCLE
  8
_1-1_
  6
CONTINUOUS
 62
    7
 10
252.25722854201859
 20
167.66507535367398
 40
0.0608883012790937
  0
CIRCLE
  8
_1-1_
  6
CONTINUOUS
 62
    7
 10
252.35845617345862
 20
168.06998587943414
 40
0.0608883012790937
  0
CIRCLE
  8
_1-1_
  6
CONTINUOUS
 62
    7
 10
251.68358880120357
 20
168.94729614257812
 40
0.0608883012790937
  0
CIRCLE
  8
_1-1_
  6
CONTINUOUS
 62
    7
 10
250.70506327861065
 20
169.25097903689823
 40
0.0608883012790937
  0
CIRCLE
  8
_1-1_
  6
CONTINUOUS
 62
    7
 10
251.83697674725508
 20
171.33693385768581
 40
0.0608883012790937
  0
CIRCLE
  8
_1-1_
  6
CONTINUOUS
 62
    7
 10
251.60844132706927
 20
170.65133996911953
 40
0.0608883012790937
  0
CIRCLE
  8
_1-1_
  6
CONTINUOUS
 62
    7
 10
251.15139523067992
 20
169.50868761217274
 40
0.0608883012790937
  0
CIRCLE
  8
_1-1_
  6
CONTINUOUS
 62
    7
 10
252.46698327966641
 20
169.76253612621412
 40
0.0608883012790937
  0
CIRCLE
  8
_1-1_
  6
CONTINUOUS
 62
    7
 10
252.56821091110643
 20
170.16744665197425
 40
0.0608883012790937
  0
CIRCLE
  8
_1-1_
  6
CONTINUOUS
 62
    7
 10
251.89334353885135
 20
171.04475691511826
 40
0.0608883012790937
  0
CIRCLE
  8
_1-1_
  6
CONTINUOUS
 62
    7
 10
250.91481801625847
 20
171.34843980943836
 40
0.0608883012790937
  0
CIRCLE
  8
_1-1_
  6
CONTINUOUS
 62
    7
 10
251.31260227512669
 20
172.9100325300887
 40
0.0608883012790937
  0
CIRCLE
  8
_1-1_
  6
CONTINUOUS
 62
    7
 10
251.08406685494089
 20
172.2244386415224
 40
0.0608883012790937
  0
CIRCLE
  8
_1-1_
  6
CONTINUOUS
 62
    7
 10
250.62702075855154
 20
171.0817862845756
 40
0.0608883012790937
  0
CIRCLE
  8
_1-1_
  6
CONTINUOUS
 62
    7
 10
251.94260880753802
 20
171.33563479861698
 40
0.0608883012790937
  0
CIRCLE
  8
_1-1_
  6
CONTINUOUS
 62
    7
 10
252.04383643897805
 20
171.74054532437711
 40
0.0608883012790937
  0
CIRCLE
  8
_1-1_
  6
CONTINUOUS
 62
    7
 10
251.368969066723
 20
172.61785558752112
 40
0.0608883012790937
  0
CIRCLE
  8
_1-1_
  6
CONTINUOUS
 62
    7
 10
250.39044354413008
 20
172.92153848184122
 40
0.0608883012790937
  0
CIRCLE
  8
_1-1_
  6
CONTINUOUS
 62
    7
 10
252.25646147856844
 20
176.79034671267948
 40
0.0608883012790937
  0
CIRCLE
  8
_1-1_
  6
CONTINUOUS
 62
    7
 10
252.0279260583826
 20
176.10475282411318
 40
0.0608883012790937
  0
CIRCLE
  8
_1-1_
  6
CONTINUOUS
 62
    7
 10
251.57087996199326
 20
174.96210046716641
 40
0.0608883012790937
  0
CIRCLE
  8
_1-1_
  6
CONTINUOUS
 62
    7
 10
252.88646801097974
 20
175.21594898120779
 40
0.0608883012790937
  0
CIRCLE
  8
_1-1_
  6
CONTINUOUS
 62
    7
 10
252.98769564241977
 20
175.62085950696792
 40
0.0608883012790937
  0
CIRCLE
  8
_1-1_
  6
CONTINUOUS
 62
    7
 10
252.31282827016472
 20
176.49816977011193
 40
0.0608883012790937
  0
CIRCLE
  8
_1-1_
  6
CONTINUOUS
 62
    7
 10
251.3343027475718
 20
176.80185266443203
 40
0.0608883012790937
  0
CIRCLE
  8
_1-1_
  6
CONTINUOUS
 62
    7
 10
248.58591440561656
 20
174.79256707268794
 40
0.0608883012790937
  0
CIRCLE
  8
_1-1_
  6
CONTINUOUS
 62
    7
 10
248.35737898543076
 20
174.10697318412164
 40
0.0608883012790937
  0
CIRCLE
  8
_1-1_
  6
CONTINUOUS
 62
    7
 10
249.31714856946792
 20
173.62307986697635
 40
0.0608883012790937
  0
CIRCLE
  8
_1-1_
  6
CONTINUOUS
 62
    7
 10
248.64228119721284
 20
174.50039013012037
 40
0.0608883012790937
  0
CIRCLE
  8
_1-1_
  6
CONTINUOUS
 62
    7
 10
247.66375567461995
 20
174.80407302444047
 40
0.0608883012790937
  0
CIRCLE
  8
_1-1_
  6
CONTINUOUS
 62
    7
 10
250.26387807485222
 20
179.0923783585832
 40
0.0608883012790937
  0
CIRCLE
  8
_1-1_
  6
CONTINUOUS
 62
    7
 10
250.03534265466641
 20
178.4067844700169
 40
0.0608883012790937
  0
CIRCLE
  8
_1-1_
  6
CONTINUOUS
 62
    7
 10
250.89388460726352
 20
177.51798062711148
 40
0.0608883012790937
  0
CIRCLE
  8
_1-1_
  6
CONTINUOUS
 62
    7
 10
250.99511223870357
 20
177.92289115287164
 40
0.0608883012790937
  0
CIRCLE
  8
_1-1_
  6
CONTINUOUS
 62
    7
 10
250.32024486644849
 20
178.80020141601562
 40
0.0608883012790937
  0
CIRCLE
  8
_1-1_
  6
CONTINUOUS
 62
    7
 10
250.89311754381336
 20
176.99490521405195
 40
0.0608883012790937
  0
CIRCLE
  8
_1-1_
  6
CONTINUOUS
 62
    7
 10
250.66458212362755
 20
176.30931132548565
 40
0.0608883012790937
  0
CIRCLE
  8
_1-1_
  6
CONTINUOUS
 62
    7
 10
250.20753602723818
 20
175.16665896853885
 40
0.0608883012790937
  0
CIRCLE
  8
_1-1_
  6
CONTINUOUS
 62
    7
 10
251.52312407622469
 20
175.42050748258023
 40
0.0608883012790937
  0
CIRCLE
  8
_1-1_
  6
CONTINUOUS
 62
    7
 10
251.62435170766472
 20
175.82541800834039
 40
0.0608883012790937
  0
CIRCLE
  8
_1-1_
  6
CONTINUOUS
 62
    7
 10
250.94948433540964
 20
176.70272827148437
 40
0.0608883012790937
  0
CIRCLE
  8
_1-1_
  6
CONTINUOUS
 62
    7
 10
249.97095881281675
 20
177.00641116580448
 40
0.0608883012790937
  0
CIRCLE
  8
_1-1_
  6
CONTINUOUS
 62
    7
 10
252.04673148490289
 20
176.99490521405195
 40
0.0608883012790937
  0
CIRCLE
  8
_1-1_
  6
CONTINUOUS
 62
    7
 10
251.81819606471709
 20
176.30931132548565
 40
0.0608883012790937
  0
CIRCLE
  8
_1-1_
  6
CONTINUOUS
 62
    7
 10
251.36114996832771
 20
175.16665896853885
 40
0.0608883012790937
  0
CIRCLE
  8
_1-1_
  6
CONTINUOUS
 62
    7
 10
252.67673801731419
 20
175.42050748258023
 40
0.0608883012790937
  0
CIRCLE
  8
_1-1_
  6
CONTINUOUS
 62
    7
 10
252.77796564875425
 20
175.82541800834039
 40
0.0608883012790937
  0
CIRCLE
  8
_1-1_
  6
CONTINUOUS
 62
    7
 10
252.10309827649917
 20
176.70272827148437
 40
0.0608883012790937
  0
CIRCLE
  8
_1-1_
  6
CONTINUOUS
 62
    7
 10
251.12457275390625
 20
177.00641116580448
 40
0.0608883012790937
  0
CIRCLE
  8
_1-1_
  6
CONTINUOUS
 62
    7
 10
252.57108121304901
 20
174.79256707268794
 40
0.0608883012790937
  0
CIRCLE
  8
_1-1_
  6
CONTINUOUS
 62
    7
 10
252.34254579286318
 20
174.10697318412164
 40
0.0608883012790937
  0
CIRCLE
  8
_1-1_
  6
CONTINUOUS
 62
    7
 10
251.88549969647383
 20
176.9546838708826
 40
0.0608883012790937
  0
CIRCLE
  8
_1-1_
  6
CONTINUOUS
 62
    7
 10
253.20108774546031
 20
177.20853238492398
 40
0.0608883012790937
  0
CIRCLE
  8
_1-1_
  6
CONTINUOUS
 62
    7
 10
253.30231537690034
 20
173.62307986697635
 40
0.0608883012790937
  0
CIRCLE
  8
_1-1_
  6
CONTINUOUS
 62
    7
 10
252.62744800464529
 20
174.50039013012037
 40
0.0608883012790937
  0
CIRCLE
  8
_1-1_
  6
CONTINUOUS
 62
    7
 10
251.64892248205237
 20
174.80407302444047
 40
0.0608883012790937
  0
CIRCLE
  8
_1-1_
  6
CONTINUOUS
 62
    7
 10
248.27206173458617
 20
170.60153033282307
 40
0.0608883012790937
  0
CIRCLE
  8
_1-1_
  6
CONTINUOUS
 62
    7
 10
248.3732893660262
 20
171.0064408585832
 40
0.0608883012790937
  0
CIRCLE
  8
_1-1_
  6
CONTINUOUS
 62
    7
 10
247.69842199377112
 20
171.88375112172722
 40
0.0608883012790937
  0
CIRCLE
  8
_1-1_
  6
CONTINUOUS
 62
    7
 10
248.48102466480154
 20
168.1907488848712
 40
0.0608883012790937
  0
CIRCLE
  8
_1-1_
  6
CONTINUOUS
 62
    7
 10
248.25248924461573
 20
167.5051549963049
 40
0.0608883012790937
  0
CIRCLE
  8
_1-1_
  6
CONTINUOUS
 62
    7
 10
247.79544314822635
 20
166.36250263935813
 40
0.0608883012790937
  0
CIRCLE
  8
_1-1_
  6
CONTINUOUS
 62
    7
 10
249.11103119721284
 20
166.61635115339951
 40
0.0608883012790937
  0
CIRCLE
  8
_1-1_
  6
CONTINUOUS
 62
    7
 10
249.21225882865289
 20
167.02126167915964
 40
0.0608883012790937
  0
CIRCLE
  8
_1-1_
  6
CONTINUOUS
 62
    7
 10
248.53739145639781
 20
167.89857194230365
 40
0.0608883012790937
  0
CIRCLE
  8
_1-1_
  6
CONTINUOUS
 62
    7
 10
247.55886593380492
 20
168.20225483662375
 40
0.0608883012790937
  0
CIRCLE
  8
_1-1_
  6
CONTINUOUS
 62
    7
 10
247.95667493665542
 20
166.19815310916385
 40
0.0608883012790937
  0
CIRCLE
  8
_1-1_
  6
CONTINUOUS
 62
    7
 10
247.72813951646961
 20
165.51255922059755
 40
0.0608883012790937
  0
CIRCLE
  8
_1-1_
  6
CONTINUOUS
 62
    7
 10
247.27109342008026
 20
164.36990686365078
 40
0.0608883012790937
  0
CIRCLE
  8
_1-1_
  6
CONTINUOUS
 62
    7
 10
248.58668146906675
 20
164.62375537769216
 40
0.0608883012790937
  0
CIRCLE
  8
_1-1_
  6
CONTINUOUS
 62
    7
 10
248.68790910050677
 20
165.02866590345229
 40
0.0608883012790937
  0
CIRCLE
  8
_1-1_
  6
CONTINUOUS
 62
    7
 10
248.01304172825169
 20
165.9059761665963
 40
0.0608883012790937
  0
CIRCLE
  8
_1-1_
  6
CONTINUOUS
 62
    7
 10
247.0345162056588
 20
166.20965906091641
 40
0.0608883012790937
  0
CIRCLE
  8
_1-1_
  6
CONTINUOUS
 62
    7
 10
248.58591440561656
 20
164.10069233662375
 40
0.0608883012790937
  0
CIRCLE
  8
_1-1_
  6
CONTINUOUS
 62
    7
 10
248.35737898543076
 20
163.41509844805745
 40
0.0608883012790937
  0
CIRCLE
  8
_1-1_
  6
CONTINUOUS
 62
    7
 10
247.90033288904141
 20
162.27244609111065
 40
0.0608883012790937
  0
CIRCLE
  8
_1-1_
  6
CONTINUOUS
 62
    7
 10
249.21592093802789
 20
162.52629460515203
 40
0.0608883012790937
  0
CIRCLE
  8
_1-1_
  6
CONTINUOUS
 62
    7
 10
249.31714856946792
 20
162.93120513091216
 40
0.0608883012790937
  0
CIRCLE
  8
_1-1_
  6
CONTINUOUS
 62
    7
 10
248.64228119721284
 20
163.80851539405617
 40
0.0608883012790937
  0
CIRCLE
  8
_1-1_
  6
CONTINUOUS
 62
    7
 10
247.66375567461995
 20
164.11219828837628
 40
0.0608883012790937
  0
CIRCLE
  8
_1-1_
  6
CONTINUOUS
 62
    7
 10
249.21515387457771
 20
163.47145286766261
 40
0.0608883012790937
  0
CIRCLE
  8
_1-1_
  6
CONTINUOUS
 62
    7
 10
248.9866184543919
 20
162.7858589790963
 40
0.0608883012790937
  0
CIRCLE
  8
_1-1_
  6
CONTINUOUS
 62
    7
 10
249.94638803842906
 20
162.30196566195102
 40
0.0608883012790937
  0
CIRCLE
  8
_1-1_
  6
CONTINUOUS
 62
    7
 10
249.27152066617401
 20
163.17927592509503
 40
0.0608883012790937
  0
CIRCLE
  8
_1-1_
  6
CONTINUOUS
 62
    7
 10
248.29299514358109
 20
163.48295881941513
 40
0.0608883012790937
  0
CIRCLE
  8
_1-1_
  6
CONTINUOUS
 62
    7
 10
250.68336280616555
 20
163.3665754988387
 40
0.0608883012790937
  0
CIRCLE
  8
_1-1_
  6
CONTINUOUS
 62
    7
 10
250.45482738597974
 20
162.6809816102724
 40
0.0608883012790937
  0
CIRCLE
  8
_1-1_
  6
CONTINUOUS
 62
    7
 10
251.31336933857688
 20
153.68406965925888
 40
0.0608883012790937
  0
CIRCLE
  8
_1-1_
  6
CONTINUOUS
 62
    7
 10
250.73972959776185
 20
163.07439855627112
 40
0.0608883012790937
  0
CIRCLE
  8
_1-1_
  6
CONTINUOUS
 62
    7
 10
249.76120407516893
 20
163.37808145059122
 40
0.0608883012790937
  0
CIRCLE
  8
_1-1_
  6
CONTINUOUS
 62
    7
 10
251.41749201594175
 20
163.68119523331927
 40
0.0608883012790937
  0
CIRCLE
  8
_1-1_
  6
CONTINUOUS
 62
    7
 10
251.18895659575594
 20
162.99560134475297
 40
0.0608883012790937
  0
CIRCLE
  8
_1-1_
  6
CONTINUOUS
 62
    7
 10
252.04749854835305
 20
153.99868939373945
 40
0.0608883012790937
  0
CIRCLE
  8
_1-1_
  6
CONTINUOUS
 62
    7
 10
252.1487261797931
 20
162.51170802760768
 40
0.0608883012790937
  0
CIRCLE
  8
_1-1_
  6
CONTINUOUS
 62
    7
 10
251.47385880753802
 20
163.38901829075169
 40
0.0608883012790937
  0
CIRCLE
  8
_1-1_
  6
CONTINUOUS
 62
    7
 10
250.4953332849451
 20
163.6927011850718
 40
0.0608883012790937
  0
CIRCLE
  8
_1-1_
  6
CONTINUOUS
 62
    7
 10
250.68336280616555
 20
166.72251520930109
 40
0.0608883012790937
  0
CIRCLE
  8
_1-1_
  6
CONTINUOUS
 62
    7
 10
250.45482738597974
 20
166.03692132073482
 40
0.0608883012790937
  0
CIRCLE
  8
_1-1_
  6
CONTINUOUS
 62
    7
 10
249.99778128959039
 20
164.89426896378802
 40
0.0608883012790937
  0
CIRCLE
  8
_1-1_
  6
CONTINUOUS
 62
    7
 10
251.31336933857688
 20
165.1481174778294
 40
0.0608883012790937
  0
CIRCLE
  8
_1-1_
  6
CONTINUOUS
 62
    7
 10
251.4145969700169
 20
165.55302800358953
 40
0.0608883012790937
  0
CIRCLE
  8
_1-1_
  6
CONTINUOUS
 62
    7
 10
250.73972959776185
 20
166.43033826673354
 40
0.0608883012790937
  0
CIRCLE
  8
_1-1_
  6
CONTINUOUS
 62
    7
 10
249.76120407516893
 20
166.73402116105365
 40
0.0608883012790937
  0
CIRCLE
  8
_1-1_
  6
CONTINUOUS
 62
    7
 10
241.1884287241343
 20
169.50868761217274
 40
0.0608883012790937
  0
CIRCLE
  8
_1-1_
  6
CONTINUOUS
 62
    7
 10
242.50401677312078
 20
169.76253612621412
 40
0.0608883012790937
  0
CIRCLE
  8
_1-1_
  6
CONTINUOUS
 62
    7
 10
244.70558785103464
 20
169.76384755727409
 40
0.0608883012790937
  0
CIRCLE
  8
_1-1_
  6
CONTINUOUS
 62
    7
 10
244.47705243084883
 20
169.07825366870779
 40
0.0608883012790937
  0
CIRCLE
  8
_1-1_
  6
CONTINUOUS
 62
    7
 10
244.02000633445948
 20
167.93560131176099
 40
0.0608883012790937
  0
CIRCLE
  8
_1-1_
  6
CONTINUOUS
 62
    7
 10
245.33559438344597
 20
168.18944982580237
 40
0.0608883012790937
  0
CIRCLE
  8
_1-1_
  6
CONTINUOUS
 62
    7
 10
245.43682201488599
 20
168.5943603515625
 40
0.0608883012790937
  0
CIRCLE
  8
_1-1_
  6
CONTINUOUS
 62
    7
 10
244.76195464263094
 20
169.47167061470651
 40
0.0608883012790937
  0
CIRCLE
  8
_1-1_
  6
CONTINUOUS
 62
    7
 10
243.78342912003802
 20
169.77535350902662
 40
0.0608883012790937
  0
CIRCLE
  8
_1-1_
  6
CONTINUOUS
 62
    7
 10
245.48824001002959
 20
168.98432551203547
 40
0.0608883012790937
  0
CIRCLE
  8
_1-1_
  6
CONTINUOUS
 62
    7
 10
246.80382805901607
 20
169.23817402607688
 40
0.0608883012790937
  0
CIRCLE
  8
_1-1_
  6
CONTINUOUS
 62
    7
 10
246.90505569045609
 20
169.64308455183701
 40
0.0608883012790937
  0
CIRCLE
  8
_1-1_
  6
CONTINUOUS
 62
    7
 10
248.90053414009714
 20
173.43440700221706
 40
0.0608883012790937
  0
CIRCLE
  8
_1-1_
  6
CONTINUOUS
 62
    7
 10
248.67199871991133
 20
172.74881311365078
 40
0.0608883012790937
  0
CIRCLE
  8
_1-1_
  6
CONTINUOUS
 62
    7
 10
248.21495262352198
 20
171.60616075670399
 40
0.0608883012790937
  0
CIRCLE
  8
_1-1_
  6
CONTINUOUS
 62
    7
 10
249.53054067250847
 20
171.86000927074537
 40
0.0608883012790937
  0
CIRCLE
  8
_1-1_
  6
CONTINUOUS
 62
    7
 10
249.63176830394849
 20
172.2649197965055
 40
0.0608883012790937
  0
CIRCLE
  8
_1-1_
  6
CONTINUOUS
 62
    7
 10
248.95690093169344
 20
173.14223005964951
 40
0.0608883012790937
  0
CIRCLE
  8
_1-1_
  6
CONTINUOUS
 62
    7
 10
247.97837540910052
 20
173.44591295396961
 40
0.0608883012790937
  0
CIRCLE
  8
_1-1_
  6
CONTINUOUS
 62
    7
 10
249.94925834037164
 20
174.90262830579604
 40
0.0608883012790937
  0
CIRCLE
  8
_1-1_
  6
CONTINUOUS
 62
    7
 10
249.72072292018584
 20
174.21703441722974
 40
0.0608883012790937
  0
CIRCLE
  8
_1-1_
  6
CONTINUOUS
 62
    7
 10
249.26367682379646
 20
173.07438206028294
 40
0.0608883012790937
  0
CIRCLE
  8
_1-1_
  6
CONTINUOUS
 62
    7
 10
250.57926487278294
 20
173.32823057432432
 40
0.0608883012790937
  0
CIRCLE
  8
_1-1_
  6
CONTINUOUS
 62
    7
 10
250.680492504223
 20
173.73314110008448
 40
0.0608883012790937
  0
CIRCLE
  8
_1-1_
  6
CONTINUOUS
 62
    7
 10
250.00562513196792
 20
174.61045136322846
 40
0.0608883012790937
  0
CIRCLE
  8
_1-1_
  6
CONTINUOUS
 62
    7
 10
249.027099609375
 20
174.91413425754857
 40
0.0608883012790937
  0
CIRCLE
  8
_1-1_
  6
CONTINUOUS
 62
    7
 10
251.83697674725508
 20
174.3782662056588
 40
0.0608883012790937
  0
CIRCLE
  8
_1-1_
  6
CONTINUOUS
 62
    7
 10
251.60844132706927
 20
173.6926723170925
 40
0.0608883012790937
  0
CIRCLE
  8
_1-1_
  6
CONTINUOUS
 62
    7
 10
251.15139523067992
 20
172.5500199601457
 40
0.0608883012790937
  0
CIRCLE
  8
_1-1_
  6
CONTINUOUS
 62
    7
 10
252.46698327966641
 20
172.80386847418708
 40
0.0608883012790937
  0
CIRCLE
  8
_1-1_
  6
CONTINUOUS
 62
    7
 10
252.56821091110643
 20
173.20877899994721
 40
0.0608883012790937
  0
CIRCLE
  8
_1-1_
  6
CONTINUOUS
 62
    7
 10
251.89334353885135
 20
174.08608926309122
 40
0.0608883012790937
  0
CIRCLE
  8
_1-1_
  6
CONTINUOUS
 62
    7
 10
250.91481801625847
 20
174.38977215741133
 40
0.0608883012790937
  0
CIRCLE
  8
_1-1_
  6
CONTINUOUS
 62
    7
 10
251.31260227512669
 20
175.63156127929687
 40
0.0608883012790937
  0
CIRCLE
  8
_1-1_
  6
CONTINUOUS
 62
    7
 10
251.08406685494089
 20
174.94596739073057
 40
0.0608883012790937
  0
CIRCLE
  8
_1-1_
  6
CONTINUOUS
 62
    7
 10
250.62702075855154
 20
173.8033150337838
 40
0.0608883012790937
  0
CIRCLE
  8
_1-1_
  6
CONTINUOUS
 62
    7
 10
251.94260880753802
 20
174.05716354782518
 40
0.0608883012790937
  0
CIRCLE
  8
_1-1_
  6
CONTINUOUS
 62
    7
 10
252.04383643897805
 20
174.46207407358531
 40
0.0608883012790937
  0
CIRCLE
  8
_1-1_
  6
CONTINUOUS
 62
    7
 10
251.368969066723
 20
175.33938433672932
 40
0.0608883012790937
  0
CIRCLE
  8
_1-1_
  6
CONTINUOUS
 62
    7
 10
250.39044354413008
 20
175.64306723104943
 40
0.0608883012790937
  0
CIRCLE
  8
_1-1_
  6
CONTINUOUS
 62
    7
 10
251.62722200960727
 20
179.40699809306378
 40
0.0608883012790937
  0
CIRCLE
  8
_1-1_
  6
CONTINUOUS
 62
    7
 10
251.39868658942146
 20
178.72140420449747
 40
0.0608883012790937
  0
CIRCLE
  8
_1-1_
  6
CONTINUOUS
 62
    7
 10
250.94164049303211
 20
177.57875184755068
 40
0.0608883012790937
  0
CIRCLE
  8
_1-1_
  6
CONTINUOUS
 62
    7
 10
252.25722854201859
 20
177.83260036159206
 40
0.0608883012790937
  0
CIRCLE
  8
_1-1_
  6
CONTINUOUS
 62
    7
 10
252.35845617345862
 20
178.23751088735222
 40
0.0608883012790937
  0
CIRCLE
  8
_1-1_
  6
CONTINUOUS
 62
    7
 10
251.68358880120357
 20
179.1148211504962
 40
0.0608883012790937
  0
CIRCLE
  8
_1-1_
  6
CONTINUOUS
 62
    7
 10
250.70506327861065
 20
179.4185040448163
 40
0.0608883012790937
  0
CIRCLE
  8
_1-1_
  6
CONTINUOUS
 62
    7
 10
251.94184174408784
 20
182.13369833456505
 40
0.0608883012790937
  0
CIRCLE
  8
_1-1_
  6
CONTINUOUS
 62
    7
 10
251.71330632390203
 20
181.44810444599875
 40
0.0608883012790937
  0
CIRCLE
  8
_1-1_
  6
CONTINUOUS
 62
    7
 10
251.25626022751268
 20
180.30545208905195
 40
0.0608883012790937
  0
CIRCLE
  8
_1-1_
  6
CONTINUOUS
 62
    7
 10
252.57184827649917
 20
180.55930060309333
 40
0.0608883012790937
  0
CIRCLE
  8
_1-1_
  6
CONTINUOUS
 62
    7
 10
252.67307590793919
 20
180.96421112885346
 40
0.0608883012790937
  0
CIRCLE
  8
_1-1_
  6
CONTINUOUS
 62
    7
 10
251.99820853568414
 20
181.84152139199747
 40
0.0608883012790937
  0
CIRCLE
  8
_1-1_
  6
CONTINUOUS
 62
    7
 10
251.01968301309122
 20
182.14520428631758
 40
0.0608883012790937
  0
CIRCLE
  8
_1-1_
  6
CONTINUOUS
 62
    7
 10
252.57108121304901
 20
183.81167437579182
 40
0.0608883012790937
  0
CIRCLE
  8
_1-1_
  6
CONTINUOUS
 62
    7
 10
252.34254579286318
 20
183.12608048722552
 40
0.0608883012790937
  0
CIRCLE
  8
_1-1_
  6
CONTINUOUS
 62
    7
 10
251.88549969647383
 20
181.98342813027872
 40
0.0608883012790937
  0
CIRCLE
  8
_1-1_
  6
CONTINUOUS
 62
    7
 10
253.20108774546031
 20
182.2372766443201
 40
0.0608883012790937
  0
CIRCLE
  8
_1-1_
  6
CONTINUOUS
 62
    7
 10
253.30231537690034
 20
182.64218717008023
 40
0.0608883012790937
  0
CIRCLE
  8
_1-1_
  6
CONTINUOUS
 62
    7
 10
252.62744800464529
 20
183.51949743322425
 40
0.0608883012790937
  0
CIRCLE
  8
_1-1_
  6
CONTINUOUS
 62
    7
 10
251.64892248205237
 20
183.82318032754435
 40
0.0608883012790937
  0
CIRCLE
  8
_1-1_
  6
CONTINUOUS
 62
    7
 10
253.41007541965794
 20
179.0923783585832
 40
0.0608883012790937
  0
CIRCLE
  8
_1-1_
  6
CONTINUOUS
 62
    7
 10
253.18153999947214
 20
178.4067844700169
 40
0.0608883012790937
  0
CIRCLE
  8
_1-1_
  6
CONTINUOUS
 62
    7
 10
252.72449390308279
 20
177.2641321130701
 40
0.0608883012790937
  0
CIRCLE
  8
_1-1_
  6
CONTINUOUS
 62
    7
 10
254.04008195206927
 20
177.51798062711148
 40
0.0608883012790937
  0
CIRCLE
  8
_1-1_
  6
CONTINUOUS
 62
    7
 10
254.1413095835093
 20
177.92289115287164
 40
0.0608883012790937
  0
CIRCLE
  8
_1-1_
  6
CONTINUOUS
 62
    7
 10
253.46644221125425
 20
178.80020141601562
 40
0.0608883012790937
  0
CIRCLE
  8
_1-1_
  6
CONTINUOUS
 62
    7
 10
252.48791668866133
 20
179.10388431033573
 40
0.0608883012790937
  0
CIRCLE
  8
_1-1_
  6
CONTINUOUS
 62
    7
 10
251.83697674725508
 20
176.26080074825802
 40
0.0608883012790937
  0
CIRCLE
  8
_1-1_
  6
CONTINUOUS
 62
    7
 10
251.60844132706927
 20
175.57520685969175
 40
0.0608883012790937
  0
CIRCLE
  8
_1-1_
  6
CONTINUOUS
 62
    7
 10
251.15139523067992
 20
174.43255450274495
 40
0.0608883012790937
  0
CIRCLE
  8
_1-1_
  6
CONTINUOUS
 62
    7
 10
252.46698327966641
 20
174.68640301678633
 40
0.0608883012790937
  0
CIRCLE
  8
_1-1_
  6
CONTINUOUS
 62
    7
 10
252.56821091110643
 20
175.09131354254646
 40
0.0608883012790937
  0
CIRCLE
  8
_1-1_
  6
CONTINUOUS
 62
    7
 10
251.89334353885135
 20
175.96862380569047
 40
0.0608883012790937
  0
CIRCLE
  8
_1-1_
  6
CONTINUOUS
 62
    7
 10
250.91481801625847
 20
176.27230670001057
 40
0.0608883012790937
  0
CIRCLE
  8
_1-1_
  6
CONTINUOUS
 62
    7
 10
249.52977360905828
 20
175.00232181033573
 40
0.0608883012790937
  0
CIRCLE
  8
_1-1_
  6
CONTINUOUS
 62
    7
 10
249.30123818887247
 20
174.31672792176943
 40
0.0608883012790937
  0
CIRCLE
  8
_1-1_
  6
CONTINUOUS
 62
    7
 10
250.15978014146961
 20
173.42792407886404
 40
0.0608883012790937
  0
CIRCLE
  8
_1-1_
  6
CONTINUOUS
 62
    7
 10
250.26100777290964
 20
173.83283460462417
 40
0.0608883012790937
  0
CIRCLE
  8
_1-1_
  6
CONTINUOUS
 62
    7
 10
249.58614040065459
 20
174.71014486776818
 40
0.0608883012790937
  0
CIRCLE
  8
_1-1_
  6
CONTINUOUS
 62
    7
 10
248.60761487806167
 20
175.01382776208828
 40
0.0608883012790937
  0
CIRCLE
  8
_1-1_
  6
CONTINUOUS
 62
    7
 10
247.90033288904141
 20
174.54260336386193
 40
0.0608883012790937
  0
CIRCLE
  8
_1-1_
  6
CONTINUOUS
 62
    7
 10
249.21592093802789
 20
174.79645187790331
 40
0.0608883012790937
  0
CIRCLE
  8
_1-1_
  6
CONTINUOUS
 62
    7
 10
249.31714856946792
 20
175.20136240366344
 40
0.0608883012790937
  0
CIRCLE
  8
_1-1_
  6
CONTINUOUS
 62
    7
 10
242.76155214051943
 20
168.98432551203547
 40
0.0608883012790937
  0
ARC
  8
_1-1_
  6
CONTINUOUS
 62
    3
 10
255.64161146009292
 20
134.46958799619932
 40
41.612016832506335
 50
99
 51
128.5146484375
  0
ARC
  8
_1-1_
  6
CONTINUOUS
 62
    3
 10
257.98125395903719
 20
119.6977151406778
 40
60.168024011560391
 50
99
 51
118.9202880859375
  0
CIRCLE
  8
_1-1_
  6
CONTINUOUS
 62
    7
 10
244.72125079180745
 20
171.76264170053844
 40
0.0608883012790937
  0
CIRCLE
  8
_1-1_
  6
CONTINUOUS
 62
    7
 10
243.92140156513938
 20
170.84852476377745
 40
0.0608883012790937
  0
CIRCLE
  8
_1-1_
  6
CONTINUOUS
 62
    7
 10
243.46435546875
 20
172.90529405748524
 40
0.0608883012790937
  0
CIRCLE
  8
_1-1_
  6
CONTINUOUS
 62
    7
 10
243.57862317884292
 20
172.21970016891893
 40
0.0608883012790937
  0
CIRCLE
  8
_1-1_
  6
CONTINUOUS
 62
    7
 10
244.19019544446792
 20
172.07552935626057
 40
0.0608883012790937
  0
CIRCLE
  8
_1-1_
  6
CONTINUOUS
 62
    7
 10
244.29142307590794
 20
172.4804398820207
 40
0.0608883012790937
  0
CIRCLE
  8
_1-1_
  6
CONTINUOUS
 62
    7
 10
246.7289280247044
 20
170.81690195444469
 40
0.0608883012790937
  0
CIRCLE
  8
_1-1_
  6
CONTINUOUS
 62
    7
 10
247.12671228357266
 20
172.37849467509503
 40
0.0608883012790937
  0
CIRCLE
  8
_1-1_
  6
CONTINUOUS
 62
    7
 10
246.89817686338685
 20
171.69290078652872
 40
0.0608883012790937
  0
CIRCLE
  8
_1-1_
  6
CONTINUOUS
 62
    7
 10
247.18307907516893
 20
172.08631773252745
 40
0.0608883012790937
  0
CIRCLE
  8
_1-1_
  6
CONTINUOUS
 62
    7
 10
246.20455355257602
 20
172.39000062684755
 40
0.0608883012790937
  0
CIRCLE
  8
_1-1_
  6
CONTINUOUS
 62
    7
 10
245.13125857791385
 20
173.09154201198268
 40
0.0608883012790937
  0
CIRCLE
  8
_1-1_
  6
CONTINUOUS
 62
    7
 10
243.51253200221709
 20
171.35221326673354
 40
0.0608883012790937
  0
CIRCLE
  8
_1-1_
  6
CONTINUOUS
 62
    7
 10
244.7146441485431
 20
172.90286914722341
 40
0.0608883012790937
  0
CIRCLE
  8
_1-1_
  6
CONTINUOUS
 62
    7
 10
244.48610872835727
 20
172.21727525865711
 40
0.0608883012790937
  0
CIRCLE
  8
_1-1_
  6
CONTINUOUS
 62
    7
 10
244.02906263196792
 20
171.07462290171031
 40
0.0608883012790937
  0
CIRCLE
  8
_1-1_
  6
CONTINUOUS
 62
    7
 10
245.3446506809544
 20
171.32847141575169
 40
0.0608883012790937
  0
CIRCLE
  8
_1-1_
  6
CONTINUOUS
 62
    7
 10
245.44587831239443
 20
171.73338194151182
 40
0.0608883012790937
  0
CIRCLE
  8
_1-1_
  6
CONTINUOUS
 62
    7
 10
244.77101094013938
 20
172.61069220465583
 40
0.0608883012790937
  0
CIRCLE
  8
_1-1_
  6
CONTINUOUS
 62
    7
 10
243.79248541754646
 20
172.91437509897594
 40
0.0608883012790937
  0
CIRCLE
  8
_1-1_
  6
CONTINUOUS
 62
    7
 10
245.07778683224242
 20
172.54284420528927
 40
0.0608883012790937
  0
CIRCLE
  8
_1-1_
  6
CONTINUOUS
 62
    7
 10
246.39337488122891
 20
172.79669271933068
 40
0.0608883012790937
  0
CIRCLE
  8
_1-1_
  6
CONTINUOUS
 62
    7
 10
246.49460251266893
 20
173.20160324509081
 40
0.0608883012790937
  0
CIRCLE
  8
_1-1_
  6
CONTINUOUS
 62
    7
 10
247.42255133551521
 20
173.16113446209883
 40
0.0608883012790937
  0
CIRCLE
  8
_1-1_
  6
CONTINUOUS
 62
    7
 10
246.96550523912586
 20
172.01848210515203
 40
0.0608883012790937
  0
CIRCLE
  8
_1-1_
  6
CONTINUOUS
 62
    7
 10
246.44113076699747
 20
173.27177717879013
 40
0.0608883012790937
  0
CIRCLE
  8
_1-1_
  6
CONTINUOUS
 62
    7
 10
245.97389014991555
 20
172.89638622387037
 40
0.0608883012790937
  0
CIRCLE
  8
_1-1_
  6
CONTINUOUS
 62
    7
 10
246.0751177813556
 20
173.3012967496305
 40
0.0608883012790937
  0
CIRCLE
  8
_1-1_
  6
CONTINUOUS
 62
    7
 10
243.99038778769005
 20
166.18147566511826
 40
0.0608883012790937
  0
CIRCLE
  8
_1-1_
  6
CONTINUOUS
 62
    7
 10
243.19053856102198
 20
165.26735872835727
 40
0.0608883012790937
  0
CIRCLE
  8
_1-1_
  6
CONTINUOUS
 62
    7
 10
243.45933244035052
 20
166.49436332084039
 40
0.0608883012790937
  0
CIRCLE
  8
_1-1_
  6
CONTINUOUS
 62
    7
 10
245.99806502058701
 20
165.23573591902451
 40
0.0608883012790937
  0
CIRCLE
  8
_1-1_
  6
CONTINUOUS
 62
    7
 10
246.39584927945526
 20
166.79732863967484
 40
0.0608883012790937
  0
CIRCLE
  8
_1-1_
  6
CONTINUOUS
 62
    7
 10
246.16731385926943
 20
166.11173475110854
 40
0.0608883012790937
  0
CIRCLE
  8
_1-1_
  6
CONTINUOUS
 62
    7
 10
246.45221607105154
 20
166.50515169710727
 40
0.0608883012790937
  0
CIRCLE
  8
_1-1_
  6
CONTINUOUS
 62
    7
 10
245.47369054845862
 20
166.80883459142737
 40
0.0608883012790937
  0
CIRCLE
  8
_1-1_
  6
CONTINUOUS
 62
    7
 10
244.40039557379646
 20
167.5103759765625
 40
0.0608883012790937
  0
CIRCLE
  8
_1-1_
  6
CONTINUOUS
 62
    7
 10
242.78166899809969
 20
165.77104723131336
 40
0.0608883012790937
  0
CIRCLE
  8
_1-1_
  6
CONTINUOUS
 62
    7
 10
243.98378114442568
 20
167.32170311180323
 40
0.0608883012790937
  0
CIRCLE
  8
_1-1_
  6
CONTINUOUS
 62
    7
 10
243.75524572423987
 20
166.63610922323693
 40
0.0608883012790937
  0
CIRCLE
  8
_1-1_
  6
CONTINUOUS
 62
    7
 10
244.61378767683701
 20
165.74730538033151
 40
0.0608883012790937
  0
CIRCLE
  8
_1-1_
  6
CONTINUOUS
 62
    7
 10
244.71501530827703
 20
166.15221590609164
 40
0.0608883012790937
  0
CIRCLE
  8
_1-1_
  6
CONTINUOUS
 62
    7
 10
243.06162241342906
 20
167.33320906355576
 40
0.0608883012790937
  0
CIRCLE
  8
_1-1_
  6
CONTINUOUS
 62
    7
 10
244.346923828125
 20
166.96167816986909
 40
0.0608883012790937
  0
CIRCLE
  8
_1-1_
  6
CONTINUOUS
 62
    7
 10
245.66251187711151
 20
167.21552668391047
 40
0.0608883012790937
  0
CIRCLE
  8
_1-1_
  6
CONTINUOUS
 62
    7
 10
245.76373950855154
 20
167.62043720967063
 40
0.0608883012790937
  0
CIRCLE
  8
_1-1_
  6
CONTINUOUS
 62
    7
 10
246.69168833139781
 20
167.57996842667865
 40
0.0608883012790937
  0
CIRCLE
  8
_1-1_
  6
CONTINUOUS
 62
    7
 10
246.23464223500847
 20
166.43731606973185
 40
0.0608883012790937
  0
CIRCLE
  8
_1-1_
  6
CONTINUOUS
 62
    7
 10
245.71026776288008
 20
167.69061114336995
 40
0.0608883012790937
  0
CIRCLE
  8
_1-1_
  6
CONTINUOUS
 62
    7
 10
245.24302714579815
 20
167.31522018845018
 40
0.0608883012790937
  0
CIRCLE
  8
_1-1_
  6
CONTINUOUS
 62
    7
 10
245.34425477723818
 20
167.72013071421031
 40
0.0608883012790937
  0
CIRCLE
  8
_1-1_
  6
CONTINUOUS
 62
    7
 10
242.26288666596284
 20
171.23110384554477
 40
0.0608883012790937
  0
CIRCLE
  8
_1-1_
  6
CONTINUOUS
 62
    7
 10
241.46303743929477
 20
170.3169869087838
 40
0.0608883012790937
  0
CIRCLE
  8
_1-1_
  6
CONTINUOUS
 62
    7
 10
241.00599134290542
 20
172.37375620249156
 40
0.0608883012790937
  0
CIRCLE
  8
_1-1_
  6
CONTINUOUS
 62
    7
 10
241.12025905299834
 20
171.68816231392526
 40
0.0608883012790937
  0
CIRCLE
  8
_1-1_
  6
CONTINUOUS
 62
    7
 10
241.73183131862334
 20
171.5439915012669
 40
0.0608883012790937
  0
CIRCLE
  8
_1-1_
  6
CONTINUOUS
 62
    7
 10
241.83305895006336
 20
171.94890202702703
 40
0.0608883012790937
  0
CIRCLE
  8
_1-1_
  6
CONTINUOUS
 62
    7
 10
244.27056389885982
 20
170.28536409945102
 40
0.0608883012790937
  0
CIRCLE
  8
_1-1_
  6
CONTINUOUS
 62
    7
 10
244.66834815772805
 20
171.84695682010135
 40
0.0608883012790937
  0
CIRCLE
  8
_1-1_
  6
CONTINUOUS
 62
    7
 10
244.43981273754224
 20
171.16136293153505
 40
0.0608883012790937
  0
CIRCLE
  8
_1-1_
  6
CONTINUOUS
 62
    7
 10
244.72471494932435
 20
171.5547798775338
 40
0.0608883012790937
  0
CIRCLE
  8
_1-1_
  6
CONTINUOUS
 62
    7
 10
243.74618942673143
 20
171.85846277185391
 40
0.0608883012790937
  0
CIRCLE
  8
_1-1_
  6
CONTINUOUS
 62
    7
 10
242.67289445206927
 20
172.56000415698904
 40
0.0608883012790937
  0
CIRCLE
  8
_1-1_
  6
CONTINUOUS
 62
    7
 10
241.05416787637247
 20
170.82067541173987
 40
0.0608883012790937
  0
CIRCLE
  8
_1-1_
  6
CONTINUOUS
 62
    7
 10
242.25628002269849
 20
172.37133129222974
 40
0.0608883012790937
  0
CIRCLE
  8
_1-1_
  6
CONTINUOUS
 62
    7
 10
242.02774460251268
 20
171.68573740366344
 40
0.0608883012790937
  0
CIRCLE
  8
_1-1_
  6
CONTINUOUS
 62
    7
 10
241.57069850612334
 20
170.54308504671664
 40
0.0608883012790937
  0
CIRCLE
  8
_1-1_
  6
CONTINUOUS
 62
    7
 10
242.88628655510982
 20
170.79693356075802
 40
0.0608883012790937
  0
CIRCLE
  8
_1-1_
  6
CONTINUOUS
 62
    7
 10
242.98751418654984
 20
171.20184408651818
 40
0.0608883012790937
  0
CIRCLE
  8
_1-1_
  6
CONTINUOUS
 62
    7
 10
242.31264681429477
 20
172.07915434966216
 40
0.0608883012790937
  0
CIRCLE
  8
_1-1_
  6
CONTINUOUS
 62
    7
 10
241.33412129170188
 20
172.38283724398227
 40
0.0608883012790937
  0
CIRCLE
  8
_1-1_
  6
CONTINUOUS
 62
    7
 10
242.61942270639781
 20
172.01130635029563
 40
0.0608883012790937
  0
CIRCLE
  8
_1-1_
  6
CONTINUOUS
 62
    7
 10
243.9350107553843
 20
172.26515486433701
 40
0.0608883012790937
  0
CIRCLE
  8
_1-1_
  6
CONTINUOUS
 62
    7
 10
244.03623838682435
 20
172.67006539009714
 40
0.0608883012790937
  0
CIRCLE
  8
_1-1_
  6
CONTINUOUS
 62
    7
 10
244.96418720967063
 20
172.62959660710516
 40
0.0608883012790937
  0
CIRCLE
  8
_1-1_
  6
CONTINUOUS
 62
    7
 10
244.50714111328125
 20
171.48694425015836
 40
0.0608883012790937
  0
CIRCLE
  8
_1-1_
  6
CONTINUOUS
 62
    7
 10
243.98276664115289
 20
172.74023932379646
 40
0.0608883012790937
  0
CIRCLE
  8
_1-1_
  6
CONTINUOUS
 62
    7
 10
243.51552602407097
 20
172.36484836887669
 40
0.0608883012790937
  0
CIRCLE
  8
_1-1_
  6
CONTINUOUS
 62
    7
 10
243.61675365551099
 20
172.76975889463682
 40
0.0608883012790937
  0
CIRCLE
  8
_1-1_
  6
CONTINUOUS
 62
    7
 10
239.93739772487334
 20
171.09821628879857
 40
0.0608883012790937
  0
CIRCLE
  8
_1-1_
  6
CONTINUOUS
 62
    7
 10
239.13754849820526
 20
170.18409935203761
 40
0.0608883012790937
  0
CIRCLE
  8
_1-1_
  6
CONTINUOUS
 62
    7
 10
238.68050240181589
 20
172.24086864574537
 40
0.0608883012790937
  0
CIRCLE
  8
_1-1_
  6
CONTINUOUS
 62
    7
 10
238.7947701119088
 20
171.55527475717906
 40
0.0608883012790937
  0
CIRCLE
  8
_1-1_
  6
CONTINUOUS
 62
    7
 10
239.4063423775338
 20
171.4111039445207
 40
0.0608883012790937
  0
CIRCLE
  8
_1-1_
  6
CONTINUOUS
 62
    7
 10
239.50757000897383
 20
171.81601447028083
 40
0.0608883012790937
  0
CIRCLE
  8
_1-1_
  6
CONTINUOUS
 62
    7
 10
241.94507495777029
 20
170.15247654270482
 40
0.0608883012790937
  0
CIRCLE
  8
_1-1_
  6
CONTINUOUS
 62
    7
 10
242.34285921663852
 20
171.71406926335516
 40
0.0608883012790937
  0
CIRCLE
  8
_1-1_
  6
CONTINUOUS
 62
    7
 10
242.11432379645271
 20
171.02847537478885
 40
0.0608883012790937
  0
CIRCLE
  8
_1-1_
  6
CONTINUOUS
 62
    7
 10
242.39922600823482
 20
171.42189232078761
 40
0.0608883012790937
  0
CIRCLE
  8
_1-1_
  6
CONTINUOUS
 62
    7
 10
241.4207004856419
 20
171.72557521510768
 40
0.0608883012790937
  0
CIRCLE
  8
_1-1_
  6
CONTINUOUS
 62
    7
 10
240.34740551097974
 20
172.42711660024284
 40
0.0608883012790937
  0
CIRCLE
  8
_1-1_
  6
CONTINUOUS
 62
    7
 10
238.72867893528294
 20
170.68778785499367
 40
0.0608883012790937
  0
CIRCLE
  8
_1-1_
  6
CONTINUOUS
 62
    7
 10
239.93079108160896
 20
172.23844373548354
 40
0.0608883012790937
  0
CIRCLE
  8
_1-1_
  6
CONTINUOUS
 62
    7
 10
239.70225566142315
 20
171.55284984691724
 40
0.0608883012790937
  0
CIRCLE
  8
_1-1_
  6
CONTINUOUS
 62
    7
 10
239.2452095650338
 20
170.41019748997044
 40
0.0608883012790937
  0
CIRCLE
  8
_1-1_
  6
CONTINUOUS
 62
    7
 10
240.56079761402029
 20
170.66404600401182
 40
0.0608883012790937
  0
CIRCLE
  8
_1-1_
  6
CONTINUOUS
 62
    7
 10
240.66202524546031
 20
171.06895652977198
 40
0.0608883012790937
  0
CIRCLE
  8
_1-1_
  6
CONTINUOUS
 62
    7
 10
239.98715787320526
 20
171.94626679291596
 40
0.0608883012790937
  0
CIRCLE
  8
_1-1_
  6
CONTINUOUS
 62
    7
 10
239.00863235061234
 20
172.24994968723607
 40
0.0608883012790937
  0
CIRCLE
  8
_1-1_
  6
CONTINUOUS
 62
    7
 10
240.29393376530828
 20
171.87841879354943
 40
0.0608883012790937
  0
CIRCLE
  8
_1-1_
  6
CONTINUOUS
 62
    7
 10
241.60952181429477
 20
172.13226730759081
 40
0.0608883012790937
  0
CIRCLE
  8
_1-1_
  6
CONTINUOUS
 62
    7
 10
241.71074944573482
 20
172.53717783335094
 40
0.0608883012790937
  0
CIRCLE
  8
_1-1_
  6
CONTINUOUS
 62
    7
 10
242.63869826858109
 20
172.49670905035896
 40
0.0608883012790937
  0
CIRCLE
  8
_1-1_
  6
CONTINUOUS
 62
    7
 10
242.18165217219175
 20
171.35405669341216
 40
0.0608883012790937
  0
CIRCLE
  8
_1-1_
  6
CONTINUOUS
 62
    7
 10
241.65727770006336
 20
172.60735176705026
 40
0.0608883012790937
  0
CIRCLE
  8
_1-1_
  6
CONTINUOUS
 62
    7
 10
241.19003708298143
 20
172.2319608121305
 40
0.0608883012790937
  0
CIRCLE
  8
_1-1_
  6
CONTINUOUS
 62
    7
 10
241.29126471442146
 20
172.63687133789062
 40
0.0608883012790937
  0
CIRCLE
  8
_1-1_
  6
CONTINUOUS
 62
    7
 10
250.23596686285896
 20
167.11167619035052
 40
0.0608883012790937
  0
CIRCLE
  8
_1-1_
  6
CONTINUOUS
 62
    7
 10
249.43611763619089
 20
166.19755925358953
 40
0.0608883012790937
  0
CIRCLE
  8
_1-1_
  6
CONTINUOUS
 62
    7
 10
248.97907153980154
 20
168.25432854729732
 40
0.0608883012790937
  0
CIRCLE
  8
_1-1_
  6
CONTINUOUS
 62
    7
 10
249.09333924989443
 20
167.56873465873102
 40
0.0608883012790937
  0
CIRCLE
  8
_1-1_
  6
CONTINUOUS
 62
    7
 10
249.70491151551943
 20
167.42456384607266
 40
0.0608883012790937
  0
CIRCLE
  8
_1-1_
  6
CONTINUOUS
 62
    7
 10
249.80613914695948
 20
167.82947437183279
 40
0.0608883012790937
  0
CIRCLE
  8
_1-1_
  6
CONTINUOUS
 62
    7
 10
252.24364409575594
 20
166.16593644425677
 40
0.0608883012790937
  0
CIRCLE
  8
_1-1_
  6
CONTINUOUS
 62
    7
 10
252.64142835462417
 20
167.72752916490711
 40
0.0608883012790937
  0
CIRCLE
  8
_1-1_
  6
CONTINUOUS
 62
    7
 10
252.41289293443836
 20
167.04193527634081
 40
0.0608883012790937
  0
CIRCLE
  8
_1-1_
  6
CONTINUOUS
 62
    7
 10
252.69779514622044
 20
167.43535222233953
 40
0.0608883012790937
  0
CIRCLE
  8
_1-1_
  6
CONTINUOUS
 62
    7
 10
251.71926962362755
 20
167.73903511665964
 40
0.0608883012790937
  0
CIRCLE
  8
_1-1_
  6
CONTINUOUS
 62
    7
 10
250.64597464896539
 20
168.44057650179477
 40
0.0608883012790937
  0
CIRCLE
  8
_1-1_
  6
CONTINUOUS
 62
    7
 10
249.02724807326859
 20
166.70124775654563
 40
0.0608883012790937
  0
CIRCLE
  8
_1-1_
  6
CONTINUOUS
 62
    7
 10
250.22936021959461
 20
168.25190363703547
 40
0.0608883012790937
  0
CIRCLE
  8
_1-1_
  6
CONTINUOUS
 62
    7
 10
250.0008247994088
 20
167.56630974846919
 40
0.0608883012790937
  0
CIRCLE
  8
_1-1_
  6
CONTINUOUS
 62
    7
 10
250.85936675200594
 20
166.67750590556378
 40
0.0608883012790937
  0
CIRCLE
  8
_1-1_
  6
CONTINUOUS
 62
    7
 10
250.96059438344597
 20
167.08241643132391
 40
0.0608883012790937
  0
CIRCLE
  8
_1-1_
  6
CONTINUOUS
 62
    7
 10
250.28572701119089
 20
167.95972669446792
 40
0.0608883012790937
  0
CIRCLE
  8
_1-1_
  6
CONTINUOUS
 62
    7
 10
249.307201488598
 20
168.26340958878802
 40
0.0608883012790937
  0
CIRCLE
  8
_1-1_
  6
CONTINUOUS
 62
    7
 10
250.59250290329393
 20
167.89187869510135
 40
0.0608883012790937
  0
CIRCLE
  8
_1-1_
  6
CONTINUOUS
 62
    7
 10
251.90809095228042
 20
168.14572720914273
 40
0.0608883012790937
  0
CIRCLE
  8
_1-1_
  6
CONTINUOUS
 62
    7
 10
252.00931858372044
 20
168.55063773490289
 40
0.0608883012790937
  0
CIRCLE
  8
_1-1_
  6
CONTINUOUS
 62
    7
 10
252.93726740656675
 20
168.51016895191091
 40
0.0608883012790937
  0
CIRCLE
  8
_1-1_
  6
CONTINUOUS
 62
    7
 10
252.48022131017737
 20
167.36751659496412
 40
0.0608883012790937
  0
CIRCLE
  8
_1-1_
  6
CONTINUOUS
 62
    7
 10
251.95584683804901
 20
168.62081166860222
 40
0.0608883012790937
  0
CIRCLE
  8
_1-1_
  6
CONTINUOUS
 62
    7
 10
251.48860622096709
 20
168.24542071368245
 40
0.0608883012790937
  0
CIRCLE
  8
_1-1_
  6
CONTINUOUS
 62
    7
 10
251.58983385240711
 20
168.65033123944258
 40
0.0608883012790937
  0
CIRCLE
  8
_1-1_
  6
CONTINUOUS
 62
    7
 10
249.50510385874156
 20
169.5700403161951
 40
0.0608883012790937
  0
CIRCLE
  8
_1-1_
  6
CONTINUOUS
 62
    7
 10
248.70525463207349
 20
168.65592337943414
 40
0.0608883012790937
  0
CIRCLE
  8
_1-1_
  6
CONTINUOUS
 62
    7
 10
248.24820853568414
 20
170.7126926731419
 40
0.0608883012790937
  0
CIRCLE
  8
_1-1_
  6
CONTINUOUS
 62
    7
 10
248.36247624577703
 20
170.0270987845756
 40
0.0608883012790937
  0
CIRCLE
  8
_1-1_
  6
CONTINUOUS
 62
    7
 10
248.97404851140203
 20
169.88292797191724
 40
0.0608883012790937
  0
CIRCLE
  8
_1-1_
  6
CONTINUOUS
 62
    7
 10
249.07527614284209
 20
170.28783849767737
 40
0.0608883012790937
  0
CIRCLE
  8
_1-1_
  6
CONTINUOUS
 62
    7
 10
251.51278109163852
 20
168.62430057010135
 40
0.0608883012790937
  0
CIRCLE
  8
_1-1_
  6
CONTINUOUS
 62
    7
 10
251.91056535050677
 20
170.18589329075169
 40
0.0608883012790937
  0
CIRCLE
  8
_1-1_
  6
CONTINUOUS
 62
    7
 10
251.68202993032097
 20
169.50029940218539
 40
0.0608883012790937
  0
CIRCLE
  8
_1-1_
  6
CONTINUOUS
 62
    7
 10
251.96693214210305
 20
169.89371634818414
 40
0.0608883012790937
  0
CIRCLE
  8
_1-1_
  6
CONTINUOUS
 62
    7
 10
250.98840661951016
 20
170.19739924250422
 40
0.0608883012790937
  0
CIRCLE
  8
_1-1_
  6
CONTINUOUS
 62
    7
 10
249.915111644848
 20
170.89894062763938
 40
0.0608883012790937
  0
CIRCLE
  8
_1-1_
  6
CONTINUOUS
 62
    7
 10
248.2963850691512
 20
169.15961188239021
 40
0.0608883012790937
  0
CIRCLE
  8
_1-1_
  6
CONTINUOUS
 62
    7
 10
249.49849721547722
 20
170.71026776288008
 40
0.0608883012790937
  0
CIRCLE
  8
_1-1_
  6
CONTINUOUS
 62
    7
 10
249.26996179529141
 20
170.02467387431378
 40
0.0608883012790937
  0
CIRCLE
  8
_1-1_
  6
CONTINUOUS
 62
    7
 10
248.81291569890203
 20
168.88202151736698
 40
0.0608883012790937
  0
CIRCLE
  8
_1-1_
  6
CONTINUOUS
 62
    7
 10
250.12850374788852
 20
169.13587003140836
 40
0.0608883012790937
  0
CIRCLE
  8
_1-1_
  6
CONTINUOUS
 62
    7
 10
250.22973137932857
 20
169.54078055716852
 40
0.0608883012790937
  0
CIRCLE
  8
_1-1_
  6
CONTINUOUS
 62
    7
 10
249.55486400707349
 20
170.4180908203125
 40
0.0608883012790937
  0
CIRCLE
  8
_1-1_
  6
CONTINUOUS
 62
    7
 10
248.5763384844806
 20
170.7217737146326
 40
0.0608883012790937
  0
CIRCLE
  8
_1-1_
  6
CONTINUOUS
 62
    7
 10
249.86163989917654
 20
170.35024282094597
 40
0.0608883012790937
  0
CIRCLE
  8
_1-1_
  6
CONTINUOUS
 62
    7
 10
251.17722794816302
 20
170.60409133498734
 40
0.0608883012790937
  0
CIRCLE
  8
_1-1_
  6
CONTINUOUS
 62
    7
 10
251.27845557960305
 20
171.00900186074747
 40
0.0608883012790937
  0
CIRCLE
  8
_1-1_
  6
CONTINUOUS
 62
    7
 10
252.20640440244935
 20
170.9685330777555
 40
0.0608883012790937
  0
CIRCLE
  8
_1-1_
  6
CONTINUOUS
 62
    7
 10
251.74935830605997
 20
169.8258807208087
 40
0.0608883012790937
  0
CIRCLE
  8
_1-1_
  6
CONTINUOUS
 62
    7
 10
251.22498383393159
 20
171.0791757944468
 40
0.0608883012790937
  0
CIRCLE
  8
_1-1_
  6
CONTINUOUS
 62
    7
 10
250.75774321684969
 20
170.70378483952703
 40
0.0608883012790937
  0
CIRCLE
  8
_1-1_
  6
CONTINUOUS
 62
    7
 10
250.85897084828972
 20
171.10869536528716
 40
0.0608883012790937
  0
CIRCLE
  8
_1-1_
  6
CONTINUOUS
 62
    7
 10
250.30242919921875
 20
165.05194999076227
 40
0.0608883012790937
  0
CIRCLE
  8
_1-1_
  6
CONTINUOUS
 62
    7
 10
249.50257997255068
 20
164.13783305400128
 40
0.0608883012790937
  0
CIRCLE
  8
_1-1_
  6
CONTINUOUS
 62
    7
 10
249.15980158625425
 20
165.50900845914273
 40
0.0608883012790937
  0
CIRCLE
  8
_1-1_
  6
CONTINUOUS
 62
    7
 10
249.77137385187925
 20
165.36483764648437
 40
0.0608883012790937
  0
CIRCLE
  8
_1-1_
  6
CONTINUOUS
 62
    7
 10
249.87260148331927
 20
165.76974817224453
 40
0.0608883012790937
  0
CIRCLE
  8
_1-1_
  6
CONTINUOUS
 62
    7
 10
252.31010643211573
 20
164.10621024466852
 40
0.0608883012790937
  0
CIRCLE
  8
_1-1_
  6
CONTINUOUS
 62
    7
 10
252.70789069098396
 20
165.66780296531886
 40
0.0608883012790937
  0
CIRCLE
  8
_1-1_
  6
CONTINUOUS
 62
    7
 10
252.47935527079815
 20
164.98220907675255
 40
0.0608883012790937
  0
CIRCLE
  8
_1-1_
  6
CONTINUOUS
 62
    7
 10
252.76425748258026
 20
165.37562602275128
 40
0.0608883012790937
  0
CIRCLE
  8
_1-1_
  6
CONTINUOUS
 62
    7
 10
251.78573195998734
 20
165.67930891707138
 40
0.0608883012790937
  0
CIRCLE
  8
_1-1_
  6
CONTINUOUS
 62
    7
 10
250.71243698532518
 20
166.38085030220651
 40
0.0608883012790937
  0
CIRCLE
  8
_1-1_
  6
CONTINUOUS
 62
    7
 10
249.09371040962839
 20
164.64152155695734
 40
0.0608883012790937
  0
CIRCLE
  8
_1-1_
  6
CONTINUOUS
 62
    7
 10
250.2958225559544
 20
166.19217743744721
 40
0.0608883012790937
  0
CIRCLE
  8
_1-1_
  6
CONTINUOUS
 62
    7
 10
250.06728713576859
 20
165.50658354888091
 40
0.0608883012790937
  0
CIRCLE
  8
_1-1_
  6
CONTINUOUS
 62
    7
 10
249.61024103937925
 20
164.36393119193414
 40
0.0608883012790937
  0
CIRCLE
  8
_1-1_
  6
CONTINUOUS
 62
    7
 10
250.92582908836573
 20
164.61777970597552
 40
0.0608883012790937
  0
CIRCLE
  8
_1-1_
  6
CONTINUOUS
 62
    7
 10
251.02705671980576
 20
165.02269023173565
 40
0.0608883012790937
  0
CIRCLE
  8
_1-1_
  6
CONTINUOUS
 62
    7
 10
250.35218934755068
 20
165.90000049487966
 40
0.0608883012790937
  0
CIRCLE
  8
_1-1_
  6
CONTINUOUS
 62
    7
 10
250.65896523965372
 20
165.8321524955131
 40
0.0608883012790937
  0
CIRCLE
  8
_1-1_
  6
CONTINUOUS
 62
    7
 10
251.97455328864021
 20
166.08600100955448
 40
0.0608883012790937
  0
CIRCLE
  8
_1-1_
  6
CONTINUOUS
 62
    7
 10
252.07578092008026
 20
166.49091153531461
 40
0.0608883012790937
  0
CIRCLE
  8
_1-1_
  6
CONTINUOUS
 62
    7
 10
253.00372974292654
 20
166.45044275232266
 40
0.0608883012790937
  0
CIRCLE
  8
_1-1_
  6
CONTINUOUS
 62
    7
 10
252.54668364653719
 20
165.30779039537586
 40
0.0608883012790937
  0
CIRCLE
  8
_1-1_
  6
CONTINUOUS
 62
    7
 10
252.0223091744088
 20
166.56108546901393
 40
0.0608883012790937
  0
CIRCLE
  8
_1-1_
  6
CONTINUOUS
 62
    7
 10
251.55506855732688
 20
166.18569451409419
 40
0.0608883012790937
  0
CIRCLE
  8
_1-1_
  6
CONTINUOUS
 62
    7
 10
251.6562961887669
 20
166.59060503985432
 40
0.0608883012790937
  0
CIRCLE
  8
_1-1_
  6
CONTINUOUS
 62
    7
 10
252.57585680162586
 20
157.46196849926099
 40
0.0608883012790937
  0
CIRCLE
  8
_1-1_
  6
CONTINUOUS
 62
    7
 10
252.97364106049409
 20
159.02356121991133
 40
0.0608883012790937
  0
CIRCLE
  8
_1-1_
  6
CONTINUOUS
 62
    7
 10
252.74510564030828
 20
158.33796733134503
 40
0.0608883012790937
  0
CIRCLE
  8
_1-1_
  6
CONTINUOUS
 62
    7
 10
253.03000785209039
 20
158.73138427734375
 40
0.0608883012790937
  0
CIRCLE
  8
_1-1_
  6
CONTINUOUS
 62
    7
 10
252.05148232949747
 20
159.03506717166385
 40
0.0608883012790937
  0
CIRCLE
  8
_1-1_
  6
CONTINUOUS
 62
    7
 10
250.97818735483531
 20
159.73660855679898
 40
0.0608883012790937
  0
CIRCLE
  8
_1-1_
  6
CONTINUOUS
 62
    7
 10
252.24030365815034
 20
159.44175926414698
 40
0.0608883012790937
  0
CIRCLE
  8
_1-1_
  6
CONTINUOUS
 62
    7
 10
252.34153128959039
 20
159.84666978990711
 40
0.0608883012790937
  0
CIRCLE
  8
_1-1_
  6
CONTINUOUS
 62
    7
 10
253.26948011243667
 20
159.80620100691513
 40
0.0608883012790937
  0
CIRCLE
  8
_1-1_
  6
CONTINUOUS
 62
    7
 10
252.81243401604732
 20
158.66354864996833
 40
0.0608883012790937
  0
CIRCLE
  8
_1-1_
  6
CONTINUOUS
 62
    7
 10
252.28805954391893
 20
159.91684372360643
 40
0.0608883012790937
  0
CIRCLE
  8
_1-1_
  6
CONTINUOUS
 62
    7
 10
251.92204655827703
 20
159.9463632944468
 40
0.0608883012790937
  0
CIRCLE
  8
_1-1_
  6
CONTINUOUS
 62
    7
 10
247.38447034681167
 20
159.48392300992398
 40
0.0608883012790937
  0
CIRCLE
  8
_1-1_
  6
CONTINUOUS
 62
    7
 10
247.49873805690459
 20
158.79832912135768
 40
0.0608883012790937
  0
CIRCLE
  8
_1-1_
  6
CONTINUOUS
 62
    7
 10
249.05137345597552
 20
159.67017096442146
 40
0.0608883012790937
  0
CIRCLE
  8
_1-1_
  6
CONTINUOUS
 62
    7
 10
248.63475902660474
 20
159.48149809966216
 40
0.0608883012790937
  0
CIRCLE
  8
_1-1_
  6
CONTINUOUS
 62
    7
 10
247.71260029560813
 20
159.49300405141472
 40
0.0608883012790937
  0
CIRCLE
  8
_1-1_
  6
CONTINUOUS
 62
    7
 10
250.4147173907306
 20
159.78023219752956
 40
0.0608883012790937
  0
CIRCLE
  8
_1-1_
  6
CONTINUOUS
 62
    7
 10
251.34266621357688
 20
159.73976341453761
 40
0.0608883012790937
  0
CIRCLE
  8
_1-1_
  6
CONTINUOUS
 62
    7
 10
249.99523265941724
 20
159.87992570206927
 40
0.0608883012790937
  0
CIRCLE
  8
_1-1_
  6
CONTINUOUS
 62
    7
 10
247.31251484638938
 20
159.07213365709461
 40
0.0608883012790937
  0
CIRCLE
  8
_1-1_
  6
CONTINUOUS
 62
    7
 10
246.5126656197213
 20
158.15801672033362
 40
0.0608883012790937
  0
CIRCLE
  8
_1-1_
  6
CONTINUOUS
 62
    7
 10
246.05561952333193
 20
160.21478601404141
 40
0.0608883012790937
  0
CIRCLE
  8
_1-1_
  6
CONTINUOUS
 62
    7
 10
246.16988723342484
 20
159.52919212547511
 40
0.0608883012790937
  0
CIRCLE
  8
_1-1_
  6
CONTINUOUS
 62
    7
 10
246.78145949904984
 20
159.38502131281672
 40
0.0608883012790937
  0
CIRCLE
  8
_1-1_
  6
CONTINUOUS
 62
    7
 10
246.88268713048987
 20
159.78993183857688
 40
0.0608883012790937
  0
CIRCLE
  8
_1-1_
  6
CONTINUOUS
 62
    7
 10
248.79581760715794
 20
159.69949258340372
 40
0.0608883012790937
  0
CIRCLE
  8
_1-1_
  6
CONTINUOUS
 62
    7
 10
247.72252263249578
 20
160.40103396853885
 40
0.0608883012790937
  0
CIRCLE
  8
_1-1_
  6
CONTINUOUS
 62
    7
 10
246.10379605679901
 20
158.66170522328972
 40
0.0608883012790937
  0
CIRCLE
  8
_1-1_
  6
CONTINUOUS
 62
    7
 10
247.305908203125
 20
160.21236110377956
 40
0.0608883012790937
  0
CIRCLE
  8
_1-1_
  6
CONTINUOUS
 62
    7
 10
247.07737278293919
 20
159.52676721521328
 40
0.0608883012790937
  0
CIRCLE
  8
_1-1_
  6
CONTINUOUS
 62
    7
 10
246.62032668654984
 20
158.38411485826649
 40
0.0608883012790937
  0
CIRCLE
  8
_1-1_
  6
CONTINUOUS
 62
    7
 10
247.93591473553633
 20
158.63796337230787
 40
0.0608883012790937
  0
CIRCLE
  8
_1-1_
  6
CONTINUOUS
 62
    7
 10
247.3622749947213
 20
159.92018416121201
 40
0.0608883012790937
  0
CIRCLE
  8
_1-1_
  6
CONTINUOUS
 62
    7
 10
246.38374947212839
 20
160.22386705553211
 40
0.0608883012790937
  0
CIRCLE
  8
_1-1_
  6
CONTINUOUS
 62
    7
 10
247.66905088682435
 20
159.85233616184544
 40
0.0608883012790937
  0
CIRCLE
  8
_1-1_
  6
CONTINUOUS
 62
    7
 10
248.98463893581084
 20
160.10618467588682
 40
0.0608883012790937
  0
CIRCLE
  8
_1-1_
  6
CONTINUOUS
 62
    7
 10
250.01381539009714
 20
160.470626418655
 40
0.0608883012790937
  0
CIRCLE
  8
_1-1_
  6
CONTINUOUS
 62
    7
 10
248.56515420449747
 20
160.20587818042654
 40
0.0608883012790937
  0
CIRCLE
  8
_1-1_
  6
CONTINUOUS
 62
    7
 10
248.6663818359375
 20
160.61078870618667
 40
0.0608883012790937
  0
CIRCLE
  8
_1-1_
  6
CONTINUOUS
 62
    7
 10
246.05010161528719
 20
160.0687717747044
 40
0.0608883012790937
  0
CIRCLE
  8
_1-1_
  6
CONTINUOUS
 62
    7
 10
245.25025238861909
 20
159.15465483794341
 40
0.0608883012790937
  0
CIRCLE
  8
_1-1_
  6
CONTINUOUS
 62
    7
 10
244.79320629222974
 20
161.2114241316512
 40
0.0608883012790937
  0
CIRCLE
  8
_1-1_
  6
CONTINUOUS
 62
    7
 10
244.90747400232266
 20
160.5258302430849
 40
0.0608883012790937
  0
CIRCLE
  8
_1-1_
  6
CONTINUOUS
 62
    7
 10
245.51904626794766
 20
160.38165943042654
 40
0.0608883012790937
  0
CIRCLE
  8
_1-1_
  6
CONTINUOUS
 62
    7
 10
245.62027389938768
 20
160.78656995618667
 40
0.0608883012790937
  0
CIRCLE
  8
_1-1_
  6
CONTINUOUS
 62
    7
 10
248.45556310705237
 20
160.68462474926099
 40
0.0608883012790937
  0
CIRCLE
  8
_1-1_
  6
CONTINUOUS
 62
    7
 10
248.22702768686656
 20
159.99903086069469
 40
0.0608883012790937
  0
CIRCLE
  8
_1-1_
  6
CONTINUOUS
 62
    7
 10
248.51192989864867
 20
160.39244780669341
 40
0.0608883012790937
  0
CIRCLE
  8
_1-1_
  6
CONTINUOUS
 62
    7
 10
247.53340437605576
 20
160.69613070101352
 40
0.0608883012790937
  0
CIRCLE
  8
_1-1_
  6
CONTINUOUS
 62
    7
 10
246.46010940139359
 20
161.39767208614865
 40
0.0608883012790937
  0
CIRCLE
  8
_1-1_
  6
CONTINUOUS
 62
    7
 10
244.8413828256968
 20
159.65834334089951
 40
0.0608883012790937
  0
CIRCLE
  8
_1-1_
  6
CONTINUOUS
 62
    7
 10
246.04349497202281
 20
161.20899922138938
 40
0.0608883012790937
  0
CIRCLE
  8
_1-1_
  6
CONTINUOUS
 62
    7
 10
245.81495955183701
 20
160.52340533282307
 40
0.0608883012790937
  0
CIRCLE
  8
_1-1_
  6
CONTINUOUS
 62
    7
 10
245.35791345544766
 20
159.38075297587628
 40
0.0608883012790937
  0
CIRCLE
  8
_1-1_
  6
CONTINUOUS
 62
    7
 10
246.67350150443414
 20
159.63460148991766
 40
0.0608883012790937
  0
CIRCLE
  8
_1-1_
  6
CONTINUOUS
 62
    7
 10
246.77472913587417
 20
160.03951201567779
 40
0.0608883012790937
  0
CIRCLE
  8
_1-1_
  6
CONTINUOUS
 62
    7
 10
246.09986176361909
 20
160.9168222788218
 40
0.0608883012790937
  0
CIRCLE
  8
_1-1_
  6
CONTINUOUS
 62
    7
 10
246.40663765572214
 20
160.84897427945523
 40
0.0608883012790937
  0
CIRCLE
  8
_1-1_
  6
CONTINUOUS
 62
    7
 10
247.72222570470862
 20
161.10282279349664
 40
0.0608883012790937
  0
CIRCLE
  8
_1-1_
  6
CONTINUOUS
 62
    7
 10
247.82345333614867
 20
161.50773331925677
 40
0.0608883012790937
  0
CIRCLE
  8
_1-1_
  6
CONTINUOUS
 62
    7
 10
248.75140215899495
 20
161.46726453626479
 40
0.0608883012790937
  0
CIRCLE
  8
_1-1_
  6
CONTINUOUS
 62
    7
 10
248.2943560626056
 20
160.324612179318
 40
0.0608883012790937
  0
CIRCLE
  8
_1-1_
  6
CONTINUOUS
 62
    7
 10
247.76998159047722
 20
161.57790725295609
 40
0.0608883012790937
  0
CIRCLE
  8
_1-1_
  6
CONTINUOUS
 62
    7
 10
247.30274097339529
 20
161.20251629803633
 40
0.0608883012790937
  0
CIRCLE
  8
_1-1_
  6
CONTINUOUS
 62
    7
 10
247.40396860483531
 20
161.60742682379646
 40
0.0608883012790937
  0
CIRCLE
  8
_1-1_
  6
CONTINUOUS
 62
    7
 10
245.31923861116977
 20
160.6667472220756
 40
0.0608883012790937
  0
CIRCLE
  8
_1-1_
  6
CONTINUOUS
 62
    7
 10
244.51938938450169
 20
159.75263028531461
 40
0.0608883012790937
  0
CIRCLE
  8
_1-1_
  6
CONTINUOUS
 62
    7
 10
244.06234328811234
 20
161.8093995790224
 40
0.0608883012790937
  0
CIRCLE
  8
_1-1_
  6
CONTINUOUS
 62
    7
 10
244.17661099820526
 20
161.12380569045609
 40
0.0608883012790937
  0
CIRCLE
  8
_1-1_
  6
CONTINUOUS
 62
    7
 10
244.78818326383026
 20
160.97963487779774
 40
0.0608883012790937
  0
CIRCLE
  8
_1-1_
  6
CONTINUOUS
 62
    7
 10
244.88941089527029
 20
161.38454540355787
 40
0.0608883012790937
  0
CIRCLE
  8
_1-1_
  6
CONTINUOUS
 62
    7
 10
247.32691584406675
 20
159.72100747598185
 40
0.0608883012790937
  0
CIRCLE
  8
_1-1_
  6
CONTINUOUS
 62
    7
 10
247.72470010293497
 20
161.28260019663219
 40
0.0608883012790937
  0
CIRCLE
  8
_1-1_
  6
CONTINUOUS
 62
    7
 10
246.80254137193836
 20
161.29410614838471
 40
0.0608883012790937
  0
CIRCLE
  8
_1-1_
  6
CONTINUOUS
 62
    7
 10
245.7292463972762
 20
161.99564753351984
 40
0.0608883012790937
  0
CIRCLE
  8
_1-1_
  6
CONTINUOUS
 62
    7
 10
244.1105198215794
 20
160.2563187882707
 40
0.0608883012790937
  0
CIRCLE
  8
_1-1_
  6
CONTINUOUS
 62
    7
 10
245.31263196790542
 20
161.80697466876057
 40
0.0608883012790937
  0
CIRCLE
  8
_1-1_
  6
CONTINUOUS
 62
    7
 10
245.08409654771961
 20
161.12138078019427
 40
0.0608883012790937
  0
CIRCLE
  8
_1-1_
  6
CONTINUOUS
 62
    7
 10
244.62705045133026
 20
159.97872842324747
 40
0.0608883012790937
  0
CIRCLE
  8
_1-1_
  6
CONTINUOUS
 62
    7
 10
245.94263850031675
 20
160.23257693728885
 40
0.0608883012790937
  0
CIRCLE
  8
_1-1_
  6
CONTINUOUS
 62
    7
 10
246.04386613175677
 20
160.63748746304898
 40
0.0608883012790937
  0
CIRCLE
  8
_1-1_
  6
CONTINUOUS
 62
    7
 10
245.36899875950169
 20
161.514797726193
 40
0.0608883012790937
  0
CIRCLE
  8
_1-1_
  6
CONTINUOUS
 62
    7
 10
244.3904732369088
 20
161.8184806205131
 40
0.0608883012790937
  0
CIRCLE
  8
_1-1_
  6
CONTINUOUS
 62
    7
 10
245.67577465160474
 20
161.44694972682643
 40
0.0608883012790937
  0
CIRCLE
  8
_1-1_
  6
CONTINUOUS
 62
    7
 10
246.99136270059122
 20
161.70079824086784
 40
0.0608883012790937
  0
CIRCLE
  8
_1-1_
  6
CONTINUOUS
 62
    7
 10
247.09259033203125
 20
162.10570876662797
 40
0.0608883012790937
  0
CIRCLE
  8
_1-1_
  6
CONTINUOUS
 62
    7
 10
248.02053915487755
 20
162.06523998363599
 40
0.0608883012790937
  0
CIRCLE
  8
_1-1_
  6
CONTINUOUS
 62
    7
 10
247.03911858635982
 20
162.17588270032729
 40
0.0608883012790937
  0
CIRCLE
  8
_1-1_
  6
CONTINUOUS
 62
    7
 10
246.57187796927789
 20
161.80049174540753
 40
0.0608883012790937
  0
CIRCLE
  8
_1-1_
  6
CONTINUOUS
 62
    7
 10
246.67310560071792
 20
162.20540227116766
 40
0.0608883012790937
  0
CIRCLE
  8
_1-1_
  6
CONTINUOUS
 62
    7
 10
244.98702590529984
 20
161.92916045317779
 40
0.0608883012790937
  0
CIRCLE
  8
_1-1_
  6
CONTINUOUS
 62
    7
 10
244.18717667863177
 20
161.01504351641682
 40
0.0608883012790937
  0
CIRCLE
  8
_1-1_
  6
CONTINUOUS
 62
    7
 10
243.73013058224242
 20
163.07181281012458
 40
0.0608883012790937
  0
CIRCLE
  8
_1-1_
  6
CONTINUOUS
 62
    7
 10
243.84439829233531
 20
162.38621892155828
 40
0.0608883012790937
  0
CIRCLE
  8
_1-1_
  6
CONTINUOUS
 62
    7
 10
244.55719818940034
 20
162.64695863466005
 40
0.0608883012790937
  0
CIRCLE
  8
_1-1_
  6
CONTINUOUS
 62
    7
 10
246.9947031381968
 20
160.98342070708404
 40
0.0608883012790937
  0
CIRCLE
  8
_1-1_
  6
CONTINUOUS
 62
    7
 10
247.39248739706505
 20
162.54501342773437
 40
0.0608883012790937
  0
CIRCLE
  8
_1-1_
  6
CONTINUOUS
 62
    7
 10
247.16395197687925
 20
161.85941953916807
 40
0.0608883012790937
  0
CIRCLE
  8
_1-1_
  6
CONTINUOUS
 62
    7
 10
247.44885418866133
 20
162.25283648516682
 40
0.0608883012790937
  0
CIRCLE
  8
_1-1_
  6
CONTINUOUS
 62
    7
 10
246.47032866606844
 20
162.55651937948693
 40
0.0608883012790937
  0
CIRCLE
  8
_1-1_
  6
CONTINUOUS
 62
    7
 10
245.39703369140625
 20
163.25806076462206
 40
0.0608883012790937
  0
CIRCLE
  8
_1-1_
  6
CONTINUOUS
 62
    7
 10
244.75188384184969
 20
162.38379401129646
 40
0.0608883012790937
  0
CIRCLE
  8
_1-1_
  6
CONTINUOUS
 62
    7
 10
244.29483774546031
 20
161.24114165434966
 40
0.0608883012790937
  0
CIRCLE
  8
_1-1_
  6
CONTINUOUS
 62
    7
 10
245.6104257944468
 20
161.49499016839107
 40
0.0608883012790937
  0
CIRCLE
  8
_1-1_
  6
CONTINUOUS
 62
    7
 10
245.71165342588685
 20
161.8999006941512
 40
0.0608883012790937
  0
CIRCLE
  8
_1-1_
  6
CONTINUOUS
 62
    7
 10
244.05826053103885
 20
163.08089385161529
 40
0.0608883012790937
  0
CIRCLE
  8
_1-1_
  6
CONTINUOUS
 62
    7
 10
245.34356194573482
 20
162.70936295792865
 40
0.0608883012790937
  0
CIRCLE
  8
_1-1_
  6
CONTINUOUS
 62
    7
 10
246.6591499947213
 20
162.96321147197003
 40
0.0608883012790937
  0
CIRCLE
  8
_1-1_
  6
CONTINUOUS
 62
    7
 10
246.76037762616133
 20
163.36812199773016
 40
0.0608883012790937
  0
CIRCLE
  8
_1-1_
  6
CONTINUOUS
 62
    7
 10
247.6883264490076
 20
163.32765321473818
 40
0.0608883012790937
  0
CIRCLE
  8
_1-1_
  6
CONTINUOUS
 62
    7
 10
247.23128035261826
 20
162.18500085779141
 40
0.0608883012790937
  0
CIRCLE
  8
_1-1_
  6
CONTINUOUS
 62
    7
 10
246.70690588048987
 20
163.43829593142948
 40
0.0608883012790937
  0
CIRCLE
  8
_1-1_
  6
CONTINUOUS
 62
    7
 10
246.23966526340794
 20
163.06290497650971
 40
0.0608883012790937
  0
CIRCLE
  8
_1-1_
  6
CONTINUOUS
 62
    7
 10
246.340892894848
 20
163.46781550226984
 40
0.0608883012790937
  0
CIRCLE
  8
_1-1_
  6
CONTINUOUS
 62
    7
 10
245.11990109005492
 20
162.99223616316513
 40
0.0608883012790937
  0
CIRCLE
  8
_1-1_
  6
CONTINUOUS
 62
    7
 10
244.32005186338685
 20
162.07811922640414
 40
0.0608883012790937
  0
CIRCLE
  8
_1-1_
  6
CONTINUOUS
 62
    7
 10
243.86300576699747
 20
164.13488852011193
 40
0.0608883012790937
  0
CIRCLE
  8
_1-1_
  6
CONTINUOUS
 62
    7
 10
243.97727347709039
 20
163.44929463154563
 40
0.0608883012790937
  0
CIRCLE
  8
_1-1_
  6
CONTINUOUS
 62
    7
 10
244.58884574271539
 20
163.30512381888727
 40
0.0608883012790937
  0
CIRCLE
  8
_1-1_
  6
CONTINUOUS
 62
    7
 10
244.69007337415542
 20
163.7100343446474
 40
0.0608883012790937
  0
CIRCLE
  8
_1-1_
  6
CONTINUOUS
 62
    7
 10
247.12757832295188
 20
162.04649641707138
 40
0.0608883012790937
  0
CIRCLE
  8
_1-1_
  6
CONTINUOUS
 62
    7
 10
247.5253625818201
 20
163.60808913772172
 40
0.0608883012790937
  0
CIRCLE
  8
_1-1_
  6
CONTINUOUS
 62
    7
 10
247.2968271616343
 20
162.92249524915542
 40
0.0608883012790937
  0
CIRCLE
  8
_1-1_
  6
CONTINUOUS
 62
    7
 10
247.58172937341641
 20
163.31591219515414
 40
0.0608883012790937
  0
CIRCLE
  8
_1-1_
  6
CONTINUOUS
 62
    7
 10
246.60320385082349
 20
163.61959508947425
 40
0.0608883012790937
  0
CIRCLE
  8
_1-1_
  6
CONTINUOUS
 62
    7
 10
245.52990887616133
 20
164.32113647460937
 40
0.0608883012790937
  0
CIRCLE
  8
_1-1_
  6
CONTINUOUS
 62
    7
 10
243.91118230046453
 20
162.58180772936024
 40
0.0608883012790937
  0
CIRCLE
  8
_1-1_
  6
CONTINUOUS
 62
    7
 10
245.11329444679055
 20
164.13246360985011
 40
0.0608883012790937
  0
CIRCLE
  8
_1-1_
  6
CONTINUOUS
 62
    7
 10
244.42771293021539
 20
162.30421736433701
 40
0.0608883012790937
  0
CIRCLE
  8
_1-1_
  6
CONTINUOUS
 62
    7
 10
245.74330097920188
 20
162.55806587837839
 40
0.0608883012790937
  0
CIRCLE
  8
_1-1_
  6
CONTINUOUS
 62
    7
 10
245.8445286106419
 20
162.96297640413852
 40
0.0608883012790937
  0
CIRCLE
  8
_1-1_
  6
CONTINUOUS
 62
    7
 10
245.16966123838685
 20
163.84028666728253
 40
0.0608883012790937
  0
CIRCLE
  8
_1-1_
  6
CONTINUOUS
 62
    7
 10
244.19113571579393
 20
164.14396956160263
 40
0.0608883012790937
  0
CIRCLE
  8
_1-1_
  6
CONTINUOUS
 62
    7
 10
245.47643713048987
 20
163.77243866791596
 40
0.0608883012790937
  0
CIRCLE
  8
_1-1_
  6
CONTINUOUS
 62
    7
 10
246.79202517947635
 20
164.02628718195734
 40
0.0608883012790937
  0
CIRCLE
  8
_1-1_
  6
CONTINUOUS
 62
    7
 10
246.89325281091641
 20
164.4311977077175
 40
0.0608883012790937
  0
CIRCLE
  8
_1-1_
  6
CONTINUOUS
 62
    7
 10
247.82120163376268
 20
164.39072892472552
 40
0.0608883012790937
  0
CIRCLE
  8
_1-1_
  6
CONTINUOUS
 62
    7
 10
247.36415553737334
 20
163.24807656777872
 40
0.0608883012790937
  0
CIRCLE
  8
_1-1_
  6
CONTINUOUS
 62
    7
 10
246.83978106524495
 20
164.50137164141682
 40
0.0608883012790937
  0
CIRCLE
  8
_1-1_
  6
CONTINUOUS
 62
    7
 10
246.37254044816302
 20
164.12598068649706
 40
0.0608883012790937
  0
CIRCLE
  8
_1-1_
  6
CONTINUOUS
 62
    7
 10
246.47376807960305
 20
164.53089121225719
 40
0.0608883012790937
  0
CIRCLE
  8
_1-1_
  6
CONTINUOUS
 62
    7
 10
246.71452702702703
 20
163.5237740181588
 40
0.0608883012790937
  0
CIRCLE
  8
_1-1_
  6
CONTINUOUS
 62
    7
 10
245.91467780035896
 20
162.60965708139781
 40
0.0608883012790937
  0
CIRCLE
  8
_1-1_
  6
CONTINUOUS
 62
    7
 10
245.45763170396961
 20
164.66642637510557
 40
0.0608883012790937
  0
CIRCLE
  8
_1-1_
  6
CONTINUOUS
 62
    7
 10
245.5718994140625
 20
163.98083248653927
 40
0.0608883012790937
  0
CIRCLE
  8
_1-1_
  6
CONTINUOUS
 62
    7
 10
246.1834716796875
 20
163.83666167388091
 40
0.0608883012790937
  0
CIRCLE
  8
_1-1_
  6
CONTINUOUS
 62
    7
 10
246.28469931112755
 20
164.24157219964107
 40
0.0608883012790937
  0
CIRCLE
  8
_1-1_
  6
CONTINUOUS
 62
    7
 10
248.72220425992401
 20
162.57803427206505
 40
0.0608883012790937
  0
CIRCLE
  8
_1-1_
  6
CONTINUOUS
 62
    7
 10
249.11998851879224
 20
164.13962699271539
 40
0.0608883012790937
  0
CIRCLE
  8
_1-1_
  6
CONTINUOUS
 62
    7
 10
248.89145309860643
 20
163.45403310414909
 40
0.0608883012790937
  0
CIRCLE
  8
_1-1_
  6
CONTINUOUS
 62
    7
 10
249.17635531038852
 20
163.84745005014781
 40
0.0608883012790937
  0
CIRCLE
  8
_1-1_
  6
CONTINUOUS
 62
    7
 10
248.19782978779563
 20
164.15113294446792
 40
0.0608883012790937
  0
CIRCLE
  8
_1-1_
  6
CONTINUOUS
 62
    7
 10
247.12453481313347
 20
164.85267432960305
 40
0.0608883012790937
  0
CIRCLE
  8
_1-1_
  6
CONTINUOUS
 62
    7
 10
245.50580823743667
 20
163.11334558435391
 40
0.0608883012790937
  0
CIRCLE
  8
_1-1_
  6
CONTINUOUS
 62
    7
 10
246.70792038376268
 20
164.66400146484375
 40
0.0608883012790937
  0
CIRCLE
  8
_1-1_
  6
CONTINUOUS
 62
    7
 10
246.47938496357688
 20
163.97840757627745
 40
0.0608883012790937
  0
CIRCLE
  8
_1-1_
  6
CONTINUOUS
 62
    7
 10
246.0223388671875
 20
162.83575521933068
 40
0.0608883012790937
  0
CIRCLE
  8
_1-1_
  6
CONTINUOUS
 62
    7
 10
247.33792691617401
 20
163.08960373337206
 40
0.0608883012790937
  0
CIRCLE
  8
_1-1_
  6
CONTINUOUS
 62
    7
 10
247.43915454761404
 20
163.49451425913219
 40
0.0608883012790937
  0
CIRCLE
  8
_1-1_
  6
CONTINUOUS
 62
    7
 10
246.76428717535896
 20
164.3718245222762
 40
0.0608883012790937
  0
CIRCLE
  8
_1-1_
  6
CONTINUOUS
 62
    7
 10
245.78576165276607
 20
164.6755074165963
 40
0.0608883012790937
  0
CIRCLE
  8
_1-1_
  6
CONTINUOUS
 62
    7
 10
247.07106306746201
 20
164.30397652290964
 40
0.0608883012790937
  0
CIRCLE
  8
_1-1_
  6
CONTINUOUS
 62
    7
 10
248.38665111644849
 20
164.55782503695102
 40
0.0608883012790937
  0
CIRCLE
  8
_1-1_
  6
CONTINUOUS
 62
    7
 10
248.48787874788852
 20
164.96273556271115
 40
0.0608883012790937
  0
CIRCLE
  8
_1-1_
  6
CONTINUOUS
 62
    7
 10
249.41582757073482
 20
164.92226677971919
 40
0.0608883012790937
  0
CIRCLE
  8
_1-1_
  6
CONTINUOUS
 62
    7
 10
248.95878147434544
 20
163.7796144227724
 40
0.0608883012790937
  0
CIRCLE
  8
_1-1_
  6
CONTINUOUS
 62
    7
 10
248.43440700221709
 20
165.03290949641047
 40
0.0608883012790937
  0
CIRCLE
  8
_1-1_
  6
CONTINUOUS
 62
    7
 10
247.96716638513516
 20
164.65751854149073
 40
0.0608883012790937
  0
CIRCLE
  8
_1-1_
  6
CONTINUOUS
 62
    7
 10
248.06839401657518
 20
165.06242906725086
 40
0.0608883012790937
  0
CIRCLE
  8
_1-1_
  6
CONTINUOUS
 62
    7
 10
250.43530438397383
 20
161.86271048880914
 40
0.0608883012790937
  0
CIRCLE
  8
_1-1_
  6
CONTINUOUS
 62
    7
 10
249.63545515730576
 20
160.94859355204815
 40
0.0608883012790937
  0
CIRCLE
  8
_1-1_
  6
CONTINUOUS
 62
    7
 10
249.17840906091641
 20
163.00536284575591
 40
0.0608883012790937
  0
CIRCLE
  8
_1-1_
  6
CONTINUOUS
 62
    7
 10
249.2926767710093
 20
162.31976895718961
 40
0.0608883012790937
  0
CIRCLE
  8
_1-1_
  6
CONTINUOUS
 62
    7
 10
249.9042490366343
 20
162.17559814453125
 40
0.0608883012790937
  0
CIRCLE
  8
_1-1_
  6
CONTINUOUS
 62
    7
 10
250.00547666807435
 20
162.58050867029141
 40
0.0608883012790937
  0
CIRCLE
  8
_1-1_
  6
CONTINUOUS
 62
    7
 10
252.44298161687078
 20
160.91697074271539
 40
0.0608883012790937
  0
CIRCLE
  8
_1-1_
  6
CONTINUOUS
 62
    7
 10
252.84076587573904
 20
162.47856346336573
 40
0.0608883012790937
  0
CIRCLE
  8
_1-1_
  6
CONTINUOUS
 62
    7
 10
252.61223045555323
 20
161.79296957479943
 40
0.0608883012790937
  0
CIRCLE
  8
_1-1_
  6
CONTINUOUS
 62
    7
 10
252.89713266733531
 20
162.18638652079815
 40
0.0608883012790937
  0
CIRCLE
  8
_1-1_
  6
CONTINUOUS
 62
    7
 10
251.91860714474242
 20
162.49006941511826
 40
0.0608883012790937
  0
CIRCLE
  8
_1-1_
  6
CONTINUOUS
 62
    7
 10
250.84531217008026
 20
163.19161080025339
 40
0.0608883012790937
  0
CIRCLE
  8
_1-1_
  6
CONTINUOUS
 62
    7
 10
249.22658559438347
 20
161.45228205500422
 40
0.0608883012790937
  0
CIRCLE
  8
_1-1_
  6
CONTINUOUS
 62
    7
 10
250.42869774070948
 20
163.00293793549409
 40
0.0608883012790937
  0
CIRCLE
  8
_1-1_
  6
CONTINUOUS
 62
    7
 10
250.20016232052367
 20
162.31734404692779
 40
0.0608883012790937
  0
CIRCLE
  8
_1-1_
  6
CONTINUOUS
 62
    7
 10
249.7431162241343
 20
161.17469168998102
 40
0.0608883012790937
  0
CIRCLE
  8
_1-1_
  6
CONTINUOUS
 62
    7
 10
251.05870427312078
 20
161.4285402040224
 40
0.0608883012790937
  0
CIRCLE
  8
_1-1_
  6
CONTINUOUS
 62
    7
 10
251.15993190456084
 20
161.83345072978253
 40
0.0608883012790937
  0
CIRCLE
  8
_1-1_
  6
CONTINUOUS
 62
    7
 10
250.48506453230576
 20
162.71076099292654
 40
0.0608883012790937
  0
CIRCLE
  8
_1-1_
  6
CONTINUOUS
 62
    7
 10
249.50653900971284
 20
163.01444388724664
 40
0.0608883012790937
  0
CIRCLE
  8
_1-1_
  6
CONTINUOUS
 62
    7
 10
250.7918404244088
 20
162.64291299355997
 40
0.0608883012790937
  0
CIRCLE
  8
_1-1_
  6
CONTINUOUS
 62
    7
 10
252.10742847339529
 20
162.89676150760135
 40
0.0608883012790937
  0
CIRCLE
  8
_1-1_
  6
CONTINUOUS
 62
    7
 10
252.20865610483531
 20
163.30167203336148
 40
0.0608883012790937
  0
CIRCLE
  8
_1-1_
  6
CONTINUOUS
 62
    7
 10
253.13660492768159
 20
163.26120325036953
 40
0.0608883012790937
  0
CIRCLE
  8
_1-1_
  6
CONTINUOUS
 62
    7
 10
252.67955883129224
 20
162.11855089342274
 40
0.0608883012790937
  0
CIRCLE
  8
_1-1_
  6
CONTINUOUS
 62
    7
 10
252.15518435916385
 20
163.37184596706081
 40
0.0608883012790937
  0
CIRCLE
  8
_1-1_
  6
CONTINUOUS
 62
    7
 10
251.68794374208193
 20
162.99645501214107
 40
0.0608883012790937
  0
CIRCLE
  8
_1-1_
  6
CONTINUOUS
 62
    7
 10
251.78917137352198
 20
163.4013655379012
 40
0.0608883012790937
  0
CIRCLE
  8
_1-1_
  6
CONTINUOUS
 62
    7
 10
243.79105026657518
 20
164.52041213576859
 40
0.0608883012790937
  0
CIRCLE
  8
_1-1_
  6
CONTINUOUS
 62
    7
 10
242.99120103990711
 20
163.6062951990076
 40
0.0608883012790937
  0
CIRCLE
  8
_1-1_
  6
CONTINUOUS
 62
    7
 10
242.53415494351776
 20
165.66306449271539
 40
0.0608883012790937
  0
CIRCLE
  8
_1-1_
  6
CONTINUOUS
 62
    7
 10
242.64842265361065
 20
164.97747060414909
 40
0.0608883012790937
  0
CIRCLE
  8
_1-1_
  6
CONTINUOUS
 62
    7
 10
243.25999491923565
 20
164.83329979149073
 40
0.0608883012790937
  0
CIRCLE
  8
_1-1_
  6
CONTINUOUS
 62
    7
 10
243.36122255067568
 20
165.23821031725086
 40
0.0608883012790937
  0
CIRCLE
  8
_1-1_
  6
CONTINUOUS
 62
    7
 10
245.79872749947214
 20
163.57467238967484
 40
0.0608883012790937
  0
CIRCLE
  8
_1-1_
  6
CONTINUOUS
 62
    7
 10
246.19651175834039
 20
165.13626511032518
 40
0.0608883012790937
  0
CIRCLE
  8
_1-1_
  6
CONTINUOUS
 62
    7
 10
245.96797633815459
 20
164.45067122175888
 40
0.0608883012790937
  0
CIRCLE
  8
_1-1_
  6
CONTINUOUS
 62
    7
 10
246.25287854993667
 20
164.8440881677576
 40
0.0608883012790937
  0
CIRCLE
  8
_1-1_
  6
CONTINUOUS
 62
    7
 10
245.27435302734375
 20
165.14777106207771
 40
0.0608883012790937
  0
CIRCLE
  8
_1-1_
  6
CONTINUOUS
 62
    7
 10
244.20105805268159
 20
165.84931244721284
 40
0.0608883012790937
  0
CIRCLE
  8
_1-1_
  6
CONTINUOUS
 62
    7
 10
242.58233147698482
 20
164.1099837019637
 40
0.0608883012790937
  0
CIRCLE
  8
_1-1_
  6
CONTINUOUS
 62
    7
 10
243.78444362331084
 20
165.66063958245357
 40
0.0608883012790937
  0
CIRCLE
  8
_1-1_
  6
CONTINUOUS
 62
    7
 10
243.555908203125
 20
164.97504569388727
 40
0.0608883012790937
  0
CIRCLE
  8
_1-1_
  6
CONTINUOUS
 62
    7
 10
243.09886210673565
 20
163.83239333694047
 40
0.0608883012790937
  0
CIRCLE
  8
_1-1_
  6
CONTINUOUS
 62
    7
 10
244.41445015572214
 20
164.08624185098185
 40
0.0608883012790937
  0
CIRCLE
  8
_1-1_
  6
CONTINUOUS
 62
    7
 10
244.51567778716219
 20
164.49115237674198
 40
0.0608883012790937
  0
CIRCLE
  8
_1-1_
  6
CONTINUOUS
 62
    7
 10
243.84081041490711
 20
165.36846263988599
 40
0.0608883012790937
  0
CIRCLE
  8
_1-1_
  6
CONTINUOUS
 62
    7
 10
242.86228489231419
 20
165.67214553420609
 40
0.0608883012790937
  0
CIRCLE
  8
_1-1_
  6
CONTINUOUS
 62
    7
 10
244.14758630701016
 20
165.30061464051943
 40
0.0608883012790937
  0
CIRCLE
  8
_1-1_
  6
CONTINUOUS
 62
    7
 10
245.46317435599664
 20
165.55446315456081
 40
0.0608883012790937
  0
CIRCLE
  8
_1-1_
  6
CONTINUOUS
 62
    7
 10
245.56440198743667
 20
165.95937368032097
 40
0.0608883012790937
  0
CIRCLE
  8
_1-1_
  6
CONTINUOUS
 62
    7
 10
246.49235081028294
 20
165.91890489732899
 40
0.0608883012790937
  0
CIRCLE
  8
_1-1_
  6
CONTINUOUS
 62
    7
 10
246.03530471389359
 20
164.77625254038219
 40
0.0608883012790937
  0
CIRCLE
  8
_1-1_
  6
CONTINUOUS
 62
    7
 10
245.51093024176521
 20
166.02954761402029
 40
0.0608883012790937
  0
CIRCLE
  8
_1-1_
  6
CONTINUOUS
 62
    7
 10
245.04368962468328
 20
165.65415665910052
 40
0.0608883012790937
  0
CIRCLE
  8
_1-1_
  6
CONTINUOUS
 62
    7
 10
245.14491725612334
 20
166.05906718486065
 40
0.0608883012790937
  0
ARC
  8
_1-4_
  6
CONTINUOUS
 62
    3
 10
222.70717311549834
 20
162.60940964157518
 40
17.575401615452122
 50
333.74937438964849
 51
32.147369384765696
  0
CIRCLE
  8
_1-1_
  6
CONTINUOUS
 62
    7
 10
243.06998587943414
 20
164.92038623706716
 40
0.0608883012790937
  0
CIRCLE
  8
_1-1_
  6
CONTINUOUS
 62
    7
 10
243.92852783203125
 20
164.03158239416175
 40
0.0608883012790937
  0
CIRCLE
  8
_1-1_
  6
CONTINUOUS
 62
    7
 10
244.0297554634713
 20
164.43649291992187
 40
0.0608883012790937
  0
CIRCLE
  8
_1-1_
  6
CONTINUOUS
 62
    7
 10
243.19078600084461
 20
162.33903214738177
 40
0.0608883012790937
  0
CIRCLE
  8
_1-1_
  6
CONTINUOUS
 62
    7
 10
245.60574918179901
 20
162.77440251530828
 40
0.0608883012790937
  0
CIRCLE
  8
_1-1_
  6
CONTINUOUS
 62
    7
 10
245.52255991342906
 20
165.19798897408151
 40
0.0608883012790937
  0
CIRCLE
  8
_1-1_
  6
CONTINUOUS
 62
    7
 10
243.29852129961995
 20
164.13775882205448
 40
0.0608883012790937
  0
CIRCLE
  8
_1-1_
  6
CONTINUOUS
 62
    7
 10
243.06998587943414
 20
163.45216493348818
 40
0.0608883012790937
  0
CIRCLE
  8
_1-1_
  6
CONTINUOUS
 62
    7
 10
243.92852783203125
 20
162.56336109058279
 40
0.0608883012790937
  0
CIRCLE
  8
_1-1_
  6
CONTINUOUS
 62
    7
 10
244.0297554634713
 20
162.96827161634292
 40
0.0608883012790937
  0
CIRCLE
  8
_1-1_
  6
CONTINUOUS
 62
    7
 10
243.35488809121622
 20
163.84558187948693
 40
0.0608883012790937
  0
CIRCLE
  8
_1-1_
  6
CONTINUOUS
 62
    7
 10
245.50085944098396
 20
162.66952514648437
 40
0.0608883012790937
  0
CIRCLE
  8
_1-1_
  6
CONTINUOUS
 62
    7
 10
245.55722623258026
 20
162.37734820391682
 40
0.0608883012790937
  0
CIRCLE
  8
_1-1_
  6
CONTINUOUS
 62
    7
 10
244.57870070998734
 20
162.68103109823693
 40
0.0608883012790937
  0
CIRCLE
  8
_1-1_
  6
CONTINUOUS
 62
    7
 10
245.05346349767737
 20
163.0586861275338
 40
0.0608883012790937
  0
CIRCLE
  8
_1-1_
  6
CONTINUOUS
 62
    7
 10
243.79656817461995
 20
164.20133848448057
 40
0.0608883012790937
  0
CIRCLE
  8
_1-1_
  6
CONTINUOUS
 62
    7
 10
243.91083588471284
 20
163.51574459591427
 40
0.0608883012790937
  0
CIRCLE
  8
_1-1_
  6
CONTINUOUS
 62
    7
 10
244.52240815033784
 20
163.37157378325591
 40
0.0608883012790937
  0
CIRCLE
  8
_1-1_
  6
CONTINUOUS
 62
    7
 10
244.62363578177789
 20
163.77648430901607
 40
0.0608883012790937
  0
CIRCLE
  8
_1-1_
  6
CONTINUOUS
 62
    7
 10
245.4634712837838
 20
164.38758643897805
 40
0.0608883012790937
  0
CIRCLE
  8
_1-1_
  6
CONTINUOUS
 62
    7
 10
243.84474470808701
 20
162.64825769372891
 40
0.0608883012790937
  0
CIRCLE
  8
_1-1_
  6
CONTINUOUS
 62
    7
 10
245.04685685441302
 20
164.19891357421875
 40
0.0608883012790937
  0
CIRCLE
  8
_1-1_
  6
CONTINUOUS
 62
    7
 10
244.81832143422722
 20
163.51331968565245
 40
0.0608883012790937
  0
CIRCLE
  8
_1-1_
  6
CONTINUOUS
 62
    7
 10
244.36127533783784
 20
162.37066732870568
 40
0.0608883012790937
  0
CIRCLE
  8
_1-1_
  6
CONTINUOUS
 62
    7
 10
245.1032236460093
 20
163.9067366316512
 40
0.0608883012790937
  0
CIRCLE
  8
_1-1_
  6
CONTINUOUS
 62
    7
 10
244.12469812341641
 20
164.2104195259713
 40
0.0608883012790937
  0
CIRCLE
  8
_1-1_
  6
CONTINUOUS
 62
    7
 10
245.40999953811234
 20
163.83888863228464
 40
0.0608883012790937
  0
CIRCLE
  8
_1-1_
  6
CONTINUOUS
 62
    7
 10
244.32260049355997
 20
165.51705025337839
 40
0.0608883012790937
  0
CIRCLE
  8
_1-1_
  6
CONTINUOUS
 62
    7
 10
243.5227512668919
 20
164.6029333166174
 40
0.0608883012790937
  0
CIRCLE
  8
_1-1_
  6
CONTINUOUS
 62
    7
 10
243.06570517050255
 20
166.65970261032518
 40
0.0608883012790937
  0
CIRCLE
  8
_1-1_
  6
CONTINUOUS
 62
    7
 10
243.17997288059544
 20
165.97410872175888
 40
0.0608883012790937
  0
CIRCLE
  8
_1-1_
  6
CONTINUOUS
 62
    7
 10
243.79154514622044
 20
165.82993790910052
 40
0.0608883012790937
  0
CIRCLE
  8
_1-1_
  6
CONTINUOUS
 62
    7
 10
243.8927727776605
 20
166.23484843486065
 40
0.0608883012790937
  0
CIRCLE
  8
_1-1_
  6
CONTINUOUS
 62
    7
 10
243.11388170396961
 20
165.10662181957349
 40
0.0608883012790937
  0
CIRCLE
  8
_1-1_
  6
CONTINUOUS
 62
    7
 10
244.31599385029563
 20
166.65727770006336
 40
0.0608883012790937
  0
CIRCLE
  8
_1-1_
  6
CONTINUOUS
 62
    7
 10
243.63041233372044
 20
164.82903145455026
 40
0.0608883012790937
  0
CIRCLE
  8
_1-1_
  6
CONTINUOUS
 62
    7
 10
244.94600038270693
 20
165.08287996859164
 40
0.0608883012790937
  0
CIRCLE
  8
_1-1_
  6
CONTINUOUS
 62
    7
 10
245.04722801414698
 20
165.48779049435177
 40
0.0608883012790937
  0
CIRCLE
  8
_1-1_
  6
CONTINUOUS
 62
    7
 10
244.3723606418919
 20
166.36510075749578
 40
0.0608883012790937
  0
CIRCLE
  8
_1-1_
  6
CONTINUOUS
 62
    7
 10
244.67913653399495
 20
166.29725275812922
 40
0.0608883012790937
  0
CIRCLE
  8
_1-1_
  6
CONTINUOUS
 62
    7
 10
245.5752398516681
 20
166.65079477671031
 40
0.0608883012790937
  0
CIRCLE
  8
_1-1_
  6
CONTINUOUS
 62
    7
 10
245.52993362014359
 20
162.32786023938979
 40
0.0608883012790937
  0
CIRCLE
  8
_1-1_
  6
CONTINUOUS
 62
    7
 10
241.70389536264781
 20
164.3435792665224
 40
0.0608883012790937
  0
CIRCLE
  8
_1-1_
  6
CONTINUOUS
 62
    7
 10
241.47535994246201
 20
163.65798537795609
 40
0.0608883012790937
  0
CIRCLE
  8
_1-1_
  6
CONTINUOUS
 62
    7
 10
242.33390189505914
 20
162.76918153505068
 40
0.0608883012790937
  0
CIRCLE
  8
_1-1_
  6
CONTINUOUS
 62
    7
 10
242.43512952649917
 20
163.17409206081081
 40
0.0608883012790937
  0
CIRCLE
  8
_1-1_
  6
CONTINUOUS
 62
    7
 10
241.76026215424409
 20
164.05140232395482
 40
0.0608883012790937
  0
CIRCLE
  8
_1-1_
  6
CONTINUOUS
 62
    7
 10
241.59616006387247
 20
161.0766312882707
 40
0.0608883012790937
  0
CIRCLE
  8
_1-1_
  6
CONTINUOUS
 62
    7
 10
244.01112324482688
 20
161.51200165619721
 40
0.0608883012790937
  0
CIRCLE
  8
_1-1_
  6
CONTINUOUS
 62
    7
 10
243.08896451383026
 20
161.52350760794977
 40
0.0608883012790937
  0
CIRCLE
  8
_1-1_
  6
CONTINUOUS
 62
    7
 10
243.92793397645693
 20
163.93558811497044
 40
0.0608883012790937
  0
CIRCLE
  8
_1-1_
  6
CONTINUOUS
 62
    7
 10
241.49493243243245
 20
165.28613941089529
 40
0.0608883012790937
  0
CIRCLE
  8
_1-1_
  6
CONTINUOUS
 62
    7
 10
241.70389536264781
 20
162.87535796294341
 40
0.0608883012790937
  0
CIRCLE
  8
_1-1_
  6
CONTINUOUS
 62
    7
 10
241.47535994246201
 20
162.18976407437711
 40
0.0608883012790937
  0
CIRCLE
  8
_1-1_
  6
CONTINUOUS
 62
    7
 10
242.33390189505914
 20
161.30096023147172
 40
0.0608883012790937
  0
CIRCLE
  8
_1-1_
  6
CONTINUOUS
 62
    7
 10
242.43512952649917
 20
161.70587075723185
 40
0.0608883012790937
  0
CIRCLE
  8
_1-1_
  6
CONTINUOUS
 62
    7
 10
241.76026215424409
 20
162.58318102037586
 40
0.0608883012790937
  0
CIRCLE
  8
_1-1_
  6
CONTINUOUS
 62
    7
 10
243.90623350401185
 20
161.40712428737331
 40
0.0608883012790937
  0
CIRCLE
  8
_1-1_
  6
CONTINUOUS
 62
    7
 10
243.96260029560813
 20
161.11494734480576
 40
0.0608883012790937
  0
CIRCLE
  8
_1-1_
  6
CONTINUOUS
 62
    7
 10
242.98407477301521
 20
161.41863023912586
 40
0.0608883012790937
  0
CIRCLE
  8
_1-1_
  6
CONTINUOUS
 62
    7
 10
243.45883756070526
 20
161.79628526842274
 40
0.0608883012790937
  0
CIRCLE
  8
_1-1_
  6
CONTINUOUS
 62
    7
 10
242.20194223764781
 20
162.93893762536953
 40
0.0608883012790937
  0
CIRCLE
  8
_1-1_
  6
CONTINUOUS
 62
    7
 10
242.31620994774073
 20
162.25334373680323
 40
0.0608883012790937
  0
CIRCLE
  8
_1-1_
  6
CONTINUOUS
 62
    7
 10
242.92778221336573
 20
162.10917292414484
 40
0.0608883012790937
  0
CIRCLE
  8
_1-1_
  6
CONTINUOUS
 62
    7
 10
243.02900984480576
 20
162.514083449905
 40
0.0608883012790937
  0
CIRCLE
  8
_1-1_
  6
CONTINUOUS
 62
    7
 10
243.86884534681167
 20
163.12518557986698
 40
0.0608883012790937
  0
CIRCLE
  8
_1-1_
  6
CONTINUOUS
 62
    7
 10
242.25011877111487
 20
161.38585683461784
 40
0.0608883012790937
  0
CIRCLE
  8
_1-1_
  6
CONTINUOUS
 62
    7
 10
243.45223091744089
 20
162.93651271510768
 40
0.0608883012790937
  0
CIRCLE
  8
_1-1_
  6
CONTINUOUS
 62
    7
 10
243.22369549725508
 20
162.25091882654141
 40
0.0608883012790937
  0
CIRCLE
  8
_1-1_
  6
CONTINUOUS
 62
    7
 10
242.76664940086573
 20
161.10826646959461
 40
0.0608883012790937
  0
CIRCLE
  8
_1-1_
  6
CONTINUOUS
 62
    7
 10
243.50859770903719
 20
162.64433577254013
 40
0.0608883012790937
  0
CIRCLE
  8
_1-1_
  6
CONTINUOUS
 62
    7
 10
242.53007218644427
 20
162.94801866686024
 40
0.0608883012790937
  0
CIRCLE
  8
_1-1_
  6
CONTINUOUS
 62
    7
 10
243.81537360114021
 20
162.57648777317357
 40
0.0608883012790937
  0
CIRCLE
  8
_1-1_
  6
CONTINUOUS
 62
    7
 10
242.72797455658784
 20
164.25464939426732
 40
0.0608883012790937
  0
CIRCLE
  8
_1-1_
  6
CONTINUOUS
 62
    7
 10
241.92812532991977
 20
163.34053245750636
 40
0.0608883012790937
  0
CIRCLE
  8
_1-1_
  6
CONTINUOUS
 62
    7
 10
241.47107923353042
 20
165.39730175121412
 40
0.0608883012790937
  0
CIRCLE
  8
_1-1_
  6
CONTINUOUS
 62
    7
 10
241.58534694362334
 20
164.71170786264781
 40
0.0608883012790937
  0
CIRCLE
  8
_1-1_
  6
CONTINUOUS
 62
    7
 10
242.19691920924834
 20
164.56753704998945
 40
0.0608883012790937
  0
CIRCLE
  8
_1-1_
  6
CONTINUOUS
 62
    7
 10
242.29814684068836
 20
164.97244757574958
 40
0.0608883012790937
  0
CIRCLE
  8
_1-1_
  6
CONTINUOUS
 62
    7
 10
241.51925576699747
 20
163.84422096046242
 40
0.0608883012790937
  0
CIRCLE
  8
_1-1_
  6
CONTINUOUS
 62
    7
 10
242.72136791332349
 20
165.39487684095229
 40
0.0608883012790937
  0
CIRCLE
  8
_1-1_
  6
CONTINUOUS
 62
    7
 10
242.49283249313768
 20
164.70928295238599
 40
0.0608883012790937
  0
CIRCLE
  8
_1-1_
  6
CONTINUOUS
 62
    7
 10
242.03578639674834
 20
163.56663059543919
 40
0.0608883012790937
  0
CIRCLE
  8
_1-1_
  6
CONTINUOUS
 62
    7
 10
243.35137444573482
 20
163.82047910948057
 40
0.0608883012790937
  0
CIRCLE
  8
_1-1_
  6
CONTINUOUS
 62
    7
 10
243.45260207717484
 20
164.22538963524073
 40
0.0608883012790937
  0
CIRCLE
  8
_1-1_
  6
CONTINUOUS
 62
    7
 10
242.77773470491977
 20
165.10269989838471
 40
0.0608883012790937
  0
CIRCLE
  8
_1-1_
  6
CONTINUOUS
 62
    7
 10
243.08451059702281
 20
165.03485189901818
 40
0.0608883012790937
  0
CIRCLE
  8
_1-1_
  6
CONTINUOUS
 62
    7
 10
243.93530768317146
 20
161.06545938027872
 40
0.0608883012790937
  0
CIRCLE
  8
_1-1_
  6
CONTINUOUS
 62
    7
 10
241.1059075432855
 20
163.81204141152872
 40
0.0608883012790937
  0
CIRCLE
  8
_1-1_
  6
CONTINUOUS
 62
    7
 10
240.87737212309966
 20
163.12644752296242
 40
0.0608883012790937
  0
CIRCLE
  8
_1-1_
  6
CONTINUOUS
 62
    7
 10
241.7359140756968
 20
162.23764368005703
 40
0.0608883012790937
  0
CIRCLE
  8
_1-1_
  6
CONTINUOUS
 62
    7
 10
241.83714170713685
 20
162.64255420581716
 40
0.0608883012790937
  0
CIRCLE
  8
_1-1_
  6
CONTINUOUS
 62
    7
 10
241.16227433488177
 20
163.51986446896115
 40
0.0608883012790937
  0
CIRCLE
  8
_1-1_
  6
CONTINUOUS
 62
    7
 10
240.99817224451016
 20
160.54509343327703
 40
0.0608883012790937
  0
CIRCLE
  8
_1-1_
  6
CONTINUOUS
 62
    7
 10
243.41313542546453
 20
160.98046380120357
 40
0.0608883012790937
  0
CIRCLE
  8
_1-1_
  6
CONTINUOUS
 62
    7
 10
242.49097669446792
 20
160.99196975295609
 40
0.0608883012790937
  0
CIRCLE
  8
_1-1_
  6
CONTINUOUS
 62
    7
 10
243.32994615709461
 20
163.40405025997677
 40
0.0608883012790937
  0
CIRCLE
  8
_1-1_
  6
CONTINUOUS
 62
    7
 10
240.8969446130701
 20
164.75460155590162
 40
0.0608883012790937
  0
CIRCLE
  8
_1-1_
  6
CONTINUOUS
 62
    7
 10
241.1059075432855
 20
162.34382010794977
 40
0.0608883012790937
  0
CIRCLE
  8
_1-1_
  6
CONTINUOUS
 62
    7
 10
240.87737212309966
 20
161.65822621938347
 40
0.0608883012790937
  0
CIRCLE
  8
_1-1_
  6
CONTINUOUS
 62
    7
 10
241.7359140756968
 20
160.76942237647805
 40
0.0608883012790937
  0
CIRCLE
  8
_1-1_
  6
CONTINUOUS
 62
    7
 10
241.83714170713685
 20
161.17433290223818
 40
0.0608883012790937
  0
CIRCLE
  8
_1-1_
  6
CONTINUOUS
 62
    7
 10
241.16227433488177
 20
162.05164316538219
 40
0.0608883012790937
  0
CIRCLE
  8
_1-1_
  6
CONTINUOUS
 62
    7
 10
243.30824568464951
 20
160.87558643237966
 40
0.0608883012790937
  0
CIRCLE
  8
_1-1_
  6
CONTINUOUS
 62
    7
 10
243.36461247624578
 20
160.58340948981208
 40
0.0608883012790937
  0
CIRCLE
  8
_1-1_
  6
CONTINUOUS
 62
    7
 10
242.38608695365289
 20
160.88709238413219
 40
0.0608883012790937
  0
CIRCLE
  8
_1-1_
  6
CONTINUOUS
 62
    7
 10
242.86084974134292
 20
161.26474741342906
 40
0.0608883012790937
  0
CIRCLE
  8
_1-1_
  6
CONTINUOUS
 62
    7
 10
241.6039544182855
 20
162.40739977037586
 40
0.0608883012790937
  0
CIRCLE
  8
_1-1_
  6
CONTINUOUS
 62
    7
 10
241.71822212837839
 20
161.72180588180956
 40
0.0608883012790937
  0
CIRCLE
  8
_1-1_
  6
CONTINUOUS
 62
    7
 10
242.32979439400339
 20
161.5776350691512
 40
0.0608883012790937
  0
CIRCLE
  8
_1-1_
  6
CONTINUOUS
 62
    7
 10
242.43102202544344
 20
161.98254559491133
 40
0.0608883012790937
  0
CIRCLE
  8
_1-1_
  6
CONTINUOUS
 62
    7
 10
243.27085752744935
 20
162.59364772487331
 40
0.0608883012790937
  0
CIRCLE
  8
_1-1_
  6
CONTINUOUS
 62
    7
 10
241.65213095175255
 20
160.85431897962417
 40
0.0608883012790937
  0
CIRCLE
  8
_1-1_
  6
CONTINUOUS
 62
    7
 10
242.85424309807857
 20
162.40497486011404
 40
0.0608883012790937
  0
CIRCLE
  8
_1-1_
  6
CONTINUOUS
 62
    7
 10
242.62570767789276
 20
161.71938097154774
 40
0.0608883012790937
  0
CIRCLE
  8
_1-1_
  6
CONTINUOUS
 62
    7
 10
242.16866158150339
 20
160.57672861460094
 40
0.0608883012790937
  0
CIRCLE
  8
_1-1_
  6
CONTINUOUS
 62
    7
 10
242.91060988967484
 20
162.11279791754646
 40
0.0608883012790937
  0
CIRCLE
  8
_1-1_
  6
CONTINUOUS
 62
    7
 10
241.93208436708193
 20
162.41648081186656
 40
0.0608883012790937
  0
CIRCLE
  8
_1-1_
  6
CONTINUOUS
 62
    7
 10
243.21738578177789
 20
162.0449499181799
 40
0.0608883012790937
  0
CIRCLE
  8
_1-1_
  6
CONTINUOUS
 62
    7
 10
242.12998673722552
 20
163.72311153927365
 40
0.0608883012790937
  0
CIRCLE
  8
_1-1_
  6
CONTINUOUS
 62
    7
 10
241.33013751055745
 20
162.80899460251268
 40
0.0608883012790937
  0
CIRCLE
  8
_1-1_
  6
CONTINUOUS
 62
    7
 10
240.8730914141681
 20
164.86576389622044
 40
0.0608883012790937
  0
CIRCLE
  8
_1-1_
  6
CONTINUOUS
 62
    7
 10
240.98735912426099
 20
164.18017000765414
 40
0.0608883012790937
  0
CIRCLE
  8
_1-1_
  6
CONTINUOUS
 62
    7
 10
241.59893138988599
 20
164.03599919499578
 40
0.0608883012790937
  0
CIRCLE
  8
_1-1_
  6
CONTINUOUS
 62
    7
 10
241.70015902132602
 20
164.44090972075591
 40
0.0608883012790937
  0
CIRCLE
  8
_1-1_
  6
CONTINUOUS
 62
    7
 10
240.92126794763516
 20
163.31268310546875
 40
0.0608883012790937
  0
CIRCLE
  8
_1-1_
  6
CONTINUOUS
 62
    7
 10
242.12338009396117
 20
164.86333898595862
 40
0.0608883012790937
  0
CIRCLE
  8
_1-1_
  6
CONTINUOUS
 62
    7
 10
241.89484467377534
 20
164.17774509739232
 40
0.0608883012790937
  0
CIRCLE
  8
_1-1_
  6
CONTINUOUS
 62
    7
 10
241.43779857738599
 20
163.03509274044552
 40
0.0608883012790937
  0
CIRCLE
  8
_1-1_
  6
CONTINUOUS
 62
    7
 10
242.75338662637247
 20
163.28894125448693
 40
0.0608883012790937
  0
CIRCLE
  8
_1-1_
  6
CONTINUOUS
 62
    7
 10
242.8546142578125
 20
163.69385178024706
 40
0.0608883012790937
  0
CIRCLE
  8
_1-1_
  6
CONTINUOUS
 62
    7
 10
242.17974688555745
 20
164.57116204339107
 40
0.0608883012790937
  0
CIRCLE
  8
_1-1_
  6
CONTINUOUS
 62
    7
 10
242.4865227776605
 20
164.50331404402451
 40
0.0608883012790937
  0
CIRCLE
  8
_1-1_
  6
CONTINUOUS
 62
    7
 10
243.38262609533362
 20
164.85685606260557
 40
0.0608883012790937
  0
CIRCLE
  8
_1-1_
  6
CONTINUOUS
 62
    7
 10
243.33731986380914
 20
160.53392152528505
 40
0.0608883012790937
  0
CIRCLE
  8
_1-1_
  6
CONTINUOUS
 62
    7
 10
241.57102017789276
 20
160.3570267960832
 40
0.0608883012790937
  0
CIRCLE
  8
_1-1_
  6
CONTINUOUS
 62
    7
 10
241.34248475770693
 20
159.6714329075169
 40
0.0608883012790937
  0
CIRCLE
  8
_1-1_
  6
CONTINUOUS
 62
    7
 10
242.20102671030406
 20
158.78262906461148
 40
0.0608883012790937
  0
CIRCLE
  8
_1-1_
  6
CONTINUOUS
 62
    7
 10
242.30225434174409
 20
159.18753959037164
 40
0.0608883012790937
  0
CIRCLE
  8
_1-1_
  6
CONTINUOUS
 62
    7
 10
241.62738696948904
 20
160.06484985351562
 40
0.0608883012790937
  0
CIRCLE
  8
_1-1_
  6
CONTINUOUS
 62
    7
 10
241.46328487911742
 20
157.09007881783151
 40
0.0608883012790937
  0
CIRCLE
  8
_1-1_
  6
CONTINUOUS
 62
    7
 10
243.8782480600718
 20
157.52544918575802
 40
0.0608883012790937
  0
CIRCLE
  8
_1-1_
  6
CONTINUOUS
 62
    7
 10
242.95608932907518
 20
157.53695513751057
 40
0.0608883012790937
  0
CIRCLE
  8
_1-1_
  6
CONTINUOUS
 62
    7
 10
243.79505879170188
 20
159.94903564453125
 40
0.0608883012790937
  0
CIRCLE
  8
_1-1_
  6
CONTINUOUS
 62
    7
 10
241.36205724767737
 20
161.29958694045609
 40
0.0608883012790937
  0
CIRCLE
  8
_1-1_
  6
CONTINUOUS
 62
    7
 10
241.57102017789276
 20
158.88880549250422
 40
0.0608883012790937
  0
CIRCLE
  8
_1-1_
  6
CONTINUOUS
 62
    7
 10
241.34248475770693
 20
158.20321160393794
 40
0.0608883012790937
  0
CIRCLE
  8
_1-1_
  6
CONTINUOUS
 62
    7
 10
242.20102671030406
 20
157.31440776103253
 40
0.0608883012790937
  0
CIRCLE
  8
_1-1_
  6
CONTINUOUS
 62
    7
 10
242.30225434174409
 20
157.71931828679266
 40
0.0608883012790937
  0
CIRCLE
  8
_1-1_
  6
CONTINUOUS
 62
    7
 10
241.62738696948904
 20
158.59662854993667
 40
0.0608883012790937
  0
CIRCLE
  8
_1-1_
  6
CONTINUOUS
 62
    7
 10
243.77335831925677
 20
157.42057181693414
 40
0.0608883012790937
  0
CIRCLE
  8
_1-1_
  6
CONTINUOUS
 62
    7
 10
243.82972511085305
 20
157.12839487436656
 40
0.0608883012790937
  0
CIRCLE
  8
_1-1_
  6
CONTINUOUS
 62
    7
 10
242.85119958826016
 20
157.43207776868667
 40
0.0608883012790937
  0
CIRCLE
  8
_1-1_
  6
CONTINUOUS
 62
    7
 10
243.32596237595018
 20
157.80973279798354
 40
0.0608883012790937
  0
CIRCLE
  8
_1-1_
  6
CONTINUOUS
 62
    7
 10
242.06906705289276
 20
158.95238515493034
 40
0.0608883012790937
  0
CIRCLE
  8
_1-1_
  6
CONTINUOUS
 62
    7
 10
242.18333476298565
 20
158.26679126636404
 40
0.0608883012790937
  0
CIRCLE
  8
_1-1_
  6
CONTINUOUS
 62
    7
 10
242.79490702861065
 20
158.12262045370568
 40
0.0608883012790937
  0
CIRCLE
  8
_1-1_
  6
CONTINUOUS
 62
    7
 10
242.89613466005068
 20
158.52753097946581
 40
0.0608883012790937
  0
CIRCLE
  8
_1-1_
  6
CONTINUOUS
 62
    7
 10
243.73597016205659
 20
159.13863310942779
 40
0.0608883012790937
  0
CIRCLE
  8
_1-1_
  6
CONTINUOUS
 62
    7
 10
242.11724358635982
 20
157.39930436417865
 40
0.0608883012790937
  0
CIRCLE
  8
_1-1_
  6
CONTINUOUS
 62
    7
 10
243.31935573268584
 20
158.94996024466852
 40
0.0608883012790937
  0
CIRCLE
  8
_1-1_
  6
CONTINUOUS
 62
    7
 10
243.0908203125
 20
158.26436635610222
 40
0.0608883012790937
  0
CIRCLE
  8
_1-1_
  6
CONTINUOUS
 62
    7
 10
242.63377421611065
 20
157.12171399915542
 40
0.0608883012790937
  0
CIRCLE
  8
_1-1_
  6
CONTINUOUS
 62
    7
 10
243.37572252428211
 20
158.65778330210094
 40
0.0608883012790937
  0
CIRCLE
  8
_1-1_
  6
CONTINUOUS
 62
    7
 10
242.39719700168919
 20
158.96146619642104
 40
0.0608883012790937
  0
CIRCLE
  8
_1-1_
  6
CONTINUOUS
 62
    7
 10
243.68249841638516
 20
158.58993530273437
 40
0.0608883012790937
  0
CIRCLE
  8
_1-1_
  6
CONTINUOUS
 62
    7
 10
242.59509937183279
 20
160.26809692382812
 40
0.0608883012790937
  0
CIRCLE
  8
_1-1_
  6
CONTINUOUS
 62
    7
 10
241.79525014516472
 20
159.35397998706716
 40
0.0608883012790937
  0
CIRCLE
  8
_1-1_
  6
CONTINUOUS
 62
    7
 10
241.33820404877534
 20
161.41074928077492
 40
0.0608883012790937
  0
CIRCLE
  8
_1-1_
  6
CONTINUOUS
 62
    7
 10
241.45247175886826
 20
160.72515539220862
 40
0.0608883012790937
  0
CIRCLE
  8
_1-1_
  6
CONTINUOUS
 62
    7
 10
242.06404402449326
 20
160.58098457955026
 40
0.0608883012790937
  0
CIRCLE
  8
_1-1_
  6
CONTINUOUS
 62
    7
 10
242.16527165593328
 20
160.98589510531039
 40
0.0608883012790937
  0
CIRCLE
  8
_1-1_
  6
CONTINUOUS
 62
    7
 10
241.38638058224242
 20
159.85766849002323
 40
0.0608883012790937
  0
CIRCLE
  8
_1-1_
  6
CONTINUOUS
 62
    7
 10
242.58849272856844
 20
161.4083243705131
 40
0.0608883012790937
  0
CIRCLE
  8
_1-1_
  6
CONTINUOUS
 62
    7
 10
242.3599573083826
 20
160.7227304819468
 40
0.0608883012790937
  0
CIRCLE
  8
_1-1_
  6
CONTINUOUS
 62
    7
 10
241.90291121199326
 20
159.580078125
 40
0.0608883012790937
  0
CIRCLE
  8
_1-1_
  6
CONTINUOUS
 62
    7
 10
243.21849926097974
 20
159.83392663904141
 40
0.0608883012790937
  0
CIRCLE
  8
_1-1_
  6
CONTINUOUS
 62
    7
 10
243.31972689241977
 20
160.23883716480154
 40
0.0608883012790937
  0
CIRCLE
  8
_1-1_
  6
CONTINUOUS
 62
    7
 10
242.64485952016472
 20
161.11614742794552
 40
0.0608883012790937
  0
CIRCLE
  8
_1-1_
  6
CONTINUOUS
 62
    7
 10
242.95163541226776
 20
161.04829942857899
 40
0.0608883012790937
  0
CIRCLE
  8
_1-1_
  6
CONTINUOUS
 62
    7
 10
243.84773872994089
 20
161.40184144716005
 40
0.0608883012790937
  0
CIRCLE
  8
_1-1_
  6
CONTINUOUS
 62
    7
 10
243.80243249841641
 20
157.07890690983953
 40
0.0608883012790937
  0
CIRCLE
  8
_1-1_
  6
CONTINUOUS
 62
    7
 10
240.3750445391681
 20
158.09798781936234
 40
0.0608883012790937
  0
CIRCLE
  8
_1-1_
  6
CONTINUOUS
 62
    7
 10
240.14650911898227
 20
157.41239393079604
 40
0.0608883012790937
  0
CIRCLE
  8
_1-1_
  6
CONTINUOUS
 62
    7
 10
241.10627870301943
 20
156.92850061365075
 40
0.0608883012790937
  0
CIRCLE
  8
_1-1_
  6
CONTINUOUS
 62
    7
 10
240.43141133076438
 20
157.80581087679477
 40
0.0608883012790937
  0
CIRCLE
  8
_1-1_
  6
CONTINUOUS
 62
    7
 10
242.59908315297722
 20
157.68999666781039
 40
0.0608883012790937
  0
CIRCLE
  8
_1-1_
  6
CONTINUOUS
 62
    7
 10
240.16608160895271
 20
159.04054796373524
 40
0.0608883012790937
  0
CIRCLE
  8
_1-1_
  6
CONTINUOUS
 62
    7
 10
240.3750445391681
 20
156.62976651578336
 40
0.0608883012790937
  0
CIRCLE
  8
_1-1_
  6
CONTINUOUS
 62
    7
 10
240.8730914141681
 20
156.69334617820948
 40
0.0608883012790937
  0
CIRCLE
  8
_1-1_
  6
CONTINUOUS
 62
    7
 10
242.53999452333193
 20
156.87959413270693
 40
0.0608883012790937
  0
CIRCLE
  8
_1-1_
  6
CONTINUOUS
 62
    7
 10
242.12338009396117
 20
156.69092126794763
 40
0.0608883012790937
  0
CIRCLE
  8
_1-1_
  6
CONTINUOUS
 62
    7
 10
241.20122136296453
 20
156.70242721970018
 40
0.0608883012790937
  0
CIRCLE
  8
_1-1_
  6
CONTINUOUS
 62
    7
 10
241.39912373310813
 20
158.00905794710727
 40
0.0608883012790937
  0
CIRCLE
  8
_1-1_
  6
CONTINUOUS
 62
    7
 10
240.59927450644005
 20
157.0949410103463
 40
0.0608883012790937
  0
CIRCLE
  8
_1-1_
  6
CONTINUOUS
 62
    7
 10
240.14222841005068
 20
159.15171030405406
 40
0.0608883012790937
  0
CIRCLE
  8
_1-1_
  6
CONTINUOUS
 62
    7
 10
240.25649612014359
 20
158.46611641548776
 40
0.0608883012790937
  0
CIRCLE
  8
_1-1_
  6
CONTINUOUS
 62
    7
 10
240.86806838576859
 20
158.3219456028294
 40
0.0608883012790937
  0
CIRCLE
  8
_1-1_
  6
CONTINUOUS
 62
    7
 10
240.96929601720862
 20
158.72685612858953
 40
0.0608883012790937
  0
CIRCLE
  8
_1-1_
  6
CONTINUOUS
 62
    7
 10
240.19040494351776
 20
157.59862951330237
 40
0.0608883012790937
  0
CIRCLE
  8
_1-1_
  6
CONTINUOUS
 62
    7
 10
241.39251708984375
 20
159.14928539379224
 40
0.0608883012790937
  0
CIRCLE
  8
_1-1_
  6
CONTINUOUS
 62
    7
 10
241.16398166965794
 20
158.46369150522594
 40
0.0608883012790937
  0
CIRCLE
  8
_1-1_
  6
CONTINUOUS
 62
    7
 10
240.70693557326859
 20
157.32103914827914
 40
0.0608883012790937
  0
CIRCLE
  8
_1-1_
  6
CONTINUOUS
 62
    7
 10
242.02252362225508
 20
157.57488766232052
 40
0.0608883012790937
  0
CIRCLE
  8
_1-1_
  6
CONTINUOUS
 62
    7
 10
242.1237512536951
 20
157.97979818808068
 40
0.0608883012790937
  0
CIRCLE
  8
_1-1_
  6
CONTINUOUS
 62
    7
 10
241.44888388144005
 20
158.85710845122466
 40
0.0608883012790937
  0
CIRCLE
  8
_1-1_
  6
CONTINUOUS
 62
    7
 10
241.7556597735431
 20
158.78926045185813
 40
0.0608883012790937
  0
CIRCLE
  8
_1-1_
  6
CONTINUOUS
 62
    7
 10
242.65176309121622
 20
159.14280247043919
 40
0.0608883012790937
  0
CIRCLE
  8
_1-1_
  6
CONTINUOUS
 62
    7
 10
240.97303235853042
 20
168.46300692171664
 40
0.0608883012790937
  0
CIRCLE
  8
_1-1_
  6
CONTINUOUS
 62
    7
 10
240.74449693834461
 20
167.77741303315034
 40
0.0608883012790937
  0
CIRCLE
  8
_1-1_
  6
CONTINUOUS
 62
    7
 10
241.60303889094175
 20
166.88860919024495
 40
0.0608883012790937
  0
CIRCLE
  8
_1-1_
  6
CONTINUOUS
 62
    7
 10
241.70426652238177
 20
167.29351971600508
 40
0.0608883012790937
  0
CIRCLE
  8
_1-1_
  6
CONTINUOUS
 62
    7
 10
241.02939915012669
 20
168.17082997914909
 40
0.0608883012790937
  0
CIRCLE
  8
_1-1_
  6
CONTINUOUS
 62
    7
 10
240.86529705975508
 20
165.19605894346495
 40
0.0608883012790937
  0
CIRCLE
  8
_1-1_
  6
CONTINUOUS
 62
    7
 10
242.35810150971284
 20
165.64293526314401
 40
0.0608883012790937
  0
CIRCLE
  8
_1-1_
  6
CONTINUOUS
 62
    7
 10
243.19707097233953
 20
168.05501577016472
 40
0.0608883012790937
  0
CIRCLE
  8
_1-1_
  6
CONTINUOUS
 62
    7
 10
240.76406942831505
 20
169.40556706608953
 40
0.0608883012790937
  0
CIRCLE
  8
_1-1_
  6
CONTINUOUS
 62
    7
 10
240.97303235853042
 20
166.99478561813768
 40
0.0608883012790937
  0
CIRCLE
  8
_1-1_
  6
CONTINUOUS
 62
    7
 10
240.74449693834461
 20
166.30919172957138
 40
0.0608883012790937
  0
CIRCLE
  8
_1-1_
  6
CONTINUOUS
 62
    7
 10
241.60303889094175
 20
165.42038788666596
 40
0.0608883012790937
  0
CIRCLE
  8
_1-1_
  6
CONTINUOUS
 62
    7
 10
241.70426652238177
 20
165.82529841242609
 40
0.0608883012790937
  0
CIRCLE
  8
_1-1_
  6
CONTINUOUS
 62
    7
 10
243.17537049989443
 20
165.52655194256758
 40
0.0608883012790937
  0
CIRCLE
  8
_1-1_
  6
CONTINUOUS
 62
    7
 10
243.23173729149073
 20
165.234375
 40
0.0608883012790937
  0
CIRCLE
  8
_1-1_
  6
CONTINUOUS
 62
    7
 10
242.25321176889781
 20
165.5380578943201
 40
0.0608883012790937
  0
CIRCLE
  8
_1-1_
  6
CONTINUOUS
 62
    7
 10
242.72797455658784
 20
165.91571292361698
 40
0.0608883012790937
  0
CIRCLE
  8
_1-1_
  6
CONTINUOUS
 62
    7
 10
241.47107923353042
 20
167.05836528056378
 40
0.0608883012790937
  0
CIRCLE
  8
_1-1_
  6
CONTINUOUS
 62
    7
 10
241.58534694362334
 20
166.37277139199747
 40
0.0608883012790937
  0
CIRCLE
  8
_1-1_
  6
CONTINUOUS
 62
    7
 10
242.19691920924834
 20
166.22860057933912
 40
0.0608883012790937
  0
CIRCLE
  8
_1-1_
  6
CONTINUOUS
 62
    7
 10
242.29814684068836
 20
166.63351110509925
 40
0.0608883012790937
  0
CIRCLE
  8
_1-1_
  6
CONTINUOUS
 62
    7
 10
243.13798234269427
 20
167.24461323506125
 40
0.0608883012790937
  0
CIRCLE
  8
_1-1_
  6
CONTINUOUS
 62
    7
 10
241.51925576699747
 20
165.50528448981208
 40
0.0608883012790937
  0
CIRCLE
  8
_1-1_
  6
CONTINUOUS
 62
    7
 10
242.72136791332349
 20
167.05594037030195
 40
0.0608883012790937
  0
CIRCLE
  8
_1-1_
  6
CONTINUOUS
 62
    7
 10
242.49283249313768
 20
166.37034648173565
 40
0.0608883012790937
  0
CIRCLE
  8
_1-1_
  6
CONTINUOUS
 62
    7
 10
242.03578639674834
 20
165.22769412478885
 40
0.0608883012790937
  0
CIRCLE
  8
_1-1_
  6
CONTINUOUS
 62
    7
 10
241.79920918232688
 20
167.06744632205448
 40
0.0608883012790937
  0
CIRCLE
  8
_1-1_
  6
CONTINUOUS
 62
    7
 10
241.99711155247044
 20
168.37407704946159
 40
0.0608883012790937
  0
CIRCLE
  8
_1-1_
  6
CONTINUOUS
 62
    7
 10
241.19726232580237
 20
167.4599601127006
 40
0.0608883012790937
  0
CIRCLE
  8
_1-1_
  6
CONTINUOUS
 62
    7
 10
240.74021622941302
 20
169.51672940640836
 40
0.0608883012790937
  0
CIRCLE
  8
_1-1_
  6
CONTINUOUS
 62
    7
 10
240.85448393950591
 20
168.83113551784206
 40
0.0608883012790937
  0
CIRCLE
  8
_1-1_
  6
CONTINUOUS
 62
    7
 10
241.46605620513091
 20
168.6869647051837
 40
0.0608883012790937
  0
CIRCLE
  8
_1-1_
  6
CONTINUOUS
 62
    7
 10
241.56728383657097
 20
169.09187523094386
 40
0.0608883012790937
  0
CIRCLE
  8
_1-1_
  6
CONTINUOUS
 62
    7
 10
240.78839276288008
 20
167.96364861565669
 40
0.0608883012790937
  0
CIRCLE
  8
_1-1_
  6
CONTINUOUS
 62
    7
 10
241.99050490920609
 20
169.51430449614654
 40
0.0608883012790937
  0
CIRCLE
  8
_1-1_
  6
CONTINUOUS
 62
    7
 10
241.76196948902029
 20
168.82871060758023
 40
0.0608883012790937
  0
CIRCLE
  8
_1-1_
  6
CONTINUOUS
 62
    7
 10
241.30492339263091
 20
167.68605825063347
 40
0.0608883012790937
  0
CIRCLE
  8
_1-1_
  6
CONTINUOUS
 62
    7
 10
242.62051144161742
 20
167.93990676467484
 40
0.0608883012790937
  0
CIRCLE
  8
_1-1_
  6
CONTINUOUS
 62
    7
 10
242.04687170080237
 20
169.22212755357899
 40
0.0608883012790937
  0
CIRCLE
  8
_1-1_
  6
CONTINUOUS
 62
    7
 10
242.35364759290542
 20
169.15427955421242
 40
0.0608883012790937
  0
CIRCLE
  8
_1-1_
  6
CONTINUOUS
 62
    7
 10
243.24975091057857
 20
169.50782157279352
 40
0.0608883012790937
  0
CIRCLE
  8
_1-1_
  6
CONTINUOUS
 62
    7
 10
243.20444467905406
 20
165.18488703547297
 40
0.0608883012790937
  0
CIRCLE
  8
_1-1_
  6
CONTINUOUS
 62
    7
 10
240.6408196526605
 20
167.66569395323057
 40
0.0608883012790937
  0
CIRCLE
  8
_1-1_
  6
CONTINUOUS
 62
    7
 10
240.41228423247466
 20
166.98010006466427
 40
0.0608883012790937
  0
CIRCLE
  8
_1-1_
  6
CONTINUOUS
 62
    7
 10
241.2708261850718
 20
166.09129622175888
 40
0.0608883012790937
  0
CIRCLE
  8
_1-1_
  6
CONTINUOUS
 62
    7
 10
240.69718644425677
 20
167.37351701066302
 40
0.0608883012790937
  0
CIRCLE
  8
_1-1_
  6
CONTINUOUS
 62
    7
 10
240.53308435388516
 20
164.39874597497891
 40
0.0608883012790937
  0
CIRCLE
  8
_1-1_
  6
CONTINUOUS
 62
    7
 10
242.02588880384292
 20
164.84562229465794
 40
0.0608883012790937
  0
CIRCLE
  8
_1-1_
  6
CONTINUOUS
 62
    7
 10
242.86485826646961
 20
167.25770280167865
 40
0.0608883012790937
  0
CIRCLE
  8
_1-1_
  6
CONTINUOUS
 62
    7
 10
240.4318567224451
 20
168.60825409760346
 40
0.0608883012790937
  0
CIRCLE
  8
_1-1_
  6
CONTINUOUS
 62
    7
 10
240.6408196526605
 20
166.19747264965162
 40
0.0608883012790937
  0
CIRCLE
  8
_1-1_
  6
CONTINUOUS
 62
    7
 10
240.41228423247466
 20
165.51187876108531
 40
0.0608883012790937
  0
CIRCLE
  8
_1-1_
  6
CONTINUOUS
 62
    7
 10
241.2708261850718
 20
164.6230749181799
 40
0.0608883012790937
  0
CIRCLE
  8
_1-1_
  6
CONTINUOUS
 62
    7
 10
241.37205381651185
 20
165.02798544394005
 40
0.0608883012790937
  0
CIRCLE
  8
_1-1_
  6
CONTINUOUS
 62
    7
 10
240.69718644425677
 20
165.90529570708404
 40
0.0608883012790937
  0
CIRCLE
  8
_1-1_
  6
CONTINUOUS
 62
    7
 10
242.84315779402451
 20
164.72923897408151
 40
0.0608883012790937
  0
CIRCLE
  8
_1-1_
  6
CONTINUOUS
 62
    7
 10
242.89952458562078
 20
164.43706203151393
 40
0.0608883012790937
  0
CIRCLE
  8
_1-1_
  6
CONTINUOUS
 62
    7
 10
241.92099906302789
 20
164.74074492583404
 40
0.0608883012790937
  0
CIRCLE
  8
_1-1_
  6
CONTINUOUS
 62
    7
 10
242.39576185071792
 20
165.11839995513091
 40
0.0608883012790937
  0
CIRCLE
  8
_1-1_
  6
CONTINUOUS
 62
    7
 10
241.25313423775339
 20
165.57545842351141
 40
0.0608883012790937
  0
CIRCLE
  8
_1-1_
  6
CONTINUOUS
 62
    7
 10
241.86470650337839
 20
165.43128761085305
 40
0.0608883012790937
  0
CIRCLE
  8
_1-1_
  6
CONTINUOUS
 62
    7
 10
241.96593413481841
 20
165.83619813661318
 40
0.0608883012790937
  0
CIRCLE
  8
_1-1_
  6
CONTINUOUS
 62
    7
 10
242.80576963682435
 20
166.44730026657518
 40
0.0608883012790937
  0
CIRCLE
  8
_1-1_
  6
CONTINUOUS
 62
    7
 10
241.18704306112755
 20
164.70797152132602
 40
0.0608883012790937
  0
CIRCLE
  8
_1-1_
  6
CONTINUOUS
 62
    7
 10
242.38915520745357
 20
166.25862740181589
 40
0.0608883012790937
  0
CIRCLE
  8
_1-1_
  6
CONTINUOUS
 62
    7
 10
242.16061978726776
 20
165.57303351324958
 40
0.0608883012790937
  0
CIRCLE
  8
_1-1_
  6
CONTINUOUS
 62
    7
 10
241.70357369087839
 20
164.43038115630279
 40
0.0608883012790937
  0
CIRCLE
  8
_1-1_
  6
CONTINUOUS
 62
    7
 10
242.44552199904984
 20
165.96645045924831
 40
0.0608883012790937
  0
CIRCLE
  8
_1-1_
  6
CONTINUOUS
 62
    7
 10
241.46699647645693
 20
166.27013335356841
 40
0.0608883012790937
  0
CIRCLE
  8
_1-1_
  6
CONTINUOUS
 62
    7
 10
242.75229789115289
 20
165.89860245988177
 40
0.0608883012790937
  0
CIRCLE
  8
_1-1_
  6
CONTINUOUS
 62
    7
 10
241.66489884660052
 20
167.57676408097552
 40
0.0608883012790937
  0
CIRCLE
  8
_1-1_
  6
CONTINUOUS
 62
    7
 10
240.86504961993245
 20
166.66264714421453
 40
0.0608883012790937
  0
CIRCLE
  8
_1-1_
  6
CONTINUOUS
 62
    7
 10
240.4080035235431
 20
168.71941643792232
 40
0.0608883012790937
  0
CIRCLE
  8
_1-1_
  6
CONTINUOUS
 62
    7
 10
240.52227123363599
 20
168.03382254935602
 40
0.0608883012790937
  0
CIRCLE
  8
_1-1_
  6
CONTINUOUS
 62
    7
 10
241.13384349926099
 20
167.88965173669766
 40
0.0608883012790937
  0
CIRCLE
  8
_1-1_
  6
CONTINUOUS
 62
    7
 10
241.23507113070102
 20
168.29456226245779
 40
0.0608883012790937
  0
CIRCLE
  8
_1-1_
  6
CONTINUOUS
 62
    7
 10
240.45618005701016
 20
167.16633564717063
 40
0.0608883012790937
  0
CIRCLE
  8
_1-1_
  6
CONTINUOUS
 62
    7
 10
241.42975678315034
 20
168.03139763909419
 40
0.0608883012790937
  0
CIRCLE
  8
_1-1_
  6
CONTINUOUS
 62
    7
 10
240.97271068676099
 20
166.8887452821474
 40
0.0608883012790937
  0
CIRCLE
  8
_1-1_
  6
CONTINUOUS
 62
    7
 10
242.28829873574747
 20
167.14259379618878
 40
0.0608883012790937
  0
CIRCLE
  8
_1-1_
  6
CONTINUOUS
 62
    7
 10
242.3895263671875
 20
167.54750432194891
 40
0.0608883012790937
  0
CIRCLE
  8
_1-1_
  6
CONTINUOUS
 62
    7
 10
241.71465899493245
 20
168.42481458509292
 40
0.0608883012790937
  0
CIRCLE
  8
_1-1_
  6
CONTINUOUS
 62
    7
 10
242.0214348870355
 20
168.35696658572635
 40
0.0608883012790937
  0
CIRCLE
  8
_1-1_
  6
CONTINUOUS
 62
    7
 10
242.91753820470862
 20
168.71050860430745
 40
0.0608883012790937
  0
CIRCLE
  8
_1-1_
  6
CONTINUOUS
 62
    7
 10
242.87223197318414
 20
164.38757406698693
 40
0.0608883012790937
  0
CIRCLE
  8
_1-1_
  6
CONTINUOUS
 62
    7
 10
240.50791972392315
 20
169.65897018845018
 40
0.0608883012790937
  0
CIRCLE
  8
_1-1_
  6
CONTINUOUS
 62
    7
 10
240.27938430373734
 20
168.97337629988388
 40
0.0608883012790937
  0
CIRCLE
  8
_1-1_
  6
CONTINUOUS
 62
    7
 10
241.13792625633448
 20
168.08457245697846
 40
0.0608883012790937
  0
CIRCLE
  8
_1-1_
  6
CONTINUOUS
 62
    7
 10
241.23915388777451
 20
168.48948298273859
 40
0.0608883012790937
  0
CIRCLE
  8
_1-1_
  6
CONTINUOUS
 62
    7
 10
240.56428651551943
 20
169.3667932458826
 40
0.0608883012790937
  0
CIRCLE
  8
_1-1_
  6
CONTINUOUS
 62
    7
 10
240.40018442514781
 20
166.39202221019849
 40
0.0608883012790937
  0
CIRCLE
  8
_1-1_
  6
CONTINUOUS
 62
    7
 10
242.81514760610222
 20
166.827392578125
 40
0.0608883012790937
  0
CIRCLE
  8
_1-1_
  6
CONTINUOUS
 62
    7
 10
241.8929888751056
 20
166.83889852987755
 40
0.0608883012790937
  0
CIRCLE
  8
_1-1_
  6
CONTINUOUS
 62
    7
 10
242.73195833773227
 20
169.25097903689823
 40
0.0608883012790937
  0
CIRCLE
  8
_1-1_
  6
CONTINUOUS
 62
    7
 10
240.29895679370779
 20
170.60153033282307
 40
0.0608883012790937
  0
CIRCLE
  8
_1-1_
  6
CONTINUOUS
 62
    7
 10
240.50791972392315
 20
168.1907488848712
 40
0.0608883012790937
  0
CIRCLE
  8
_1-1_
  6
CONTINUOUS
 62
    7
 10
240.27938430373734
 20
167.5051549963049
 40
0.0608883012790937
  0
CIRCLE
  8
_1-1_
  6
CONTINUOUS
 62
    7
 10
241.13792625633448
 20
166.61635115339951
 40
0.0608883012790937
  0
CIRCLE
  8
_1-1_
  6
CONTINUOUS
 62
    7
 10
241.23915388777451
 20
167.02126167915964
 40
0.0608883012790937
  0
CIRCLE
  8
_1-1_
  6
CONTINUOUS
 62
    7
 10
240.56428651551943
 20
167.89857194230365
 40
0.0608883012790937
  0
CIRCLE
  8
_1-1_
  6
CONTINUOUS
 62
    7
 10
241.78809913429055
 20
166.73402116105365
 40
0.0608883012790937
  0
CIRCLE
  8
_1-1_
  6
CONTINUOUS
 62
    7
 10
242.2628619219806
 20
167.11167619035052
 40
0.0608883012790937
  0
CIRCLE
  8
_1-1_
  6
CONTINUOUS
 62
    7
 10
241.00596659892315
 20
168.25432854729732
 40
0.0608883012790937
  0
CIRCLE
  8
_1-1_
  6
CONTINUOUS
 62
    7
 10
241.12023430901607
 20
167.56873465873102
 40
0.0608883012790937
  0
CIRCLE
  8
_1-1_
  6
CONTINUOUS
 62
    7
 10
241.73180657464107
 20
167.42456384607266
 40
0.0608883012790937
  0
CIRCLE
  8
_1-1_
  6
CONTINUOUS
 62
    7
 10
241.83303420608109
 20
167.82947437183279
 40
0.0608883012790937
  0
CIRCLE
  8
_1-1_
  6
CONTINUOUS
 62
    7
 10
242.67286970808701
 20
168.44057650179477
 40
0.0608883012790937
  0
CIRCLE
  8
_1-1_
  6
CONTINUOUS
 62
    7
 10
241.57067376214107
 20
166.4236573915224
 40
0.0608883012790937
  0
CIRCLE
  8
_1-1_
  6
CONTINUOUS
 62
    7
 10
241.33409654771961
 20
168.26340958878802
 40
0.0608883012790937
  0
CIRCLE
  8
_1-1_
  6
CONTINUOUS
 62
    7
 10
242.61939796241555
 20
167.89187869510135
 40
0.0608883012790937
  0
CIRCLE
  8
_1-1_
  6
CONTINUOUS
 62
    7
 10
241.53199891786318
 20
169.5700403161951
 40
0.0608883012790937
  0
CIRCLE
  8
_1-1_
  6
CONTINUOUS
 62
    7
 10
240.7321496911951
 20
168.65592337943414
 40
0.0608883012790937
  0
CIRCLE
  8
_1-1_
  6
CONTINUOUS
 62
    7
 10
240.27510359480576
 20
170.7126926731419
 40
0.0608883012790937
  0
CIRCLE
  8
_1-1_
  6
CONTINUOUS
 62
    7
 10
240.38937130489867
 20
170.0270987845756
 40
0.0608883012790937
  0
CIRCLE
  8
_1-1_
  6
CONTINUOUS
 62
    7
 10
241.00094357052367
 20
169.88292797191724
 40
0.0608883012790937
  0
CIRCLE
  8
_1-1_
  6
CONTINUOUS
 62
    7
 10
241.1021712019637
 20
170.28783849767737
 40
0.0608883012790937
  0
CIRCLE
  8
_1-1_
  6
CONTINUOUS
 62
    7
 10
240.32328012827281
 20
169.15961188239021
 40
0.0608883012790937
  0
CIRCLE
  8
_1-1_
  6
CONTINUOUS
 62
    7
 10
241.52539227459883
 20
170.71026776288008
 40
0.0608883012790937
  0
CIRCLE
  8
_1-1_
  6
CONTINUOUS
 62
    7
 10
241.29685685441302
 20
170.02467387431378
 40
0.0608883012790937
  0
CIRCLE
  8
_1-1_
  6
CONTINUOUS
 62
    7
 10
240.83981075802367
 20
168.88202151736698
 40
0.0608883012790937
  0
CIRCLE
  8
_1-1_
  6
CONTINUOUS
 62
    7
 10
242.15539880701016
 20
169.13587003140836
 40
0.0608883012790937
  0
CIRCLE
  8
_1-1_
  6
CONTINUOUS
 62
    7
 10
242.25662643845018
 20
169.54078055716852
 40
0.0608883012790937
  0
CIRCLE
  8
_1-1_
  6
CONTINUOUS
 62
    7
 10
241.5817590661951
 20
170.4180908203125
 40
0.0608883012790937
  0
CIRCLE
  8
_1-1_
  6
CONTINUOUS
 62
    7
 10
241.88853495829815
 20
170.35024282094597
 40
0.0608883012790937
  0
CIRCLE
  8
_1-1_
  6
CONTINUOUS
 62
    7
 10
242.7846382759713
 20
170.70378483952703
 40
0.0608883012790937
  0
CIRCLE
  8
_1-1_
  6
CONTINUOUS
 62
    7
 10
242.7393320444468
 20
166.38085030220651
 40
0.0608883012790937
  0
CIRCLE
  8
_1-1_
  6
CONTINUOUS
 62
    7
 10
241.03946995090794
 20
170.72205827042865
 40
0.0608883012790937
  0
CIRCLE
  8
_1-1_
  6
CONTINUOUS
 62
    7
 10
240.81093453072214
 20
170.03646438186234
 40
0.0608883012790937
  0
CIRCLE
  8
_1-1_
  6
CONTINUOUS
 62
    7
 10
241.66947648331927
 20
169.14766053895693
 40
0.0608883012790937
  0
CIRCLE
  8
_1-1_
  6
CONTINUOUS
 62
    7
 10
241.7707041147593
 20
169.55257106471706
 40
0.0608883012790937
  0
CIRCLE
  8
_1-1_
  6
CONTINUOUS
 62
    7
 10
241.09583674250425
 20
170.42988132786107
 40
0.0608883012790937
  0
CIRCLE
  8
_1-1_
  6
CONTINUOUS
 62
    7
 10
240.9317346521326
 20
167.45511029217695
 40
0.0608883012790937
  0
CIRCLE
  8
_1-1_
  6
CONTINUOUS
 62
    7
 10
243.34669783308701
 20
167.89048066010346
 40
0.0608883012790937
  0
CIRCLE
  8
_1-1_
  6
CONTINUOUS
 62
    7
 10
242.42453910209039
 20
167.90198661185602
 40
0.0608883012790937
  0
CIRCLE
  8
_1-1_
  6
CONTINUOUS
 62
    7
 10
243.26350856471709
 20
170.31406711887669
 40
0.0608883012790937
  0
CIRCLE
  8
_1-1_
  6
CONTINUOUS
 62
    7
 10
240.83050702069258
 20
171.66461841480154
 40
0.0608883012790937
  0
CIRCLE
  8
_1-1_
  6
CONTINUOUS
 62
    7
 10
241.03946995090794
 20
169.25383696684966
 40
0.0608883012790937
  0
CIRCLE
  8
_1-1_
  6
CONTINUOUS
 62
    7
 10
240.81093453072214
 20
168.56824307828336
 40
0.0608883012790937
  0
CIRCLE
  8
_1-1_
  6
CONTINUOUS
 62
    7
 10
241.66947648331927
 20
167.67943923537797
 40
0.0608883012790937
  0
CIRCLE
  8
_1-1_
  6
CONTINUOUS
 62
    7
 10
241.7707041147593
 20
168.0843497611381
 40
0.0608883012790937
  0
CIRCLE
  8
_1-1_
  6
CONTINUOUS
 62
    7
 10
241.09583674250425
 20
168.96166002428211
 40
0.0608883012790937
  0
CIRCLE
  8
_1-1_
  6
CONTINUOUS
 62
    7
 10
243.24180809227198
 20
167.78560329127956
 40
0.0608883012790937
  0
CIRCLE
  8
_1-1_
  6
CONTINUOUS
 62
    7
 10
242.31964936127534
 20
167.79710924303211
 40
0.0608883012790937
  0
CIRCLE
  8
_1-1_
  6
CONTINUOUS
 62
    7
 10
241.53751682590794
 20
169.31741662927578
 40
0.0608883012790937
  0
CIRCLE
  8
_1-1_
  6
CONTINUOUS
 62
    7
 10
241.65178453600086
 20
168.63182274070948
 40
0.0608883012790937
  0
CIRCLE
  8
_1-1_
  6
CONTINUOUS
 62
    7
 10
242.26335680162586
 20
168.48765192805109
 40
0.0608883012790937
  0
CIRCLE
  8
_1-1_
  6
CONTINUOUS
 62
    7
 10
242.36458443306589
 20
168.89256245381125
 40
0.0608883012790937
  0
CIRCLE
  8
_1-1_
  6
CONTINUOUS
 62
    7
 10
243.2044199350718
 20
169.50366458377323
 40
0.0608883012790937
  0
CIRCLE
  8
_1-1_
  6
CONTINUOUS
 62
    7
 10
242.78780550570102
 20
169.31499171901393
 40
0.0608883012790937
  0
CIRCLE
  8
_1-1_
  6
CONTINUOUS
 62
    7
 10
242.55927008551521
 20
168.62939783044766
 40
0.0608883012790937
  0
CIRCLE
  8
_1-1_
  6
CONTINUOUS
 62
    7
 10
242.10222398912586
 20
167.48674547350086
 40
0.0608883012790937
  0
CIRCLE
  8
_1-1_
  6
CONTINUOUS
 62
    7
 10
242.84417229729732
 20
169.02281477644638
 40
0.0608883012790937
  0
CIRCLE
  8
_1-1_
  6
CONTINUOUS
 62
    7
 10
241.8656467747044
 20
169.32649767076649
 40
0.0608883012790937
  0
CIRCLE
  8
_1-1_
  6
CONTINUOUS
 62
    7
 10
243.15094818940034
 20
168.95496677707982
 40
0.0608883012790937
  0
CIRCLE
  8
_1-1_
  6
CONTINUOUS
 62
    7
 10
242.063549144848
 20
170.63312839817357
 40
0.0608883012790937
  0
CIRCLE
  8
_1-1_
  6
CONTINUOUS
 62
    7
 10
241.26369991817992
 20
169.71901146141261
 40
0.0608883012790937
  0
CIRCLE
  8
_1-1_
  6
CONTINUOUS
 62
    7
 10
240.80665382179055
 20
171.77578075512037
 40
0.0608883012790937
  0
CIRCLE
  8
_1-1_
  6
CONTINUOUS
 62
    7
 10
240.92092153188347
 20
171.09018686655406
 40
0.0608883012790937
  0
CIRCLE
  8
_1-1_
  6
CONTINUOUS
 62
    7
 10
241.53249379750847
 20
170.9460160538957
 40
0.0608883012790937
  0
CIRCLE
  8
_1-1_
  6
CONTINUOUS
 62
    7
 10
241.63372142894849
 20
171.35092657965583
 40
0.0608883012790937
  0
CIRCLE
  8
_1-1_
  6
CONTINUOUS
 62
    7
 10
240.8548303552576
 20
170.22269996436867
 40
0.0608883012790937
  0
CIRCLE
  8
_1-1_
  6
CONTINUOUS
 62
    7
 10
242.05694250158362
 20
171.77335584485854
 40
0.0608883012790937
  0
CIRCLE
  8
_1-1_
  6
CONTINUOUS
 62
    7
 10
241.82840708139781
 20
171.08776195629224
 40
0.0608883012790937
  0
CIRCLE
  8
_1-1_
  6
CONTINUOUS
 62
    7
 10
241.37136098500847
 20
169.94510959934544
 40
0.0608883012790937
  0
CIRCLE
  8
_1-1_
  6
CONTINUOUS
 62
    7
 10
242.68694903399495
 20
170.19895811338682
 40
0.0608883012790937
  0
CIRCLE
  8
_1-1_
  6
CONTINUOUS
 62
    7
 10
242.78817666543497
 20
170.60386863914698
 40
0.0608883012790937
  0
CIRCLE
  8
_1-1_
  6
CONTINUOUS
 62
    7
 10
242.11330929317992
 20
171.48117890229096
 40
0.0608883012790937
  0
CIRCLE
  8
_1-1_
  6
CONTINUOUS
 62
    7
 10
242.42008518528294
 20
171.41333090292443
 40
0.0608883012790937
  0
CIRCLE
  8
_1-1_
  6
CONTINUOUS
 62
    7
 10
243.31618850295609
 20
171.7668729215055
 40
0.0608883012790937
  0
CIRCLE
  8
_1-1_
  6
CONTINUOUS
 62
    7
 10
243.27088227143159
 20
167.44393838418497
 40
0.0608883012790937
  0
CIRCLE
  8
_1-1_
  6
CONTINUOUS
 62
    7
 10
243.03274618612755
 20
170.9878210119299
 40
0.0608883012790937
  0
CIRCLE
  8
_1-1_
  6
CONTINUOUS
 62
    7
 10
242.80421076594175
 20
170.30222712336359
 40
0.0608883012790937
  0
CIRCLE
  8
_1-1_
  6
CONTINUOUS
 62
    7
 10
243.66275271853885
 20
169.4134232804582
 40
0.0608883012790937
  0
CIRCLE
  8
_1-1_
  6
CONTINUOUS
 62
    7
 10
243.76398034997891
 20
169.81833380621833
 40
0.0608883012790937
  0
CIRCLE
  8
_1-1_
  6
CONTINUOUS
 62
    7
 10
243.08911297772383
 20
170.69564406936234
 40
0.0608883012790937
  0
CIRCLE
  8
_1-1_
  6
CONTINUOUS
 62
    7
 10
242.92501088735222
 20
167.72087303367823
 40
0.0608883012790937
  0
CIRCLE
  8
_1-1_
  6
CONTINUOUS
 62
    7
 10
245.33997406830659
 20
168.15624340160474
 40
0.0608883012790937
  0
CIRCLE
  8
_1-1_
  6
CONTINUOUS
 62
    7
 10
244.41781533730997
 20
168.16774935335727
 40
0.0608883012790937
  0
CIRCLE
  8
_1-1_
  6
CONTINUOUS
 62
    7
 10
245.25678479993667
 20
170.57982986037797
 40
0.0608883012790937
  0
CIRCLE
  8
_1-1_
  6
CONTINUOUS
 62
    7
 10
242.82378325591219
 20
171.93038115630279
 40
0.0608883012790937
  0
CIRCLE
  8
_1-1_
  6
CONTINUOUS
 62
    7
 10
243.03274618612755
 20
169.51959970835094
 40
0.0608883012790937
  0
CIRCLE
  8
_1-1_
  6
CONTINUOUS
 62
    7
 10
242.80421076594175
 20
168.83400581978464
 40
0.0608883012790937
  0
CIRCLE
  8
_1-1_
  6
CONTINUOUS
 62
    7
 10
243.66275271853885
 20
167.94520197687922
 40
0.0608883012790937
  0
CIRCLE
  8
_1-1_
  6
CONTINUOUS
 62
    7
 10
243.76398034997891
 20
168.35011250263938
 40
0.0608883012790937
  0
CIRCLE
  8
_1-1_
  6
CONTINUOUS
 62
    7
 10
243.08911297772383
 20
169.22742276578336
 40
0.0608883012790937
  0
CIRCLE
  8
_1-1_
  6
CONTINUOUS
 62
    7
 10
245.23508432749156
 20
168.05136603278083
 40
0.0608883012790937
  0
CIRCLE
  8
_1-1_
  6
CONTINUOUS
 62
    7
 10
245.29145111908784
 20
167.75918909021328
 40
0.0608883012790937
  0
CIRCLE
  8
_1-1_
  6
CONTINUOUS
 62
    7
 10
244.31292559649495
 20
168.06287198453336
 40
0.0608883012790937
  0
CIRCLE
  8
_1-1_
  6
CONTINUOUS
 62
    7
 10
244.78768838418497
 20
168.44052701383023
 40
0.0608883012790937
  0
CIRCLE
  8
_1-1_
  6
CONTINUOUS
 62
    7
 10
243.53079306112755
 20
169.58317937077703
 40
0.0608883012790937
  0
CIRCLE
  8
_1-1_
  6
CONTINUOUS
 62
    7
 10
243.64506077122044
 20
168.89758548221073
 40
0.0608883012790937
  0
CIRCLE
  8
_1-1_
  6
CONTINUOUS
 62
    7
 10
244.25663303684544
 20
168.75341466955237
 40
0.0608883012790937
  0
CIRCLE
  8
_1-1_
  6
CONTINUOUS
 62
    7
 10
244.3578606682855
 20
169.1583251953125
 40
0.0608883012790937
  0
CIRCLE
  8
_1-1_
  6
CONTINUOUS
 62
    7
 10
245.19769617029141
 20
169.76942732527451
 40
0.0608883012790937
  0
CIRCLE
  8
_1-1_
  6
CONTINUOUS
 62
    7
 10
243.57896959459461
 20
168.03009858002534
 40
0.0608883012790937
  0
CIRCLE
  8
_1-1_
  6
CONTINUOUS
 62
    7
 10
244.78108174092063
 20
169.58075446051521
 40
0.0608883012790937
  0
CIRCLE
  8
_1-1_
  6
CONTINUOUS
 62
    7
 10
244.55254632073482
 20
168.89516057194891
 40
0.0608883012790937
  0
CIRCLE
  8
_1-1_
  6
CONTINUOUS
 62
    7
 10
244.09550022434544
 20
167.75250821500211
 40
0.0608883012790937
  0
CIRCLE
  8
_1-1_
  6
CONTINUOUS
 62
    7
 10
244.8374485325169
 20
169.28857751794766
 40
0.0608883012790937
  0
CIRCLE
  8
_1-1_
  6
CONTINUOUS
 62
    7
 10
243.85892300992401
 20
169.59226041226773
 40
0.0608883012790937
  0
CIRCLE
  8
_1-1_
  6
CONTINUOUS
 62
    7
 10
245.14422442461995
 20
169.22072951858109
 40
0.0608883012790937
  0
CIRCLE
  8
_1-1_
  6
CONTINUOUS
 62
    7
 10
244.05682538006758
 20
170.89889113967484
 40
0.0608883012790937
  0
CIRCLE
  8
_1-1_
  6
CONTINUOUS
 62
    7
 10
243.25697615339951
 20
169.98477420291385
 40
0.0608883012790937
  0
CIRCLE
  8
_1-1_
  6
CONTINUOUS
 62
    7
 10
242.79993005701016
 20
172.04154349662164
 40
0.0608883012790937
  0
CIRCLE
  8
_1-1_
  6
CONTINUOUS
 62
    7
 10
242.91419776710305
 20
171.35594960805534
 40
0.0608883012790937
  0
CIRCLE
  8
_1-1_
  6
CONTINUOUS
 62
    7
 10
243.52577003272805
 20
171.21177879539698
 40
0.0608883012790937
  0
CIRCLE
  8
_1-1_
  6
CONTINUOUS
 62
    7
 10
243.6269976641681
 20
171.61668932115711
 40
0.0608883012790937
  0
CIRCLE
  8
_1-1_
  6
CONTINUOUS
 62
    7
 10
242.84810659047722
 20
170.48846270586995
 40
0.0608883012790937
  0
CIRCLE
  8
_1-1_
  6
CONTINUOUS
 62
    7
 10
244.05021873680323
 20
172.03911858635982
 40
0.0608883012790937
  0
CIRCLE
  8
_1-1_
  6
CONTINUOUS
 62
    7
 10
243.82168331661742
 20
171.35352469779352
 40
0.0608883012790937
  0
CIRCLE
  8
_1-1_
  6
CONTINUOUS
 62
    7
 10
243.36463722022805
 20
170.21087234084672
 40
0.0608883012790937
  0
CIRCLE
  8
_1-1_
  6
CONTINUOUS
 62
    7
 10
244.68022526921453
 20
170.4647208548881
 40
0.0608883012790937
  0
CIRCLE
  8
_1-1_
  6
CONTINUOUS
 62
    7
 10
244.78145290065459
 20
170.86963138064823
 40
0.0608883012790937
  0
CIRCLE
  8
_1-1_
  6
CONTINUOUS
 62
    7
 10
244.10658552839951
 20
171.74694164379224
 40
0.0608883012790937
  0
CIRCLE
  8
_1-1_
  6
CONTINUOUS
 62
    7
 10
244.41336142050255
 20
171.67909364442568
 40
0.0608883012790937
  0
CIRCLE
  8
_1-1_
  6
CONTINUOUS
 62
    7
 10
245.30946473817568
 20
172.03263566300677
 40
0.0608883012790937
  0
CIRCLE
  8
_1-1_
  6
CONTINUOUS
 62
    7
 10
245.2641585066512
 20
167.70970112568625
 40
0.0608883012790937
  0
CIRCLE
  8
_1-1_
  6
CONTINUOUS
 62
    7
 10
245.82332301784209
 20
169.9911828943201
 40
0.0608883012790937
  0
CIRCLE
  8
_1-1_
  6
CONTINUOUS
 62
    7
 10
245.59478759765625
 20
169.3055890057538
 40
0.0608883012790937
  0
CIRCLE
  8
_1-1_
  6
CONTINUOUS
 62
    7
 10
246.45332955025339
 20
168.41678516284841
 40
0.0608883012790937
  0
CIRCLE
  8
_1-1_
  6
CONTINUOUS
 62
    7
 10
246.55455718169344
 20
168.82169568860854
 40
0.0608883012790937
  0
CIRCLE
  8
_1-1_
  6
CONTINUOUS
 62
    7
 10
245.87968980943836
 20
169.69900595175255
 40
0.0608883012790937
  0
CIRCLE
  8
_1-1_
  6
CONTINUOUS
 62
    7
 10
245.71558771906675
 20
166.72423491606841
 40
0.0608883012790937
  0
CIRCLE
  8
_1-1_
  6
CONTINUOUS
 62
    7
 10
248.13055090002112
 20
167.15960528399495
 40
0.0608883012790937
  0
CIRCLE
  8
_1-1_
  6
CONTINUOUS
 62
    7
 10
247.20839216902451
 20
167.17111123574747
 40
0.0608883012790937
  0
CIRCLE
  8
_1-1_
  6
CONTINUOUS
 62
    7
 10
248.0473616316512
 20
169.58319174276818
 40
0.0608883012790937
  0
CIRCLE
  8
_1-1_
  6
CONTINUOUS
 62
    7
 10
245.61436008762669
 20
170.933743038693
 40
0.0608883012790937
  0
CIRCLE
  8
_1-1_
  6
CONTINUOUS
 62
    7
 10
245.82332301784209
 20
168.52296159074115
 40
0.0608883012790937
  0
CIRCLE
  8
_1-1_
  6
CONTINUOUS
 62
    7
 10
245.59478759765625
 20
167.83736770217484
 40
0.0608883012790937
  0
CIRCLE
  8
_1-1_
  6
CONTINUOUS
 62
    7
 10
246.45332955025339
 20
166.94856385926943
 40
0.0608883012790937
  0
CIRCLE
  8
_1-1_
  6
CONTINUOUS
 62
    7
 10
246.55455718169344
 20
167.35347438502956
 40
0.0608883012790937
  0
CIRCLE
  8
_1-1_
  6
CONTINUOUS
 62
    7
 10
245.87968980943836
 20
168.23078464817357
 40
0.0608883012790937
  0
CIRCLE
  8
_1-1_
  6
CONTINUOUS
 62
    7
 10
248.02566115920609
 20
167.05472791517104
 40
0.0608883012790937
  0
CIRCLE
  8
_1-1_
  6
CONTINUOUS
 62
    7
 10
248.08202795080237
 20
166.76255097260346
 40
0.0608883012790937
  0
CIRCLE
  8
_1-1_
  6
CONTINUOUS
 62
    7
 10
247.10350242820948
 20
167.06623386692357
 40
0.0608883012790937
  0
CIRCLE
  8
_1-1_
  6
CONTINUOUS
 62
    7
 10
247.57826521589951
 20
167.44388889622044
 40
0.0608883012790937
  0
CIRCLE
  8
_1-1_
  6
CONTINUOUS
 62
    7
 10
246.32136989284209
 20
168.58654125316724
 40
0.0608883012790937
  0
CIRCLE
  8
_1-1_
  6
CONTINUOUS
 62
    7
 10
246.43563760293497
 20
167.90094736460094
 40
0.0608883012790937
  0
CIRCLE
  8
_1-1_
  6
CONTINUOUS
 62
    7
 10
247.04720986855997
 20
167.75677655194258
 40
0.0608883012790937
  0
CIRCLE
  8
_1-1_
  6
CONTINUOUS
 62
    7
 10
247.1484375
 20
168.16168707770271
 40
0.0608883012790937
  0
CIRCLE
  8
_1-1_
  6
CONTINUOUS
 62
    7
 10
247.98827300200594
 20
168.77278920766472
 40
0.0608883012790937
  0
CIRCLE
  8
_1-1_
  6
CONTINUOUS
 62
    7
 10
246.36954642630914
 20
167.03346046241555
 40
0.0608883012790937
  0
CIRCLE
  8
_1-1_
  6
CONTINUOUS
 62
    7
 10
247.57165857263516
 20
168.58411634290542
 40
0.0608883012790937
  0
CIRCLE
  8
_1-1_
  6
CONTINUOUS
 62
    7
 10
246.88607705605997
 20
166.75587009739232
 40
0.0608883012790937
  0
CIRCLE
  8
_1-1_
  6
CONTINUOUS
 62
    7
 10
247.62802536423143
 20
168.29193940033784
 40
0.0608883012790937
  0
CIRCLE
  8
_1-1_
  6
CONTINUOUS
 62
    7
 10
246.64949984163852
 20
168.59562229465794
 40
0.0608883012790937
  0
CIRCLE
  8
_1-1_
  6
CONTINUOUS
 62
    7
 10
246.84740221178211
 20
169.90225302206505
 40
0.0608883012790937
  0
CIRCLE
  8
_1-1_
  6
CONTINUOUS
 62
    7
 10
246.04755298511404
 20
168.98813608530406
 40
0.0608883012790937
  0
CIRCLE
  8
_1-1_
  6
CONTINUOUS
 62
    7
 10
245.59050688872469
 20
171.04490537901182
 40
0.0608883012790937
  0
CIRCLE
  8
_1-1_
  6
CONTINUOUS
 62
    7
 10
245.70477459881758
 20
170.35931149044552
 40
0.0608883012790937
  0
CIRCLE
  8
_1-1_
  6
CONTINUOUS
 62
    7
 10
246.31634686444258
 20
170.21514067778716
 40
0.0608883012790937
  0
CIRCLE
  8
_1-1_
  6
CONTINUOUS
 62
    7
 10
246.4175744958826
 20
170.62005120354732
 40
0.0608883012790937
  0
CIRCLE
  8
_1-1_
  6
CONTINUOUS
 62
    7
 10
245.63868342219175
 20
169.49182458826016
 40
0.0608883012790937
  0
CIRCLE
  8
_1-1_
  6
CONTINUOUS
 62
    7
 10
246.84079556851776
 20
171.04248046875
 40
0.0608883012790937
  0
CIRCLE
  8
_1-1_
  6
CONTINUOUS
 62
    7
 10
246.61226014833193
 20
170.3568865801837
 40
0.0608883012790937
  0
CIRCLE
  8
_1-1_
  6
CONTINUOUS
 62
    7
 10
246.15521405194258
 20
169.21423422323693
 40
0.0608883012790937
  0
CIRCLE
  8
_1-1_
  6
CONTINUOUS
 62
    7
 10
247.47080210092906
 20
169.46808273727831
 40
0.0608883012790937
  0
CIRCLE
  8
_1-1_
  6
CONTINUOUS
 62
    7
 10
247.57202973236909
 20
169.87299326303844
 40
0.0608883012790937
  0
CIRCLE
  8
_1-1_
  6
CONTINUOUS
 62
    7
 10
246.89716236011404
 20
170.75030352618245
 40
0.0608883012790937
  0
CIRCLE
  8
_1-1_
  6
CONTINUOUS
 62
    7
 10
247.20393825221709
 20
170.68245552681589
 40
0.0608883012790937
  0
CIRCLE
  8
_1-1_
  6
CONTINUOUS
 62
    7
 10
248.10004156989021
 20
171.03599754539698
 40
0.0608883012790937
  0
CIRCLE
  8
_1-1_
  6
CONTINUOUS
 62
    7
 10
248.05473533836573
 20
166.71306300807643
 40
0.0608883012790937
  0
CIRCLE
  8
_1-1_
  6
CONTINUOUS
 62
    7
 10
247.21861143369935
 20
169.59253259607266
 40
0.0608883012790937
  0
CIRCLE
  8
_1-1_
  6
CONTINUOUS
 62
    7
 10
247.94984559755068
 20
168.42304539036107
 40
0.0608883012790937
  0
CIRCLE
  8
_1-1_
  6
CONTINUOUS
 62
    7
 10
247.27497822529563
 20
169.30035565350508
 40
0.0608883012790937
  0
CIRCLE
  8
_1-1_
  6
CONTINUOUS
 62
    7
 10
247.11087613492401
 20
166.32558461782097
 40
0.0608883012790937
  0
CIRCLE
  8
_1-1_
  6
CONTINUOUS
 62
    7
 10
249.52583931587839
 20
166.76095498574747
 40
0.0608883012790937
  0
CIRCLE
  8
_1-1_
  6
CONTINUOUS
 62
    7
 10
248.60368058488177
 20
166.7724609375
 40
0.0608883012790937
  0
CIRCLE
  8
_1-1_
  6
CONTINUOUS
 62
    7
 10
249.44265004750847
 20
169.1845414445207
 40
0.0608883012790937
  0
CIRCLE
  8
_1-1_
  6
CONTINUOUS
 62
    7
 10
247.00964850348396
 20
170.53509274044552
 40
0.0608883012790937
  0
CIRCLE
  8
_1-1_
  6
CONTINUOUS
 62
    7
 10
247.21861143369935
 20
168.12431129249367
 40
0.0608883012790937
  0
CIRCLE
  8
_1-1_
  6
CONTINUOUS
 62
    7
 10
246.99007601351352
 20
167.43871740392737
 40
0.0608883012790937
  0
CIRCLE
  8
_1-1_
  6
CONTINUOUS
 62
    7
 10
247.84861796611065
 20
166.54991356102198
 40
0.0608883012790937
  0
CIRCLE
  8
_1-1_
  6
CONTINUOUS
 62
    7
 10
247.94984559755068
 20
166.95482408678211
 40
0.0608883012790937
  0
CIRCLE
  8
_1-1_
  6
CONTINUOUS
 62
    7
 10
247.27497822529563
 20
167.83213434992609
 40
0.0608883012790937
  0
CIRCLE
  8
_1-1_
  6
CONTINUOUS
 62
    7
 10
249.42094957506336
 20
166.65607761692357
 40
0.0608883012790937
  0
CIRCLE
  8
_1-1_
  6
CONTINUOUS
 62
    7
 10
249.47731636665964
 20
166.36390067435602
 40
0.0608883012790937
  0
CIRCLE
  8
_1-1_
  6
CONTINUOUS
 62
    7
 10
248.49879084406675
 20
166.66758356867609
 40
0.0608883012790937
  0
CIRCLE
  8
_1-1_
  6
CONTINUOUS
 62
    7
 10
248.97355363175677
 20
167.04523859797297
 40
0.0608883012790937
  0
CIRCLE
  8
_1-1_
  6
CONTINUOUS
 62
    7
 10
247.71665830869935
 20
168.18789095491977
 40
0.0608883012790937
  0
CIRCLE
  8
_1-1_
  6
CONTINUOUS
 62
    7
 10
248.44249828441724
 20
167.3581262536951
 40
0.0608883012790937
  0
CIRCLE
  8
_1-1_
  6
CONTINUOUS
 62
    7
 10
248.54372591585727
 20
167.76303677945523
 40
0.0608883012790937
  0
CIRCLE
  8
_1-1_
  6
CONTINUOUS
 62
    7
 10
249.38356141786318
 20
168.37413890941724
 40
0.0608883012790937
  0
CIRCLE
  8
_1-1_
  6
CONTINUOUS
 62
    7
 10
247.76483484216641
 20
166.63481016416807
 40
0.0608883012790937
  0
CIRCLE
  8
_1-1_
  6
CONTINUOUS
 62
    7
 10
248.96694698849242
 20
168.18546604465794
 40
0.0608883012790937
  0
CIRCLE
  8
_1-1_
  6
CONTINUOUS
 62
    7
 10
248.73841156830659
 20
167.49987215609164
 40
0.0608883012790937
  0
CIRCLE
  8
_1-1_
  6
CONTINUOUS
 62
    7
 10
248.28136547191724
 20
166.35721979914484
 40
0.0608883012790937
  0
CIRCLE
  8
_1-1_
  6
CONTINUOUS
 62
    7
 10
249.0233137800887
 20
167.89328910209039
 40
0.0608883012790937
  0
CIRCLE
  8
_1-1_
  6
CONTINUOUS
 62
    7
 10
248.04478825749578
 20
168.19697199641047
 40
0.0608883012790937
  0
CIRCLE
  8
_1-1_
  6
CONTINUOUS
 62
    7
 10
249.33008967219175
 20
167.82544110272383
 40
0.0608883012790937
  0
CIRCLE
  8
_1-1_
  6
CONTINUOUS
 62
    7
 10
248.24269062763938
 20
169.50360272381758
 40
0.0608883012790937
  0
CIRCLE
  8
_1-1_
  6
CONTINUOUS
 62
    7
 10
246.98579530458193
 20
170.64625508076438
 40
0.0608883012790937
  0
CIRCLE
  8
_1-1_
  6
CONTINUOUS
 62
    7
 10
247.10006301467484
 20
169.96066119219807
 40
0.0608883012790937
  0
CIRCLE
  8
_1-1_
  6
CONTINUOUS
 62
    7
 10
247.71163528029984
 20
169.81649037953972
 40
0.0608883012790937
  0
CIRCLE
  8
_1-1_
  6
CONTINUOUS
 62
    7
 10
247.81286291173987
 20
170.22140090529984
 40
0.0608883012790937
  0
CIRCLE
  8
_1-1_
  6
CONTINUOUS
 62
    7
 10
247.03397183804901
 20
169.09317429001268
 40
0.0608883012790937
  0
CIRCLE
  8
_1-1_
  6
CONTINUOUS
 62
    7
 10
248.236083984375
 20
170.64383017050255
 40
0.0608883012790937
  0
CIRCLE
  8
_1-1_
  6
CONTINUOUS
 62
    7
 10
248.00754856418919
 20
169.95823628193625
 40
0.0608883012790937
  0
CIRCLE
  8
_1-1_
  6
CONTINUOUS
 62
    7
 10
247.55050246779984
 20
168.81558392498945
 40
0.0608883012790937
  0
CIRCLE
  8
_1-1_
  6
CONTINUOUS
 62
    7
 10
248.86609051678633
 20
169.06943243903083
 40
0.0608883012790937
  0
CIRCLE
  8
_1-1_
  6
CONTINUOUS
 62
    7
 10
248.96731814822635
 20
169.47434296479096
 40
0.0608883012790937
  0
CIRCLE
  8
_1-1_
  6
CONTINUOUS
 62
    7
 10
248.2924507759713
 20
170.35165322793497
 40
0.0608883012790937
  0
CIRCLE
  8
_1-1_
  6
CONTINUOUS
 62
    7
 10
248.59922666807435
 20
170.28380522856841
 40
0.0608883012790937
  0
CIRCLE
  8
_1-1_
  6
CONTINUOUS
 62
    7
 10
249.49532998574747
 20
170.63734724714951
 40
0.0608883012790937
  0
CIRCLE
  8
_1-1_
  6
CONTINUOUS
 62
    7
 10
248.48102466480154
 20
163.08116603542018
 40
0.0608883012790937
  0
CIRCLE
  8
_1-1_
  6
CONTINUOUS
 62
    7
 10
248.25248924461573
 20
162.39557214685391
 40
0.0608883012790937
  0
CIRCLE
  8
_1-1_
  6
CONTINUOUS
 62
    7
 10
249.11103119721284
 20
161.50676830394849
 40
0.0608883012790937
  0
CIRCLE
  8
_1-1_
  6
CONTINUOUS
 62
    7
 10
249.21225882865289
 20
161.91167882970862
 40
0.0608883012790937
  0
CIRCLE
  8
_1-1_
  6
CONTINUOUS
 62
    7
 10
248.53739145639781
 20
162.78898909285263
 40
0.0608883012790937
  0
CIRCLE
  8
_1-1_
  6
CONTINUOUS
 62
    7
 10
250.7882525469806
 20
160.24958842509503
 40
0.0608883012790937
  0
CIRCLE
  8
_1-1_
  6
CONTINUOUS
 62
    7
 10
249.86609381598396
 20
160.26109437684755
 40
0.0608883012790937
  0
CIRCLE
  8
_1-1_
  6
CONTINUOUS
 62
    7
 10
250.70506327861065
 20
162.67317488386826
 40
0.0608883012790937
  0
CIRCLE
  8
_1-1_
  6
CONTINUOUS
 62
    7
 10
248.27206173458617
 20
164.02372617979307
 40
0.0608883012790937
  0
CIRCLE
  8
_1-1_
  6
CONTINUOUS
 62
    7
 10
248.48102466480154
 20
161.61294473184122
 40
0.0608883012790937
  0
CIRCLE
  8
_1-1_
  6
CONTINUOUS
 62
    7
 10
248.25248924461573
 20
160.92735084327492
 40
0.0608883012790937
  0
CIRCLE
  8
_1-1_
  6
CONTINUOUS
 62
    7
 10
249.21225882865289
 20
160.44345752612966
 40
0.0608883012790937
  0
CIRCLE
  8
_1-1_
  6
CONTINUOUS
 62
    7
 10
248.53739145639781
 20
161.32076778927365
 40
0.0608883012790937
  0
CIRCLE
  8
_1-1_
  6
CONTINUOUS
 62
    7
 10
250.68336280616555
 20
160.14471105627112
 40
0.0608883012790937
  0
CIRCLE
  8
_1-1_
  6
CONTINUOUS
 62
    7
 10
249.76120407516893
 20
160.15621700802365
 40
0.0608883012790937
  0
CIRCLE
  8
_1-1_
  6
CONTINUOUS
 62
    7
 10
250.23596686285896
 20
160.53387203732052
 40
0.0608883012790937
  0
CIRCLE
  8
_1-1_
  6
CONTINUOUS
 62
    7
 10
248.97907153980154
 20
161.67652439426732
 40
0.0608883012790937
  0
CIRCLE
  8
_1-1_
  6
CONTINUOUS
 62
    7
 10
249.09333924989443
 20
160.99093050570102
 40
0.0608883012790937
  0
CIRCLE
  8
_1-1_
  6
CONTINUOUS
 62
    7
 10
249.70491151551943
 20
160.84675969304266
 40
0.0608883012790937
  0
CIRCLE
  8
_1-1_
  6
CONTINUOUS
 62
    7
 10
249.80613914695948
 20
161.25167021880279
 40
0.0608883012790937
  0
CIRCLE
  8
_1-1_
  6
CONTINUOUS
 62
    7
 10
250.64597464896539
 20
161.86277234876479
 40
0.0608883012790937
  0
CIRCLE
  8
_1-1_
  6
CONTINUOUS
 62
    7
 10
250.22936021959461
 20
161.6740994840055
 40
0.0608883012790937
  0
CIRCLE
  8
_1-1_
  6
CONTINUOUS
 62
    7
 10
250.0008247994088
 20
160.98850559543919
 40
0.0608883012790937
  0
CIRCLE
  8
_1-1_
  6
CONTINUOUS
 62
    7
 10
249.54377870301943
 20
159.8458532384924
 40
0.0608883012790937
  0
CIRCLE
  8
_1-1_
  6
CONTINUOUS
 62
    7
 10
250.28572701119089
 20
161.38192254143794
 40
0.0608883012790937
  0
CIRCLE
  8
_1-1_
  6
CONTINUOUS
 62
    7
 10
249.307201488598
 20
161.68560543575802
 40
0.0608883012790937
  0
CIRCLE
  8
_1-1_
  6
CONTINUOUS
 62
    7
 10
250.59250290329393
 20
161.31407454207138
 40
0.0608883012790937
  0
CIRCLE
  8
_1-1_
  6
CONTINUOUS
 62
    7
 10
249.50510385874156
 20
162.99223616316513
 40
0.0608883012790937
  0
CIRCLE
  8
_1-1_
  6
CONTINUOUS
 62
    7
 10
248.70525463207349
 20
162.07811922640414
 40
0.0608883012790937
  0
CIRCLE
  8
_1-1_
  6
CONTINUOUS
 62
    7
 10
248.24820853568414
 20
164.13488852011193
 40
0.0608883012790937
  0
CIRCLE
  8
_1-1_
  6
CONTINUOUS
 62
    7
 10
248.36247624577703
 20
163.44929463154563
 40
0.0608883012790937
  0
CIRCLE
  8
_1-1_
  6
CONTINUOUS
 62
    7
 10
248.97404851140203
 20
163.30512381888727
 40
0.0608883012790937
  0
CIRCLE
  8
_1-1_
  6
CONTINUOUS
 62
    7
 10
249.07527614284209
 20
163.7100343446474
 40
0.0608883012790937
  0
CIRCLE
  8
_1-1_
  6
CONTINUOUS
 62
    7
 10
248.2963850691512
 20
162.58180772936024
 40
0.0608883012790937
  0
CIRCLE
  8
_1-1_
  6
CONTINUOUS
 62
    7
 10
249.49849721547722
 20
164.13246360985011
 40
0.0608883012790937
  0
CIRCLE
  8
_1-1_
  6
CONTINUOUS
 62
    7
 10
249.26996179529141
 20
163.4468697212838
 40
0.0608883012790937
  0
CIRCLE
  8
_1-1_
  6
CONTINUOUS
 62
    7
 10
248.81291569890203
 20
162.30421736433701
 40
0.0608883012790937
  0
CIRCLE
  8
_1-1_
  6
CONTINUOUS
 62
    7
 10
250.12850374788852
 20
162.55806587837839
 40
0.0608883012790937
  0
CIRCLE
  8
_1-1_
  6
CONTINUOUS
 62
    7
 10
250.22973137932857
 20
162.96297640413852
 40
0.0608883012790937
  0
CIRCLE
  8
_1-1_
  6
CONTINUOUS
 62
    7
 10
249.55486400707349
 20
163.84028666728253
 40
0.0608883012790937
  0
CIRCLE
  8
_1-1_
  6
CONTINUOUS
 62
    7
 10
249.86163989917654
 20
163.77243866791596
 40
0.0608883012790937
  0
CIRCLE
  8
_1-1_
  6
CONTINUOUS
 62
    7
 10
250.75774321684969
 20
164.12598068649706
 40
0.0608883012790937
  0
CIRCLE
  8
_1-1_
  6
CONTINUOUS
 62
    7
 10
250.71243698532518
 20
159.80304614917654
 40
0.0608883012790937
  0
CIRCLE
  8
_1-1_
  6
CONTINUOUS
 62
    7
 10
247.68372406830659
 20
159.82548894108953
 40
0.0608883012790937
  0
CIRCLE
  8
_1-1_
  6
CONTINUOUS
 62
    7
 10
247.45518864812078
 20
159.13989505252323
 40
0.0608883012790937
  0
CIRCLE
  8
_1-1_
  6
CONTINUOUS
 62
    7
 10
247.47476113809122
 20
160.76804908546242
 40
0.0608883012790937
  0
CIRCLE
  8
_1-1_
  6
CONTINUOUS
 62
    7
 10
248.70780326224664
 20
159.73655906883448
 40
0.0608883012790937
  0
CIRCLE
  8
_1-1_
  6
CONTINUOUS
 62
    7
 10
247.90795403557857
 20
158.82244213207349
 40
0.0608883012790937
  0
CIRCLE
  8
_1-1_
  6
CONTINUOUS
 62
    7
 10
247.45090793918919
 20
160.87921142578125
 40
0.0608883012790937
  0
CIRCLE
  8
_1-1_
  6
CONTINUOUS
 62
    7
 10
247.56517564928211
 20
160.19361753721495
 40
0.0608883012790937
  0
CIRCLE
  8
_1-1_
  6
CONTINUOUS
 62
    7
 10
248.17674791490711
 20
160.04944672455659
 40
0.0608883012790937
  0
CIRCLE
  8
_1-1_
  6
CONTINUOUS
 62
    7
 10
248.27797554634714
 20
160.45435725031672
 40
0.0608883012790937
  0
CIRCLE
  8
_1-1_
  6
CONTINUOUS
 62
    7
 10
247.49908447265625
 20
159.32613063502956
 40
0.0608883012790937
  0
CIRCLE
  8
_1-1_
  6
CONTINUOUS
 62
    7
 10
248.70119661898227
 20
160.87678651551943
 40
0.0608883012790937
  0
CIRCLE
  8
_1-1_
  6
CONTINUOUS
 62
    7
 10
249.43243078283362
 20
159.70729930980787
 40
0.0608883012790937
  0
CIRCLE
  8
_1-1_
  6
CONTINUOUS
 62
    7
 10
248.75756341057857
 20
160.58460957295188
 40
0.0608883012790937
  0
CIRCLE
  8
_1-1_
  6
CONTINUOUS
 62
    7
 10
249.06433930268159
 20
160.51676157358531
 40
0.0608883012790937
  0
CIRCLE
  8
_1-1_
  6
CONTINUOUS
 62
    7
 10
249.96044262035474
 20
160.87030359216641
 40
0.0608883012790937
  0
CIRCLE
  8
_1-1_
  6
CONTINUOUS
 62
    7
 10
248.51398364917654
 20
159.35103545317779
 40
0.0608883012790937
  0
CIRCLE
  8
_1-1_
  6
CONTINUOUS
 62
    7
 10
247.75016166068414
 20
162.81540329391893
 40
0.0608883012790937
  0
CIRCLE
  8
_1-1_
  6
CONTINUOUS
 62
    7
 10
247.52162624049834
 20
162.12980940535263
 40
0.0608883012790937
  0
CIRCLE
  8
_1-1_
  6
CONTINUOUS
 62
    7
 10
248.38016819309544
 20
161.24100556244721
 40
0.0608883012790937
  0
CIRCLE
  8
_1-1_
  6
CONTINUOUS
 62
    7
 10
248.4813958245355
 20
161.64591608820734
 40
0.0608883012790937
  0
CIRCLE
  8
_1-1_
  6
CONTINUOUS
 62
    7
 10
247.80652845228042
 20
162.52322635135135
 40
0.0608883012790937
  0
CIRCLE
  8
_1-1_
  6
CONTINUOUS
 62
    7
 10
250.05738954286318
 20
159.98382568359375
 40
0.0608883012790937
  0
CIRCLE
  8
_1-1_
  6
CONTINUOUS
 62
    7
 10
249.97420027449326
 20
162.40741214236698
 40
0.0608883012790937
  0
CIRCLE
  8
_1-1_
  6
CONTINUOUS
 62
    7
 10
247.54119873046875
 20
163.75796343829182
 40
0.0608883012790937
  0
CIRCLE
  8
_1-1_
  6
CONTINUOUS
 62
    7
 10
247.75016166068414
 20
161.34718199033995
 40
0.0608883012790937
  0
CIRCLE
  8
_1-1_
  6
CONTINUOUS
 62
    7
 10
247.52162624049834
 20
160.66158810177365
 40
0.0608883012790937
  0
CIRCLE
  8
_1-1_
  6
CONTINUOUS
 62
    7
 10
248.38016819309544
 20
159.77278425886826
 40
0.0608883012790937
  0
CIRCLE
  8
_1-1_
  6
CONTINUOUS
 62
    7
 10
248.4813958245355
 20
160.17769478462839
 40
0.0608883012790937
  0
CIRCLE
  8
_1-1_
  6
CONTINUOUS
 62
    7
 10
249.03034107105154
 20
159.8904542665224
 40
0.0608883012790937
  0
CIRCLE
  8
_1-1_
  6
CONTINUOUS
 62
    7
 10
249.50510385874156
 20
160.26810929581927
 40
0.0608883012790937
  0
CIRCLE
  8
_1-1_
  6
CONTINUOUS
 62
    7
 10
248.24820853568414
 20
161.41076165276607
 40
0.0608883012790937
  0
CIRCLE
  8
_1-1_
  6
CONTINUOUS
 62
    7
 10
248.36247624577703
 20
160.72516776419977
 40
0.0608883012790937
  0
CIRCLE
  8
_1-1_
  6
CONTINUOUS
 62
    7
 10
248.97404851140203
 20
160.58099695154141
 40
0.0608883012790937
  0
CIRCLE
  8
_1-1_
  6
CONTINUOUS
 62
    7
 10
249.07527614284209
 20
160.98590747730154
 40
0.0608883012790937
  0
CIRCLE
  8
_1-1_
  6
CONTINUOUS
 62
    7
 10
249.915111644848
 20
161.59700960726352
 40
0.0608883012790937
  0
CIRCLE
  8
_1-1_
  6
CONTINUOUS
 62
    7
 10
249.49849721547722
 20
161.40833674250422
 40
0.0608883012790937
  0
CIRCLE
  8
_1-1_
  6
CONTINUOUS
 62
    7
 10
249.26996179529141
 20
160.72274285393794
 40
0.0608883012790937
  0
CIRCLE
  8
_1-1_
  6
CONTINUOUS
 62
    7
 10
249.55486400707349
 20
161.11615979993667
 40
0.0608883012790937
  0
CIRCLE
  8
_1-1_
  6
CONTINUOUS
 62
    7
 10
248.5763384844806
 20
161.41984269425677
 40
0.0608883012790937
  0
CIRCLE
  8
_1-1_
  6
CONTINUOUS
 62
    7
 10
249.86163989917654
 20
161.0483118005701
 40
0.0608883012790937
  0
CIRCLE
  8
_1-1_
  6
CONTINUOUS
 62
    7
 10
248.77424085462417
 20
162.72647342166385
 40
0.0608883012790937
  0
CIRCLE
  8
_1-1_
  6
CONTINUOUS
 62
    7
 10
247.97439162795609
 20
161.81235648490289
 40
0.0608883012790937
  0
CIRCLE
  8
_1-1_
  6
CONTINUOUS
 62
    7
 10
247.51734553156675
 20
163.86912577861065
 40
0.0608883012790937
  0
CIRCLE
  8
_1-1_
  6
CONTINUOUS
 62
    7
 10
247.63161324165964
 20
163.18353189004435
 40
0.0608883012790937
  0
CIRCLE
  8
_1-1_
  6
CONTINUOUS
 62
    7
 10
248.24318550728464
 20
163.03936107738599
 40
0.0608883012790937
  0
CIRCLE
  8
_1-1_
  6
CONTINUOUS
 62
    7
 10
248.34441313872469
 20
163.44427160314612
 40
0.0608883012790937
  0
CIRCLE
  8
_1-1_
  6
CONTINUOUS
 62
    7
 10
247.5655220650338
 20
162.31604498785896
 40
0.0608883012790937
  0
CIRCLE
  8
_1-1_
  6
CONTINUOUS
 62
    7
 10
248.76763421135982
 20
163.86670086834883
 40
0.0608883012790937
  0
CIRCLE
  8
_1-1_
  6
CONTINUOUS
 62
    7
 10
248.53909879117401
 20
163.18110697978253
 40
0.0608883012790937
  0
CIRCLE
  8
_1-1_
  6
CONTINUOUS
 62
    7
 10
248.08205269478464
 20
162.03845462283573
 40
0.0608883012790937
  0
CIRCLE
  8
_1-1_
  6
CONTINUOUS
 62
    7
 10
249.39764074377112
 20
162.29230313687711
 40
0.0608883012790937
  0
CIRCLE
  8
_1-1_
  6
CONTINUOUS
 62
    7
 10
249.49886837521117
 20
162.69721366263727
 40
0.0608883012790937
  0
CIRCLE
  8
_1-1_
  6
CONTINUOUS
 62
    7
 10
248.82400100295609
 20
163.57452392578125
 40
0.0608883012790937
  0
CIRCLE
  8
_1-1_
  6
CONTINUOUS
 62
    7
 10
249.13077689505914
 20
163.50667592641472
 40
0.0608883012790937
  0
CIRCLE
  8
_1-1_
  6
CONTINUOUS
 62
    7
 10
250.02688021273227
 20
163.86021794499578
 40
0.0608883012790937
  0
CIRCLE
  8
_1-1_
  6
CONTINUOUS
 62
    7
 10
244.37043061127534
 20
172.77071153795399
 40
0.0608883012790937
  0
CIRCLE
  8
_1-1_
  6
CONTINUOUS
 62
    7
 10
244.14189519108953
 20
172.08511764938768
 40
0.0608883012790937
  0
CIRCLE
  8
_1-1_
  6
CONTINUOUS
 62
    7
 10
245.00043714368667
 20
171.19631380648227
 40
0.0608883012790937
  0
CIRCLE
  8
_1-1_
  6
CONTINUOUS
 62
    7
 10
245.10166477512669
 20
171.6012243322424
 40
0.0608883012790937
  0
CIRCLE
  8
_1-1_
  6
CONTINUOUS
 62
    7
 10
244.42679740287164
 20
172.47853459538641
 40
0.0608883012790937
  0
CIRCLE
  8
_1-1_
  6
CONTINUOUS
 62
    7
 10
244.2626953125
 20
169.50376355970229
 40
0.0608883012790937
  0
CIRCLE
  8
_1-1_
  6
CONTINUOUS
 62
    7
 10
246.6776584934544
 20
169.9391339276288
 40
0.0608883012790937
  0
CIRCLE
  8
_1-1_
  6
CONTINUOUS
 62
    7
 10
245.75549976245779
 20
169.95063987938136
 40
0.0608883012790937
  0
CIRCLE
  8
_1-1_
  6
CONTINUOUS
 62
    7
 10
246.59446922508448
 20
172.36272038640203
 40
0.0608883012790937
  0
CIRCLE
  8
_1-1_
  6
CONTINUOUS
 62
    7
 10
244.16146768105997
 20
173.71327168232688
 40
0.0608883012790937
  0
CIRCLE
  8
_1-1_
  6
CONTINUOUS
 62
    7
 10
244.37043061127534
 20
171.302490234375
 40
0.0608883012790937
  0
CIRCLE
  8
_1-1_
  6
CONTINUOUS
 62
    7
 10
244.14189519108953
 20
170.6168963458087
 40
0.0608883012790937
  0
CIRCLE
  8
_1-1_
  6
CONTINUOUS
 62
    7
 10
245.00043714368667
 20
169.72809250290331
 40
0.0608883012790937
  0
CIRCLE
  8
_1-1_
  6
CONTINUOUS
 62
    7
 10
245.10166477512669
 20
170.13300302866344
 40
0.0608883012790937
  0
CIRCLE
  8
_1-1_
  6
CONTINUOUS
 62
    7
 10
244.42679740287164
 20
171.01031329180745
 40
0.0608883012790937
  0
CIRCLE
  8
_1-1_
  6
CONTINUOUS
 62
    7
 10
246.57276875263938
 20
169.8342565588049
 40
0.0608883012790937
  0
CIRCLE
  8
_1-1_
  6
CONTINUOUS
 62
    7
 10
246.62913554423565
 20
169.54207961623734
 40
0.0608883012790937
  0
CIRCLE
  8
_1-1_
  6
CONTINUOUS
 62
    7
 10
245.65061002164276
 20
169.84576251055745
 40
0.0608883012790937
  0
CIRCLE
  8
_1-1_
  6
CONTINUOUS
 62
    7
 10
246.12537280933279
 20
170.22341753985432
 40
0.0608883012790937
  0
CIRCLE
  8
_1-1_
  6
CONTINUOUS
 62
    7
 10
244.86847748627534
 20
171.36606989680109
 40
0.0608883012790937
  0
CIRCLE
  8
_1-1_
  6
CONTINUOUS
 62
    7
 10
244.98274519636826
 20
170.68047600823482
 40
0.0608883012790937
  0
CIRCLE
  8
_1-1_
  6
CONTINUOUS
 62
    7
 10
245.59431746199326
 20
170.53630519557643
 40
0.0608883012790937
  0
CIRCLE
  8
_1-1_
  6
CONTINUOUS
 62
    7
 10
245.69554509343328
 20
170.94121572133659
 40
0.0608883012790937
  0
CIRCLE
  8
_1-1_
  6
CONTINUOUS
 62
    7
 10
246.53538059543919
 20
171.55231785129857
 40
0.0608883012790937
  0
CIRCLE
  8
_1-1_
  6
CONTINUOUS
 62
    7
 10
244.91665401974242
 20
169.81298910604943
 40
0.0608883012790937
  0
CIRCLE
  8
_1-1_
  6
CONTINUOUS
 62
    7
 10
246.11876616606844
 20
171.36364498653927
 40
0.0608883012790937
  0
CIRCLE
  8
_1-1_
  6
CONTINUOUS
 62
    7
 10
245.8902307458826
 20
170.67805109797297
 40
0.0608883012790937
  0
CIRCLE
  8
_1-1_
  6
CONTINUOUS
 62
    7
 10
245.43318464949326
 20
169.5353987410262
 40
0.0608883012790937
  0
CIRCLE
  8
_1-1_
  6
CONTINUOUS
 62
    7
 10
246.17513295766472
 20
171.07146804397172
 40
0.0608883012790937
  0
CIRCLE
  8
_1-1_
  6
CONTINUOUS
 62
    7
 10
245.1966074350718
 20
171.37515093829182
 40
0.0608883012790937
  0
CIRCLE
  8
_1-1_
  6
CONTINUOUS
 62
    7
 10
246.48190884976776
 20
171.00362004460516
 40
0.0608883012790937
  0
CIRCLE
  8
_1-1_
  6
CONTINUOUS
 62
    7
 10
245.39450980521539
 20
172.68178166569891
 40
0.0608883012790937
  0
CIRCLE
  8
_1-1_
  6
CONTINUOUS
 62
    7
 10
244.59466057854732
 20
171.76766472893794
 40
0.0608883012790937
  0
CIRCLE
  8
_1-1_
  6
CONTINUOUS
 62
    7
 10
244.13761448215794
 20
173.8244340226457
 40
0.0608883012790937
  0
CIRCLE
  8
_1-1_
  6
CONTINUOUS
 62
    7
 10
244.25188219225086
 20
173.1388401340794
 40
0.0608883012790937
  0
CIRCLE
  8
_1-1_
  6
CONTINUOUS
 62
    7
 10
244.86345445787586
 20
172.99466932142104
 40
0.0608883012790937
  0
CIRCLE
  8
_1-1_
  6
CONTINUOUS
 62
    7
 10
244.96468208931589
 20
173.39957984718117
 40
0.0608883012790937
  0
CIRCLE
  8
_1-1_
  6
CONTINUOUS
 62
    7
 10
244.185791015625
 20
172.27135323189401
 40
0.0608883012790937
  0
CIRCLE
  8
_1-1_
  6
CONTINUOUS
 62
    7
 10
245.38790316195102
 20
173.82200911238388
 40
0.0608883012790937
  0
CIRCLE
  8
_1-1_
  6
CONTINUOUS
 62
    7
 10
245.15936774176521
 20
173.13641522381758
 40
0.0608883012790937
  0
CIRCLE
  8
_1-1_
  6
CONTINUOUS
 62
    7
 10
244.70232164537586
 20
171.99376286687078
 40
0.0608883012790937
  0
CIRCLE
  8
_1-1_
  6
CONTINUOUS
 62
    7
 10
246.01790969436234
 20
172.24761138091216
 40
0.0608883012790937
  0
CIRCLE
  8
_1-1_
  6
CONTINUOUS
 62
    7
 10
246.11913732580237
 20
172.65252190667232
 40
0.0608883012790937
  0
CIRCLE
  8
_1-1_
  6
CONTINUOUS
 62
    7
 10
245.44426995354732
 20
173.5298321698163
 40
0.0608883012790937
  0
CIRCLE
  8
_1-1_
  6
CONTINUOUS
 62
    7
 10
245.75104584565034
 20
173.46198417044977
 40
0.0608883012790937
  0
CIRCLE
  8
_1-1_
  6
CONTINUOUS
 62
    7
 10
246.64714916332349
 20
173.81552618903083
 40
0.0608883012790937
  0
CIRCLE
  8
_1-1_
  6
CONTINUOUS
 62
    7
 10
246.60184293179901
 20
169.49259165171031
 40
0.0608883012790937
  0
TEXT
  8
_0-0_
 62
    7
 10
141.89189395389042
 20
14.594594594594582
 40
2.5
 41
1
 50
0
  1
縮尺
  0
TEXT
  8
_0-0_
 62
    7
 10
377.10214563318203
 20
22.865493362014362
 40
2.5
 41
1
 50
0
  1
ＮＯ
  0
TEXT
  8
_1-0_
 62
    7
 10
169.90681828679266
 20
13.3181144095756
 40
2.5
 41
1
 50
0
  1
1/5
  0
TEXT
  8
_0-0_
 62
    7
 10
14.594594336844779
 20
24.324324324324323
 40
2.5
 41
1
 50
0
  1
Ｓ型
  0
TEXT
  8
_0-0_
 62
    7
 10
383.97877873601146
 20
17.689098667454061
 40
2.5
 41
1
 50
0
  1
Ｓ
  0
TEXT
  8
_1-3_
 62
    7
 10
181.7129289781725
 20
39.513875600453972
 40
2.5
 41
1
 50
0
  1
垂木
  0
TEXT
  8
_1-3_
 62
    7
 10
181.71292691617398
 20
45.513870651657527
 40
2.5
 41
1
 50
0
  1
野地板
  0
TEXT
  8
_1-3_
 62
    7
 10
181.71292485417547
 20
51.513878074852201
 40
2.5
 41
1
 50
0
  1
下葺き材
  0
TEXT
  8
_1-3_
 62
    7
 10
181.71292691617398
 20
57.513873126055756
 40
2.5
 41
1
 50
0
  1
流し桟
  0
TEXT
  8
_1-3_
 62
    7
 10
181.7129289781725
 20
63.513868177259297
 40
2.5
 41
1
 50
0
  1
瓦桟
  0
TEXT
  8
_1-3_
 62
    7
 10
97.713666348843958
 20
141.52874920819258
 40
2.5
 41
1
 50
0
  1
Ｓ型　桟瓦
  0
TEXT
  8
_0-0_
 62
    7
 10
39.721903414339636
 20
15.395235628695104
 40
2.5
 41
1
 50
0
  1
壁際　3
  0
TEXT
  8
_1-1_
 62
    7
 10
218.29586132152662
 20
260.45528102565459
 40
2.5
 41
1
 50
0
  1
外壁
  0
TEXT
  8
_1-1_
 62
    7
 10
199.48938936800573
 20
233.75476734058279
 40
2.5
 41
1
 50
0
  1
雨押え板　15ｘ90
  0
TEXT
  8
_1-1_
 62
    7
 10
195.54235303724136
 20
215.18049910261826
 40
2.5
 41
1
 50
0
  1
水切り鉄板
  0
TEXT
  8
_1-1_
 62
    7
 10
395.69760296795823
 20
15.701242910849089
 40
2.5
 41
1
 50
0
  1
29
  0
TEXT
  8
_1-1_
 62
    7
 10
25.556194717819636
 20
20.211577544341225
 40
2.5
 41
1
 50
0
  1
鉄骨
  0
TEXT
  8
_1-1_
 62
    7
 10
196.14609589447849
 20
39.513875600453972
 40
2.5
 41
1
 50
0
  1
Ｃ－100ｘ50ｘ20ｘ2.3
  0
TEXT
  8
_1-4_
 62
    7
 10
205.99399875950169
 20
204.46400410420188
 40
2.5
 41
1
 50
0
  1
のし瓦
  0
TEXT
  8
_1-4_
 62
    7
 10
275.98648483688771
 20
198.7424778293919
 40
2.5
 41
1
 50
90
  1
150
  0
TEXT
  8
_1-4_
 62
    7
 10
184.09485688080659
 20
195.06621489653716
 40
2.5
 41
1
 50
0
  1
面戸漆喰及び葺き土
  0
TEXT
  8
_1-4_
 62
    7
 10
196.14608764648437
 20
51.513878074852201
 40
2.5
 41
1
 50
0
  1
ゴムアス系ルーフィング
  0
TEXT
  8
_1-4_
 62
    7
 10
196.14609589447849
 20
45.513870651657527
 40
2.5
 41
1
 50
0
  1
硬質木片セメント板　ｔ＝18
  0
POINT
  8
_1-4_
 62
    7
 10
276.48648648648651
 20
185.6174778293919
  0
POINT
  8
_1-4_
 62
    7
 10
276.48648648648651
 20
215.6174778293919
  0
POINT
  8
_1-f_
 62
    7
 10
276.48648648648651
 20
215.6174778293919
  0
POINT
  8
_1-f_
 62
    7
 10
276.48648648648651
 20
225.6174778293919
  0
LINE
  8
_1-f_
  6
CONTINUOUS
 62
    7
 10
276.48648648648651
 20
215.6174778293919
 11
263.64683408994932
 21
215.6174778293919
  0
LINE
  8
_1-f_
  6
CONTINUOUS
 62
    7
 10
276.48648648648651
 20
225.6174778293919
 11
263.64683408994932
 21
225.6174778293919
  0
LINE
  8
_1-f_
  6
CONTINUOUS
 62
    7
 10
276.48648648648651
 20
215.6174778293919
 11
276.48648648648651
 21
225.6174778293919
  0
TEXT
  8
_1-f_
 62
    7
 10
275.98648648648651
 20
219.3674778293919
 40
2.5
 41
1
 50
90
  1
50
  0
POINT
  8
_1-f_
 62
    7
 10
293.00253590041234
 20
152.63441755964951
  0
POINT
  8
_1-f_
 62
    7
 10
293.00253590041234
 20
225.6174778293919
  0
LINE
  8
_1-f_
  6
CONTINUOUS
 62
    7
 10
293.00253590041234
 20
152.63441755964951
 11
263.64683408994932
 21
152.63441755964951
  0
LINE
  8
_1-f_
  6
CONTINUOUS
 62
    7
 10
293.00253590041234
 20
225.6174778293919
 11
263.64683408994932
 21
225.6174778293919
  0
LINE
  8
_1-f_
  6
CONTINUOUS
 62
    7
 10
293.00253590041234
 20
152.63441755964951
 11
293.00253590041234
 21
225.6174778293919
  0
TEXT
  8
_1-f_
 62
    7
 10
292.50253590041234
 20
184.1259476945207
 40
2.5
 41
1
 50
90
  1
300 以上
  0
TEXT
  8
_1-4_
 62
    7
 10
294.46163821775201
 20
184.46771338549226
 40
2.5
 41
1
 50
0
  1
下葺き材立上がり寸法
  0
TEXT
  8
_1-f_
 62
    7
 10
281.70088886038491
 20
261.30873849749298
 40
3
 41
1
 50
0
  1
下葺き材立上げ長さは、300ｍｍ以上かつ
  0
TEXT
  8
_1-f_
 62
    7
 10
282.0875119336535
 20
255.66164212133162
 40
3
 41
1
 50
0
  1
雨押え板上端より50mm以上とする
  0
LINE
  8
_1-f_
  6
CONTINUOUS
 62
    7
 10
276.45185090849691
 20
219.46491980919211
 11
283.43608305569109
 21
245.53042903437648
  0
LINE
  8
_1-f_
  6
CONTINUOUS
 62
    7
 10
284.71035020260143
 20
232.41469179745178
 11
286.98234501011905
 21
232.41469179745178
  0
LINE
  8
_1-f_
  6
CONTINUOUS
 62
    7
 10
283.43608305569109
 20
245.53042903437648
 11
285.2774078698564
 21
245.53042903437648
  0
TEXT
  8
_1-f_
 62
    7
 10
286.98234501011905
 20
240.72648885246718
 40
2.5
 41
1
 50
0
  1
50ｍｍ以上
  0
TEXT
  8
_1-4_
 62
    7
 10
287.88495879025805
 20
231.19889895099959
 40
2.5
 41
1
 50
0
  1
水切り鉄板立上がり寸法
  0
LINE
  8
_1-f_
  6
CONTINUOUS
 62
    7
 10
276.48648648648651
 20
201.72281457438865
 11
284.71035020260143
 21
232.41469179745178
  0
TEXT
  8
_1-f_
 62
    7
 10
286.58118333005723
 20
244.44682738973592
 40
2.5
 41
1
 50
0
  1
水切鉄板上端より
  0
LINE
  8
_1-1_
  6
CONTINUOUS
 62
    7
 10
254.19552364864867
 20
125.43442184860642
 11
254.19552364864867
 21
261.33685962573901
  0
TEXT
  8
_1-3_
 62
    7
 10
195.44478395148386
 20
63.458136701966581
 40
2.5
 41
1
 50
0
  1
15×30　（樹脂桟木）
  0
TEXT
  8
_1-3_
 62
    7
 10
221.44822411898085
 20
63.349654347579317
 40
2.5
 41
1
 50
0
  1
※　地域により瓦桟木の大きさは、異なります
  0
LINE
  8
_1-0_
  6
CONTINUOUS
 62
    7
 10
103.5561991784503
 20
86.260218640496163
 11
102.07888446138949
 21
89.543138859298949
  0
LINE
  8
_1-0_
  6
CONTINUOUS
 62
    7
 10
102.07888446138949
 20
89.543138859298949
 11
106.45610729579616
 21
91.512883567385941
  0
LINE
  8
_1-0_
  6
CONTINUOUS
 62
    7
 10
106.45610729579616
 20
91.512883567385941
 11
107.93342201285697
 21
88.229963348583155
  0
LINE
  8
_1-0_
  6
CONTINUOUS
 62
    7
 10
107.93342201285697
 20
88.229963348583155
 11
103.5561991784503
 21
86.260218640496163
  0
LINE
  8
_1-0_
  6
CONTINUOUS
 62
    7
 10
102.07888446138949
 20
89.543138859298949
 11
107.93342201285697
 21
88.229963348583155
  0
LINE
  8
_1-0_
  6
CONTINUOUS
 62
    7
 10
153.87601927320327
 20
112.85184643161736
 11
155.35333399026408
 21
109.56892621281457
  0
LINE
  8
_1-0_
  6
CONTINUOUS
 62
    7
 10
155.35333399026408
 20
109.56892621281457
 11
150.97609878386626
 21
107.59918150472758
  0
LINE
  8
_1-0_
  6
CONTINUOUS
 62
    7
 10
201.29593125061035
 20
134.19080929584879
 11
202.77324596767116
 21
130.90788907704601
  0
LINE
  8
_1-0_
  6
CONTINUOUS
 62
    7
 10
202.77324596767116
 20
130.90788907704601
 11
198.39601076127337
 21
128.938144368959
  0
LINE
  8
_1-2_
  6
CONTINUOUS
 62
    3
 10
107.55466587634936
 20
89.271672629885941
 11
109.37421461209684
 21
89.883492335333585
  0
LINE
  8
ADD_LINE
  6
DOT
 62
    7
 10
105.89439415443212
 20
94.515936974797256
 11
105.72170590221506
 21
95.090863402690005
  0
LINE
  8
_1-2_
  6
CONTINUOUS
 62
    3
 10
105.72170590221506
 20
95.090863402690005
 11
105.89439415443212
 21
94.515936974797256
  0
LINE
  8
_1-2_
  6
CONTINUOUS
 62
    3
 10
106.75790964746423
 20
91.641230603386788
 11
107.55723925050478
 21
89.264014367375381
  0
LINE
  8
_1-2_
  6
CONTINUOUS
 62
    3
 10
105.72170590221506
 20
95.090863402690005
 11
107.61840637466017
 21
95.728639545532062
  0
LINE
  8
_1-2_
  6
CONTINUOUS
 62
    3
 10
109.37421461209684
 20
89.883492335333585
 11
107.61840637466017
 21
95.728639545532062
  0
LINE
  8
_1-0_
  6
CONTINUOUS
 62
    7
 10
153.87601927320327
 20
112.85183405962623
 11
155.35333399026408
 21
109.56891384082344
  0
LINE
  8
_1-0_
  6
CONTINUOUS
 62
    7
 10
155.35333399026408
 20
109.56891384082344
 11
150.97609878386626
 21
107.59916913273645
  0
LINE
  8
_1-2_
  6
CONTINUOUS
 62
    3
 10
154.96549681226577
 20
110.60729505651179
 11
156.77965135987978
 21
111.23496328259921
  0
LINE
  8
ADD_LINE
  6
DOT
 62
    7
 10
153.25954769909009
 20
115.83687384794972
 11
153.08181167449126
 21
116.41026614894211
  0
LINE
  8
_1-2_
  6
CONTINUOUS
 62
    3
 10
153.08181167449126
 20
116.41026614894211
 11
153.25954769909009
 21
115.83687384794972
  0
LINE
  8
_1-2_
  6
CONTINUOUS
 62
    3
 10
154.14810410217285
 20
112.96980099506753
 11
154.96814441836796
 21
110.59964916599236
  0
LINE
  8
_1-2_
  6
CONTINUOUS
 62
    3
 10
98.504579107451548
 20
92.868952771355538
 11
99.260965529273761
 21
93.130669871756723
  0
LINE
  8
_1-2_
  6
CONTINUOUS
 62
    3
 10
100.4232646081378
 20
94.381540035132986
 11
154.14810410217285
 21
112.96980099506753
  0
LINE
  8
_1-2_
  6
CONTINUOUS
 62
    3
 10
99.398480210703241
 20
92.687035013754183
 11
99.260965529273761
 21
93.130669871756723
  0
LINE
  8
_1-2_
  6
CONTINUOUS
 62
    3
 10
98.645929106131888
 20
92.412859318283324
 11
98.504579107451548
 21
92.868952771355538
  0
LINE
  8
_1-2_
  6
CONTINUOUS
 62
    3
 10
100.12767299601785
 20
92.720798177552751
 11
99.654926842882304
 21
92.557215710808663
  0
LINE
  8
_1-2_
  6
CONTINUOUS
 62
    3
 10
100.25331056596085
 20
92.969005063638051
 11
100.04632715432655
 21
93.636894632894808
  0
LINE
  8
_1-2_
  6
CONTINUOUS
 62
    3
 10
98.047508267079934
 20
92.001069965453937
 11
98.520279164197746
 21
92.164652432198025
  0
LINE
  8
_1-2_
  6
CONTINUOUS
 62
    3
 10
153.25954769909009
 20
115.83687384794972
 11
96.52744832065892
 21
96.208116061843299
  0
LINE
  8
_1-2_
  6
CONTINUOUS
 62
    3
 10
97.791074006892018
 20
92.130876896408324
 11
96.52744832065892
 21
96.208116061843299
  0
LINE
  8
_1-2_
  6
CONTINUOUS
 62
    3
 10
156.77965135987978
 20
111.23496328259921
 11
154.97289526296254
 21
117.0645712719362
  0
LINE
  8
_1-2_
  6
CONTINUOUS
 62
    7
 10
96.52744832065892
 20
96.208116061843299
 11
91.819039655646236
 21
109.81658873129008
  0
LINE
  8
_1-0_
  6
CONTINUOUS
 62
    7
 10
150.97609878386626
 20
107.59918150472758
 11
149.51593164651408
 21
110.84403310681796
  0
LINE
  8
_1-0_
  6
CONTINUOUS
 62
    7
 10
150.97609878386626
 20
107.59916913273645
 11
149.51590690253181
 21
110.84402073482683
  0
LINE
  8
_1-0_
  6
CONTINUOUS
 62
    7
 10
149.51593164651408
 20
110.84403310681796
 11
155.35333399026408
 21
109.56892621281457
  0
LINE
  8
_1-2_
  6
CONTINUOUS
 62
    7
 10
107.61840637466017
 20
95.728639545532062
 11
107.27434130128603
 21
96.751939304030799
  0
LINE
  8
_1-0_
  6
CONTINUOUS
 62
    7
 10
105.72170590221506
 20
95.090863402690005
 11
105.4158950254203
 21
96.108942180931138
  0
LINE
  8
_1-0_
  6
CONTINUOUS
 62
    7
 10
201.29593125061035
 20
134.19080929584879
 11
202.77324596767116
 21
130.90788907704601
  0
LINE
  8
_1-0_
  6
CONTINUOUS
 62
    7
 10
202.77324596767116
 20
130.90788907704601
 11
198.39601076127337
 21
128.938144368959
  0
LINE
  8
_1-0_
  6
CONTINUOUS
 62
    7
 10
201.29593125061035
 20
134.19079692385765
 11
202.77324596767116
 21
130.90787670505486
  0
LINE
  8
_1-0_
  6
CONTINUOUS
 62
    7
 10
202.77324596767116
 20
130.90787670505486
 11
198.39601076127337
 21
128.93813199696785
  0
LINE
  8
_1-2_
  6
CONTINUOUS
 62
    3
 10
202.38540878967285
 20
131.94625792074322
 11
204.19956333728689
 21
132.57392614683062
  0
LINE
  8
_1-2_
  6
CONTINUOUS
 62
    3
 10
200.50172365189837
 20
137.74922901317353
 11
200.67945967649717
 21
137.17583671218114
  0
LINE
  8
_1-2_
  6
CONTINUOUS
 62
    3
 10
201.56801607957996
 20
134.30876385929895
 11
202.38805639577504
 21
131.93861203022379
  0
LINE
  8
_1-2_
  6
CONTINUOUS
 62
    3
 10
145.92449108485866
 20
114.20791563558696
 11
146.68088987867202
 21
114.46963273598814
  0
LINE
  8
_1-2_
  6
CONTINUOUS
 62
    3
 10
147.84316421355376
 20
115.7205028993644
 11
201.56801607957996
 21
134.30876385929895
  0
LINE
  8
_1-2_
  6
CONTINUOUS
 62
    3
 10
146.81839218811035
 20
114.0259978779856
 11
146.68088987867202
 21
114.46963273598814
  0
LINE
  8
_1-2_
  6
CONTINUOUS
 62
    3
 10
146.06585345553012
 20
113.75182218251474
 11
145.92449108485866
 21
114.20791563558696
  0
LINE
  8
_1-2_
  6
CONTINUOUS
 62
    3
 10
147.54757260143384
 20
114.05976104178417
 11
147.07483882028941
 21
113.89617857504008
  0
LINE
  8
_1-2_
  6
CONTINUOUS
 62
    3
 10
147.67322254336796
 20
114.30796792786947
 11
147.46623913173366
 21
114.97585749712623
  0
LINE
  8
_1-2_
  6
CONTINUOUS
 62
    3
 10
145.46742024448704
 20
113.34003282968536
 11
145.940203513596
 21
113.50361529642944
  0
LINE
  8
_1-2_
  6
CONTINUOUS
 62
    3
 10
145.21099835629025
 20
113.46983976063974
 11
143.94737267005715
 21
117.54707892607472
  0
LINE
  8
_1-2_
  6
CONTINUOUS
 62
    3
 10
204.19956333728689
 20
132.57392614683062
 11
202.39280724036965
 21
138.40353413616762
  0
LINE
  8
_1-2_
  6
CONTINUOUS
 62
    7
 10
143.94737267005715
 20
117.54707892607472
 11
139.2389392610622
 21
131.1555515955215
  0
LINE
  8
_1-0_
  6
CONTINUOUS
 62
    7
 10
198.39601076127337
 20
128.938144368959
 11
196.93584362392116
 21
132.18299597104937
  0
LINE
  8
_1-0_
  6
CONTINUOUS
 62
    7
 10
198.39601076127337
 20
128.93813199696785
 11
196.93581887993889
 21
132.18298359905825
  0
LINE
  8
_1-0_
  6
CONTINUOUS
 62
    7
 10
196.93581887993889
 20
132.18298359905825
 11
201.267351951096
 21
134.17778158918705
  0
LINE
  8
_1-0_
  6
CONTINUOUS
 62
    7
 10
196.93584362392116
 20
132.18299597104937
 11
202.77324596767116
 21
130.90788907704601
  0
LINE
  8
_1-0_
  6
CONTINUOUS
 62
    7
 10
248.71586797199973
 20
155.52978453207135
 11
250.19318268906054
 21
152.24685194127741
  0
LINE
  8
_1-0_
  6
CONTINUOUS
 62
    7
 10
250.19318268906054
 20
152.24685194127741
 11
245.81594748266272
 21
150.27710723319043
  0
LINE
  8
_1-0_
  6
CONTINUOUS
 62
    7
 10
248.71586797199973
 20
155.52975978808908
 11
250.19318268906054
 21
152.24685194127741
  0
LINE
  8
ADD_LINE
  6
DOT
 62
    7
 10
251.61950005867624
 20
153.91288901106205
 11
248.17887406891694
 21
165.01444986146322
  0
LINE
  8
_1-2_
  6
CONTINUOUS
 62
    3
 10
249.80534551106223
 20
153.28520841298351
 11
251.61950005867624
 21
153.91288901106205
  0
LINE
  8
ADD_LINE
  6
DOT
 62
    7
 10
248.09939639788655
 20
158.51479957641254
 11
247.92166037328772
 21
159.08819187740494
  0
LINE
  8
_1-2_
  6
CONTINUOUS
 62
    3
 10
247.92166037328772
 20
159.08819187740494
 11
248.09939639788655
 21
158.51479957641254
  0
LINE
  8
_1-2_
  6
CONTINUOUS
 62
    3
 10
248.98795280096931
 20
155.64771435153924
 11
249.80799311716441
 21
153.27758726644635
  0
LINE
  8
_1-2_
  6
CONTINUOUS
 62
    3
 10
193.34442780624804
 20
135.54687849981838
 11
194.1008018560791
 21
135.80859560021958
  0
LINE
  8
_1-2_
  6
CONTINUOUS
 62
    3
 10
195.26312567892538
 20
137.05946576359582
 11
248.98795280096931
 21
155.64771435153924
  0
LINE
  8
_1-2_
  6
CONTINUOUS
 62
    3
 10
194.23832890949973
 20
135.36496074221702
 11
194.1008018560791
 21
135.80859560021958
  0
LINE
  8
_1-2_
  6
CONTINUOUS
 62
    3
 10
193.48576543293723
 20
135.09078504674616
 11
193.34442780624804
 21
135.54687849981838
  0
LINE
  8
_1-2_
  6
CONTINUOUS
 62
    3
 10
194.96753406680546
 20
135.39872390601559
 11
194.49477554167876
 21
135.2351414392715
  0
LINE
  8
_1-2_
  6
CONTINUOUS
 62
    3
 10
195.0931592647573
 20
135.6469307921009
 11
194.88617585312304
 21
136.31482036135765
  0
LINE
  8
_1-2_
  6
CONTINUOUS
 62
    3
 10
192.88735696587639
 20
134.67899569391676
 11
193.36011549100309
 21
134.84257816066085
  0
LINE
  8
_1-2_
  6
CONTINUOUS
 62
    3
 10
248.09939639788655
 20
158.51479957641254
 11
191.36728464746423
 21
138.88604179030614
  0
LINE
  8
_1-2_
  6
CONTINUOUS
 62
    3
 10
192.63091033369736
 20
134.80880262487116
 11
191.36728464746423
 21
138.88604179030614
  0
LINE
  8
_1-2_
  6
CONTINUOUS
 62
    3
 10
247.92166037328772
 20
159.08819187740494
 11
249.812743961759
 21
159.74249700039903
  0
LINE
  8
_1-2_
  6
CONTINUOUS
 62
    3
 10
251.61950005867624
 20
153.91288901106205
 11
249.812743961759
 21
159.74249700039903
  0
LINE
  8
_1-2_
  6
CONTINUOUS
 62
    7
 10
191.36728464746423
 20
138.88604179030614
 11
186.65890072643384
 21
152.49451445975293
  0
LINE
  8
_1-2_
  6
CONTINUOUS
 62
    7
 10
245.30050558813147
 20
172.78396131627741
 11
186.65890072643384
 21
152.49451445975293
  0
LINE
  8
_1-2_
  6
CONTINUOUS
 62
    7
 10
249.812743961759
 20
159.74249700039903
 11
245.30050558813147
 21
172.78396131627741
  0
LINE
  8
_1-0_
  6
CONTINUOUS
 62
    7
 10
245.81594748266272
 20
150.27710723319043
 11
244.35578034531054
 21
153.5219588352808
  0
LINE
  8
_1-0_
  6
CONTINUOUS
 62
    7
 10
245.81594748266272
 20
150.27708248920817
 11
244.35575560132827
 21
153.5219588352808
  0
LINE
  8
_1-0_
  6
CONTINUOUS
 62
    7
 10
244.35578034531054
 20
153.5219588352808
 11
250.19318268906054
 21
152.24685194127741
  0
LINE
  8
_1-2_
  6
CONTINUOUS
 62
    7
 10
140.76297061663652
 20
126.75072684889989
 11
91.819039655646236
 21
109.81658873129008
  0
LINE
  8
_1-2_
  6
CONTINUOUS
 62
    7
 10
154.97289526296254
 20
117.0645712719362
 11
154.62595988764582
 21
118.06727166520055
  0
LINE
  8
_1-2_
  6
CONTINUOUS
 62
    3
 10
153.08181167449126
 20
116.41026614894211
 11
154.9729200069448
 21
117.0645712719362
  0
LINE
  8
ADD_LINE
  6
DOT
 62
    7
 10
156.77965135987978
 20
111.23496328259921
 11
154.9729200069448
 21
117.0645712719362
  0
LINE
  8
_1-2_
  6
CONTINUOUS
 62
    7
 10
153.08181167449126
 20
116.41026614894211
 11
152.76753835576238
 21
117.42428691409202
  0
LINE
  8
ADD_LINE
  6
DOT
 62
    7
 10
204.19956333728689
 20
132.57392614683062
 11
202.39283198435191
 21
138.40353413616762
  0
LINE
  8
_1-2_
  6
CONTINUOUS
 62
    3
 10
200.50172365189837
 20
137.74922901317353
 11
202.39283198435191
 21
138.40353413616762
  0
LINE
  8
_1-2_
  6
CONTINUOUS
 62
    7
 10
188.1829073380259
 20
148.08968971313129
 11
139.2389392610622
 21
131.1555515955215
  0
LINE
  8
_1-2_
  6
CONTINUOUS
 62
    7
 10
202.39280724036965
 20
138.40353413616762
 11
202.04587186505293
 21
139.40623452943197
  0
LINE
  8
_1-0_
  6
CONTINUOUS
 62
    7
 10
244.35575560132827
 20
153.5219588352808
 11
248.71579374005293
 21
155.52988350800038
  0
LINE
  8
_1-0_
  6
CONTINUOUS
 62
    7
 10
248.71579374005293
 20
155.52988350800038
 11
250.19315794507827
 21
152.24685194127741
  0
LINE
  8
_1-0_
  6
CONTINUOUS
 62
    7
 10
250.19315794507827
 20
152.24685194127741
 11
245.83814283475309
 21
150.28710380202489
  0
LINE
  8
_1-0_
  6
CONTINUOUS
 62
    7
 10
245.83814283475309
 20
150.28710380202489
 11
245.81592273868046
 21
150.27710723319043
  0
LINE
  8
_1-0_
  6
CONTINUOUS
 62
    7
 10
149.51590690253181
 20
110.84402073482683
 11
153.875994529221
 21
112.85195777953756
  0
LINE
  8
_1-0_
  6
CONTINUOUS
 62
    7
 10
76.051716393663554
 20
73.883198294344353
 11
245.84086467280207
 21
150.2883162571558
  0
LINE
  8
_1-2_
  6
CONTINUOUS
 62
    3
 10
76.051716393663554
 20
81.316333868272764
 11
106.75790964746423
 21
91.641230603386788
  0
LINE
  8
_1-2_
  6
CONTINUOUS
 62
    3
 10
105.89439415443212
 20
94.515936974797256
 11
76.051716393663554
 21
84.481398499554444
  0
LINE
  8
_1-2_
  6
CONTINUOUS
 62
    7
 10
93.453144616319804
 20
105.52484398361271
 11
76.051716393663554
 21
99.673646869750812
  0
LINE
  8
_1-2_
  6
CONTINUOUS
 62
    3
 10
200.67945967649717
 20
137.17583671218114
 11
143.94737267005715
 21
117.54707892607472
  0
LINE
  8
ADD_LINE
  6
DOT
 62
    7
 10
200.67945967649717
 20
137.17583671218114
 11
200.50172365189837
 21
137.74922901317353
  0
ARC
  8
_1-2_
  6
CONTINUOUS
 62
    3
 10
100.61943489952293
 20
93.814519309573441
 40
0.599999959404404
 50
109.0858917236328
 51
197.21983337402344
  0
ARC
  8
_1-2_
  6
CONTINUOUS
 62
    3
 10
99.589540869750977
 20
92.746222619328506
 40
0.1999999904954755
 50
197.21757507324216
 51
289.0885009765625
  0
ARC
  8
_1-2_
  6
CONTINUOUS
 62
    3
 10
98.454868447084152
 20
92.353646968726736
 40
0.1999999904954755
 50
289.08401489257812
 51
17.217575073242223
  0
ARC
  8
_1-2_
  6
CONTINUOUS
 62
    3
 10
100.06226227890426
 20
92.909792714081462
 40
0.1999999904954755
 50
289.0885009765625
 51
17.219955444335916
  0
ARC
  8
_1-2_
  6
CONTINUOUS
 62
    3
 10
97.982109921957459
 20
92.190089245964913
 40
0.1999999904954755
 50
197.216552734375
 51
289.08514404296875
  0
ARC
  8
_1-2_
  6
CONTINUOUS
 62
    3
 10
148.03933450493889
 20
115.15348217380486
 40
0.599999959404404
 50
109.0858917236328
 51
197.21983337402344
  0
ARC
  8
_1-2_
  6
CONTINUOUS
 62
    3
 10
147.00944047516694
 20
114.08518548355993
 40
0.1999999904954755
 50
197.21757507324216
 51
289.0885009765625
  0
ARC
  8
_1-2_
  6
CONTINUOUS
 62
    3
 10
145.87478042449126
 20
113.69260983295815
 40
0.1999999904954755
 50
289.08401489257812
 51
17.217575073242223
  0
ARC
  8
_1-2_
  6
CONTINUOUS
 62
    3
 10
147.48217425631137
 20
114.24875557831288
 40
0.1999999904954755
 50
289.0885009765625
 51
17.219955444335916
  0
ARC
  8
_1-2_
  6
CONTINUOUS
 62
    3
 10
145.40202189936457
 20
113.52905211019633
 40
0.1999999904954755
 50
197.216552734375
 51
289.08514404296875
  0
ARC
  8
_1-2_
  6
CONTINUOUS
 62
    3
 10
195.45929597031054
 20
136.49244503803629
 40
0.599999959404404
 50
109.0858917236328
 51
197.21983337402344
  0
ARC
  8
_1-2_
  6
CONTINUOUS
 62
    3
 10
194.42940194053855
 20
135.42414834779134
 40
0.1999999904954755
 50
197.21757507324216
 51
289.0885009765625
  0
ARC
  8
_1-2_
  6
CONTINUOUS
 62
    3
 10
193.29471714588064
 20
135.03157269718957
 40
0.1999999904954755
 50
289.08401489257812
 51
17.217575073242223
  0
ARC
  8
_1-2_
  6
CONTINUOUS
 62
    3
 10
194.90211097770072
 20
135.58771844254431
 40
0.1999999904954755
 50
289.0885009765625
 51
17.219955444335916
  0
ARC
  8
_1-2_
  6
CONTINUOUS
 62
    3
 10
192.82195862075395
 20
134.86801497442775
 40
0.1999999904954755
 50
197.216552734375
 51
289.08514404296875
  0
LINE
  8
_1-0_
  6
CONTINUOUS
 62
    7
 10
245.84086467280207
 20
150.2883162571558
 11
251.76964718274189
 21
152.95626407961075
  0
LINE
  8
_1-0_
  6
CONTINUOUS
 62
    7
 10
251.76964718274189
 20
152.95626407961075
 11
252.01585878386456
 21
152.40912719721047
  0
LINE
  8
_1-0_
  6
CONTINUOUS
 62
    7
 10
76.051716393663554
 20
73.225255805957516
 11
252.01585878386456
 21
152.40912719721047
  0
LINE
  8
_1-0_
  6
DASHED1
 62
    3
 10
76.051716393663554
 20
72.627385520510941
 11
253.84514885979732
 21
152.63440833744477
  0
LINE
  8
_1-1_
  6
DASHED1
 62
    3
 10
253.84514885979732
 20
152.63440833744477
 11
253.84514885979732
 21
225.6174778293919
  0
ARC
  8
_1-1_
  6
CONTINUOUS
 62
    7
 10
242.02771985853042
 20
167.56630974846919
 40
0.0608883012790937
 50
290.8733902674436
 51
294.10388853925207
  0
ARC
  8
_1-1_
  6
CONTINUOUS
 62
    7
 10
241.65829220333617
 20
168.71699152766047
 40
0.0608883012790937
 50
296.27577702817393
 51
304.34612550874579
  0
ARC
  8
_1-1_
  6
CONTINUOUS
 62
    7
 10
242.77773470491977
 20
166.76376342773437
 40
0.0608883012790937
 50
279.42254453766373
 51
283.44241116843733
  0
LINE
  8
_1-1_
  6
CONTINUOUS
 62
    7
 10
76.051716393663554
 20
46.249264085299544
 11
254.19552364864867
 21
126.413949502481
  0
LINE
  8
_1-0_
  6
CONTINUOUS
 62
    7
 10
76.051716393663554
 20
72.128670557989835
 11
254.19552364864867
 21
152.29337413662466
  0
LINE
  8
_1-1_
  6
CONTINUOUS
 62
    7
 10
76.051716393663554
 20
68.180975362826757
 11
254.19552364864867
 21
148.34566683382602
  0
LINE
  8
_1-1_
  6
CONTINUOUS
 62
    7
 10
76.051716393663554
 20
50.635608104079196
 11
254.19552364864867
 21
130.80029049435177
  0
LINE
  8
_1-1_
  6
DASHED1
 62
    7
 10
76.051716393663554
 20
46.753693394083285
 11
254.00675180796031
 21
126.83343423379435
  0
LINE
  8
_1-1_
  6
CONTINUOUS
 62
    7
 10
76.051716393663554
 20
69.263495601460207
 11
81.261130668021536
 21
74.472909875818203
  0
LINE
  8
_1-1_
  6
CONTINUOUS
 62
    7
 10
76.051716393663554
 20
63.794631455571462
 11
254.19552364864867
 21
143.95932584195523
  0
LINE
  8
_1-1_
  6
DASHED1
 62
    7
 10
76.051716393663554
 20
67.676546053401523
 11
254.19552364864867
 21
147.84123480018363
  0
LINE
  8
_1-1_
  6
CONTINUOUS
 62
    7
 10
76.051716364498503
 20
63.794631520382808
 11
76.156205873231613
 21
63.841651710304063
  0
LINE
  8
_1-1_
  6
CONTINUOUS
 62
    7
 10
76.051716393663554
 20
71.526235162793256
 11
77.147060084987345
 21
72.621577494853256
  0
LINE
  8
_1-1_
  6
CONTINUOUS
 62
    7
 10
76.051716393663554
 20
71.026512453588794
 11
78.014151083456511
 21
69.064073304872252
  0
LINE
  8
_1-1_
  6
CONTINUOUS
 62
    7
 10
78.412618313098392
 20
73.191076293367587
 11
81.13516524031354
 21
70.468523180162592
  0
LINE
  8
_1-1_
  6
CONTINUOUS
 62
    7
 10
76.051716393663554
 20
73.289225820174792
 11
76.095833712714125
 21
73.245108601364436
  0
LINE
  8
_1-1_
  6
CONTINUOUS
 62
    7
 10
76.852100617304501
 20
72.488843415109457
 11
79.574655068887239
 21
69.766295149519635
  0
LINE
  8
_1-1_
  6
CONTINUOUS
 62
    7
 10
78.197566758967014
 20
69.146607764694423
 11
85.375201251055742
 21
76.324242256783151
  0
ENDSEC
  0
EOF
