  0
SECTION
  2
HEADER
  9
$ACADVER
  1
AC1009
  9
$INSBASE
 10
0
 20
0
 30
0
  9
$EXTMIN
 10
0
 20
0
  9
$EXTMAX
 10
2100
 20
1485
  9
$LIMMIN
 10
0
 20
0
  9
$LIMMAX
 10
2100
 20
1485
  9
$LTSCALE
 40
5
  0
ENDSEC
  0
SECTION
  2
TABLES
  0
TABLE
  2
LTYPE
 70
     9
  0
LTYPE
  2
CONTINUOUS
 70
    64
  3
実線
 72
    65
 73
     0
 40
0.0
  0
LTYPE
  2
DASHED1
 70
    64
  3
--  --  --  --  --  --  --  --  
 72
    65
 73
     2
 40
2.5
 49
1.25
 49
-1.25
  0
LTYPE
  2
DASHED2
 70
    64
  3
----    ----    ----    ----    
 72
    65
 73
     2
 40
5.0
 49
2.5
 49
-2.5
  0
LTYPE
  2
DASHED3
 70
    64
  3
------  ------  ------  ------  
 72
    65
 73
     2
 40
5.0
 49
3.75
 49
-1.25
  0
LTYPE
  2
CENTER1
 70
    64
  3
----- - ----- - ----- - ----- - 
 72
    65
 73
     4
 40
10.0
 49
6.25
 49
-1.25
 49
1.25
 49
-1.25
  0
LTYPE
  2
CENTER2
 70
    64
  3
----------  --  ----------  --  
 72
    65
 73
     4
 40
20.0
 49
12.5
 49
-2.5
 49
2.5
 49
-2.5
  0
LTYPE
  2
PHANTOM1
 70
    64
  3
--- - - --- - - --- - - --- - - 
 72
    65
 73
     6
 40
10.0
 49
3.25
 49
-1.25
 49
1.25
 49
-1.25
 49
1.25
 49
-1.25
  0
LTYPE
  2
PHANTOM2
 70
    64
  3
--------  -  -  --------  -  -  
 72
    65
 73
     6
 40
20.0
 49
10.0
 49
-2.5
 49
1.25
 49
-2.5
 49
1.25
 49
-2.5
  0
LTYPE
  2
DOT
 70
    64
  3
-   -   -   -   -   -   -   -   
 72
    65
 73
     2
 40
2.5
 49
0.625
 49
-1.875
  0
LTYPE
  2
DUMMY
 70
    64
  3
ダミー
 72
    65
 73
     0
 40
0.0
  0
LTYPE
  2
RAND1
 70
    64
  3
ランダム線1
 72
    65
 73
     4
 40
10.0
 49
1.0
 49
-2.0
 49
3.0
 49
-4.0
  0
LTYPE
  2
RAND2
 70
    64
  3
ランダム線2
 72
    65
 73
     4
 40
14.0
 49
2.0
 49
-3.0
 49
4.0
 49
-5.0
  0
LTYPE
  2
RAND3
 70
    64
  3
ランダム線3
 72
    65
 73
     4
 40
18.0
 49
3.0
 49
-4.0
 49
5.0
 49
-6.0
  0
LTYPE
  2
RAND4
 70
    64
  3
ランダム線4
 72
    65
 73
     4
 40
22.0
 49
4.0
 49
-5.0
 49
6.0
 49
-7.0
  0
LTYPE
  2
RAND5
 70
    64
  3
ランダム線5
 72
    65
 73
     4
 40
26.0
 49
5.0
 49
-6.0
 49
7.0
 49
-8.0
  0
LTYPE
  2
LONG1
 70
    64
  3
----------  --  ----------  --  
 72
    65
 73
     4
 40
40.0
 49
32.5
 49
-2.5
 49
2.5
 49
-2.5
  0
LTYPE
  2
LONG2
 70
    64
  3
--------  -  -  --------  -  -  
 72
    65
 73
     6
 40
40.0
 49
30.0
 49
-2.5
 49
1.25
 49
-2.5
 49
1.25
 49
-2.5
  0
LTYPE
  2
LONG3
 70
    64
  3
+++++++++++++++..+++++++++++++++
 72
    65
 73
     2
 40
40.0
 49
37.5
 49
-2.5
  0
LTYPE
  2
LONG4
 70
    64
  3
+++++++++++++++..+++++++++++++++
 72
    65
 73
     2
 40
80.0
 49
75.0
 49
-5.0
  0
LTYPE
  2
LONG5
 70
    64
  3
----------  --  ----------  --  
 72
    65
 73
     4
 40
60.0
 49
37.5
 49
-7.5
 49
7.5
 49
-7.5
  0
LTYPE
  2
dashed
 70
   64
  3
-------   -------------   ------
 72
   65
 73
    2
 40
7.5
 49
6
 49
-1.5
  0
LTYPE
  2
dashed_spaced
 70
   64
  3
----        --------        ----
 72
   65
 73
    2
 40
12
 49
6
 49
-6
  0
LTYPE
  2
long_dashed_dotted
 70
   64
  3
------------- --- --------------
 72
   65
 73
    4
 40
15.25
 49
12
 49
-1.5
 49
0.25
 49
-1.5
  0
LTYPE
  2
long_dashed_double-dotted
 70
   64
  3
----------- --- --- ------------
 72
   65
 73
    6
 40
17
 49
12
 49
-1.5
 49
0.25
 49
-1.5
 49
0.25
 49
-1.5
  0
LTYPE
  2
long_dashed_triplicate-dotted
 70
   64
  3
--------- --- --- --- ----------
 72
   65
 73
    8
 40
18.75
 49
12
 49
-1.5
 49
0.25
 49
-1.5
 49
0.25
 49
-1.5
 49
0.25
 49
-1.5
  0
LTYPE
  2
dotted
 70
   64
  3
   -       -       -       -    
 72
   65
 73
    2
 40
1.75
 49
0.25
 49
-1.5
  0
LTYPE
  2
chain
 70
   64
  3
-------------- -- --------------
 72
   65
 73
    4
 40
18.5
 49
12
 49
-1.5
 49
3.5
 49
-1.5
  0
LTYPE
  2
chain_double_dash
 70
   64
  3
------------ -- -- -------------
 72
   65
 73
    6
 40
23.5
 49
12
 49
-1.5
 49
3.5
 49
-1.5
 49
3.5
 49
-1.5
  0
LTYPE
  2
dashed_dotted
 70
   64
  3
-----------     -     ----------
 72
   65
 73
    4
 40
9.25
 49
6
 49
-1.5
 49
0.25
 49
-1.5
  0
LTYPE
  2
double-dashed_dotted
 70
   64
  3
------   -----------   -   -----
 72
   65
 73
    6
 40
16.75
 49
6
 49
-1.5
 49
6
 49
-1.5
 49
0.25
 49
-1.5
  0
LTYPE
  2
dashed_double-dotted
 70
   64
  3
---------    -    -    ---------
 72
   65
 73
    6
 40
11
 49
6
 49
-1.5
 49
0.25
 49
-1.5
 49
0.25
 49
-1.5
  0
LTYPE
  2
double-dashed_double-dotted
 70
   64
  3
-----   ---------   -   -   ----
 72
   65
 73
    8
 40
18.5
 49
6
 49
-1.5
 49
6
 49
-1.5
 49
0.25
 49
-1.5
 49
0.25
 49
-1.5
  0
LTYPE
  2
dashed_triplicate-dotted
 70
   64
  3
-------    -    -    -    ------
 72
   65
 73
    8
 40
12.75
 49
6
 49
-1.5
 49
0.25
 49
-1.5
 49
0.25
 49
-1.5
 49
0.25
 49
-1.5
  0
LTYPE
  2
double-dashed_triplicate-dotted
 70
   64
  3
-----  ---------  -  -  -  -----
 72
   65
 73
   10
 40
20.25
 49
6
 49
-1.5
 49
6
 49
-1.5
 49
0.25
 49
-1.5
 49
0.25
 49
-1.5
 49
0.25
 49
-1.5
  0
LTYPE
  2
undefined
 70
   64
  3
--------------------------------
 72
   65
 73
    0
 40
0
  0
ENDTAB
  0
TABLE
  2
STYLE
  5
3
100
AcDbSymbolTable
 70
     1
  0
STYLE
  5
10
100
AcDbSymbolTableRecord
100
AcDbTextStyleTableRecord
  2
STANDARD
 70
     0
 40
0.0
 41
1.0
 50
0.0
 71
     0
 42
0.2
  3
txt
  4
bigfont.shx
  0
STYLE
  5
26
100
AcDbSymbolTableRecord
100
AcDbTextStyleTableRecord
  2
TATEGAKI
 70
    68
 40
0.0
 41
1.0
 50
0.0
 71
     0
 42
1.0
  3
txt
  4
bigfont.shx
  0
ENDTAB
  0
TABLE
  2
LAYER
 70
    9
  0
LAYER
  2
_0-0_
 70
   64
 62
    7
  6
CONTINUOUS
  0
LAYER
  2
_0-1_
 70
   64
 62
    7
  6
CONTINUOUS
  0
LAYER
  2
_0-2_
 70
   64
 62
    7
  6
CONTINUOUS
  0
LAYER
  2
_0-4_下地
 70
   64
 62
    7
  6
CONTINUOUS
  0
LAYER
  2
_0-5_
 70
   64
 62
    7
  6
CONTINUOUS
  0
LAYER
  2
_0-6_
 70
   64
 62
    7
  6
CONTINUOUS
  0
LAYER
  2
_0-7_
 70
   64
 62
    7
  6
CONTINUOUS
  0
LAYER
  2
_1-0_
 70
   64
 62
    7
  6
CONTINUOUS
  0
LAYER
  2
ADD_LINE
 70
   64
 62
    7
  6
CONTINUOUS
  0
ENDTAB
  0
ENDSEC
  0
SECTION
  2
BLOCKS
  0
ENDSEC
  0
SECTION
  2
ENTITIES
  0
LINE
  8
_1-0_
  6
CONTINUOUS
 62
    5
 10
41.891871271906638
 20
1425
 11
2041.8919743718329
 21
1425
  0
LINE
  8
_1-0_
  6
CONTINUOUS
 62
    5
 10
2041.8919743718329
 20
75
 11
41.891871271906638
 21
75
  0
LINE
  8
_1-0_
  6
CONTINUOUS
 62
    5
 10
2041.8919743718329
 20
174.99998969000742
 11
41.891809411951044
 21
174.99998969000742
  0
LINE
  8
_1-0_
  6
CONTINUOUS
 62
    5
 10
1866.8921393317146
 20
75
 11
1866.8921393317146
 21
174.99998969000742
  0
LINE
  8
_1-0_
  6
CONTINUOUS
 62
    5
 10
693.24330510319896
 20
174.99998969000742
 11
693.24330510319896
 21
75
  0
LINE
  8
_1-0_
  6
CONTINUOUS
 62
    5
 10
1082.4324324324325
 20
174.99998969000742
 11
1082.4324324324325
 21
75
  0
LINE
  8
_1-0_
  6
CONTINUOUS
 62
    5
 10
693.24330510319896
 20
124.99999484500371
 11
1082.4324324324325
 21
124.99999484500371
  0
LINE
  8
_1-0_
  6
CONTINUOUS
 62
    5
 10
1990.5406642604521
 20
154.05405405405403
 11
1927.7025789827915
 21
91.216223948710677
  0
LINE
  8
_0-2_
  6
CONTINUOUS
 62
    7
 10
696.96943953230573
 20
706.9976806640625
 11
668.57275060705228
 21
706.9976806640625
  0
LINE
  8
_0-5_
  6
CONTINUOUS
 62
    7
 10
650.71130701013522
 20
721.21340777422927
 11
670.71112555426521
 21
721.21340777422927
  0
LINE
  8
_0-5_
  6
CONTINUOUS
 62
    7
 10
794.65694942989876
 20
743.99772850242823
 11
794.65694942989876
 21
733.93719647381761
  0
LINE
  8
_0-5_
  6
CONTINUOUS
 62
    7
 10
794.65694942989876
 20
725.99771860483531
 11
794.65694942989876
 21
722.99769633525125
  0
LINE
  8
_0-5_
  6
CONTINUOUS
 62
    3
 10
790.71127401815886
 20
722.99769633525125
 11
674.0745750633447
 21
722.99769633525125
  0
LINE
  8
_0-5_
  6
CONTINUOUS
 62
    3
 10
790.71127401815886
 20
742.36839913033145
 11
768.31599055109803
 21
742.36839913033145
  0
LINE
  8
_0-5_
  6
CONTINUOUS
 62
    3
 10
790.71127401815886
 20
742.36839913033145
 11
790.71127401815886
 21
722.99769633525125
  0
LINE
  8
_0-5_
  6
CONTINUOUS
 62
    3
 10
768.31599055109803
 20
742.36839913033145
 11
772.07633353568417
 21
737.5955323915224
  0
LINE
  8
_0-6_
  6
CONTINUOUS
 62
    7
 10
692.83917401288011
 20
586.99771778003594
 11
692.83917401288011
 21
706.9976806640625
  0
LINE
  8
_0-6_
  6
CONTINUOUS
 62
    7
 10
692.83917401288011
 20
706.9976806640625
 11
647.83902554898646
 21
706.9976806640625
  0
LINE
  8
_0-6_
  6
CONTINUOUS
 62
    7
 10
647.83902554898646
 20
706.9976806640625
 11
647.83902554898646
 21
586.99771778003594
  0
LINE
  8
_0-6_
  6
CONTINUOUS
 62
    7
 10
647.83902554898646
 20
586.99771778003594
 11
692.83917401288011
 21
586.99771778003594
  0
LINE
  8
_0-6_
  6
CONTINUOUS
 62
    7
 10
692.83917401288011
 20
706.9976806640625
 11
647.83902554898646
 21
586.99771778003594
  0
LINE
  8
_0-7_
  6
CONTINUOUS
 62
    7
 10
607.17872413429052
 20
722.99769633525125
 11
542.04192290434969
 21
722.99769633525125
  0
LINE
  8
_0-7_
  6
CONTINUOUS
 62
    7
 10
790.71127401815886
 20
554.8187255859375
 11
674.0745750633447
 21
554.8187255859375
  0
LINE
  8
_0-7_
  6
CONTINUOUS
 62
    7
 10
790.71127401815886
 20
675.78296145877334
 11
790.71127401815886
 21
554.8187255859375
  0
LINE
  8
_0-7_
  6
CONTINUOUS
 62
    7
 10
674.0745750633447
 20
675.78296145877334
 11
674.0745750633447
 21
554.8187255859375
  0
LINE
  8
_0-7_
  6
CONTINUOUS
 62
    7
 10
757.20643739442562
 20
806.76189113307646
 11
714.59779481630062
 21
815.85060325828761
  0
LINE
  8
_0-7_
  6
CONTINUOUS
 62
    7
 10
739.18923042915958
 20
730.9901263262775
 11
832.7152973896749
 21
474.02922140585412
  0
LINE
  8
_0-4_下地
  6
CONTINUOUS
 62
    7
 10
815.83111737225511
 20
743.99772850242823
 11
855.89484137457771
 21
743.99772850242823
  0
LINE
  8
ADD_LINE
  6
DOT
 62
    7
 10
977.05548260663011
 20
794.51009389516469
 11
978.71524707691094
 21
794.51009389516469
  0
LINE
  8
ADD_LINE
  6
DOT
 62
    7
 10
1075.831109124261
 20
743.99772850242823
 11
1115.8948331265838
 21
743.99772850242823
  0
LINE
  8
ADD_LINE
  6
DOT
 62
    7
 10
1075.831109124261
 20
743.99772850242823
 11
1050.6111763619087
 21
743.99772850242823
  0
LINE
  8
ADD_LINE
  6
DOT
 62
    7
 10
1005.8219703468117
 20
776.27520174593542
 11
1003.8133157266154
 21
776.27520174593542
  0
LINE
  8
_0-4_下地
  6
CONTINUOUS
 62
    7
 10
1335.8311008762669
 20
743.99772850242823
 11
1375.8948248785896
 21
743.99772850242823
  0
LINE
  8
_0-4_下地
  6
CONTINUOUS
 62
    7
 10
1335.8311008762669
 20
743.99772850242823
 11
1310.6111681139148
 21
743.99772850242823
  0
LINE
  8
ADD_LINE
  6
DOT
 62
    7
 10
1542.7451056403083
 20
699.2745889199748
 11
1542.7451056403083
 21
697.98245816617396
  0
LINE
  8
ADD_LINE
  6
DOT
 62
    7
 10
1595.8310926282729
 20
743.99772850242823
 11
1635.8948166305956
 21
743.99772850242823
  0
LINE
  8
ADD_LINE
  6
DOT
 62
    7
 10
1595.8310926282729
 20
743.99772850242823
 11
1570.6110361460094
 21
743.99772850242823
  0
LINE
  8
_0-2_
  6
CONTINUOUS
 62
    7
 10
725.53110895930115
 20
706.9976806640625
 11
688.65694613070104
 21
706.9976806640625
  0
LINE
  8
_0-2_
  6
CONTINUOUS
 62
    7
 10
725.53110895930115
 20
718.99770788244291
 11
688.65694613070104
 21
718.99770788244291
  0
LINE
  8
_0-2_
  6
CONTINUOUS
 62
    7
 10
688.65694613070104
 20
706.9976806640625
 11
748.65689664273657
 21
706.9976806640625
  0
LINE
  8
_0-1_
  6
CONTINUOUS
 62
    7
 10
696.74507347313136
 20
706.9976806640625
 11
1730.758790712099
 21
706.9976806640625
  0
LINE
  8
_0-1_
  6
CONTINUOUS
 62
    7
 10
790.61118460990292
 20
722.99769633525125
 11
1730.758790712099
 21
722.99769633525125
  0
LINE
  8
_0-1_
  6
CONTINUOUS
 62
    7
 10
696.74507347313136
 20
718.99770788244291
 11
1730.758790712099
 21
718.99770788244291
  0
LINE
  8
_0-2_
  6
CONTINUOUS
 62
    7
 10
932.87089579814187
 20
646.99766829207135
 11
932.87089579814187
 21
706.9976806640625
  0
LINE
  8
_0-2_
  6
CONTINUOUS
 62
    7
 10
932.87089579814187
 20
706.9976806640625
 11
992.87084631017751
 21
706.9976806640625
  0
LINE
  8
_0-2_
  6
CONTINUOUS
 62
    7
 10
992.87084631017751
 20
706.9976806640625
 11
992.87084631017751
 21
646.99766829207135
  0
LINE
  8
_0-2_
  6
CONTINUOUS
 62
    7
 10
992.87084631017751
 20
646.99766829207135
 11
932.87089579814187
 21
646.99766829207135
  0
LINE
  8
_0-2_
  6
CONTINUOUS
 62
    7
 10
1235.8708562077704
 20
646.99766829207135
 11
1235.8708562077704
 21
706.9976806640625
  0
LINE
  8
_0-2_
  6
CONTINUOUS
 62
    7
 10
1235.8708562077704
 20
706.9976806640625
 11
1295.8708067198058
 21
706.9976806640625
  0
LINE
  8
_0-2_
  6
CONTINUOUS
 62
    7
 10
1295.8708067198058
 20
706.9976806640625
 11
1295.8708067198058
 21
646.99766829207135
  0
LINE
  8
_0-2_
  6
CONTINUOUS
 62
    7
 10
1295.8708067198058
 20
646.99766829207135
 11
1235.8708562077704
 21
646.99766829207135
  0
LINE
  8
_0-2_
  6
CONTINUOUS
 62
    7
 10
1538.8708166173988
 20
646.99766829207135
 11
1538.8708166173988
 21
706.9976806640625
  0
LINE
  8
_0-2_
  6
CONTINUOUS
 62
    7
 10
1538.8708166173988
 20
706.9976806640625
 11
1598.8707671294342
 21
706.9976806640625
  0
LINE
  8
_0-2_
  6
CONTINUOUS
 62
    7
 10
1598.8707671294342
 20
706.9976806640625
 11
1598.8707671294342
 21
646.99766829207135
  0
LINE
  8
_0-2_
  6
CONTINUOUS
 62
    7
 10
1598.8707671294342
 20
646.99766829207135
 11
1538.8708166173988
 21
646.99766829207135
  0
LINE
  8
_0-2_
  6
CONTINUOUS
 62
    7
 10
932.87089579814187
 20
706.9976806640625
 11
992.87084631017751
 21
646.99766829207135
  0
LINE
  8
_0-2_
  6
CONTINUOUS
 62
    7
 10
1235.8708562077704
 20
706.9976806640625
 11
1295.8708067198058
 21
646.99766829207135
  0
LINE
  8
_0-2_
  6
CONTINUOUS
 62
    7
 10
1538.8708166173988
 20
706.9976806640625
 11
1598.8707671294342
 21
646.99766829207135
  0
LINE
  8
_0-2_
  6
CONTINUOUS
 62
    7
 10
927.74505615234375
 20
722.99769633525125
 11
927.74505615234375
 21
725.99765674487969
  0
LINE
  8
_0-2_
  6
CONTINUOUS
 62
    7
 10
927.74505615234375
 20
725.99765674487969
 11
977.74509739231416
 21
725.99765674487969
  0
LINE
  8
_0-2_
  6
CONTINUOUS
 62
    7
 10
977.74509739231416
 20
725.99765674487969
 11
977.74509739231416
 21
722.99769633525125
  0
LINE
  8
_0-2_
  6
CONTINUOUS
 62
    7
 10
977.74509739231416
 20
722.99769633525125
 11
927.74505615234375
 21
722.99769633525125
  0
LINE
  8
_0-2_
  6
CONTINUOUS
 62
    7
 10
927.74505615234375
 20
725.99765674487969
 11
977.74509739231416
 21
722.99769633525125
  0
LINE
  8
_0-2_
  6
CONTINUOUS
 62
    7
 10
1187.7450479043498
 20
722.99769633525125
 11
1187.7450479043498
 21
725.99765674487969
  0
LINE
  8
_0-2_
  6
CONTINUOUS
 62
    7
 10
1187.7450479043498
 20
725.99765674487969
 11
1237.7450891443202
 21
725.99765674487969
  0
LINE
  8
_0-2_
  6
CONTINUOUS
 62
    7
 10
1237.7450891443202
 20
725.99765674487969
 11
1237.7450891443202
 21
722.99769633525125
  0
LINE
  8
_0-2_
  6
CONTINUOUS
 62
    7
 10
1237.7450891443202
 20
722.99769633525125
 11
1187.7450479043498
 21
722.99769633525125
  0
LINE
  8
_0-2_
  6
CONTINUOUS
 62
    7
 10
1187.7450479043498
 20
725.99765674487969
 11
1237.7450891443202
 21
722.99769633525125
  0
LINE
  8
_0-2_
  6
CONTINUOUS
 62
    7
 10
1447.7450396563559
 20
722.99769633525125
 11
1447.7450396563559
 21
725.99765674487969
  0
LINE
  8
_0-2_
  6
CONTINUOUS
 62
    7
 10
1447.7450396563559
 20
725.99765674487969
 11
1497.7449571764148
 21
725.99765674487969
  0
LINE
  8
_0-2_
  6
CONTINUOUS
 62
    7
 10
1497.7449571764148
 20
725.99765674487969
 11
1497.7449571764148
 21
722.99769633525125
  0
LINE
  8
_0-2_
  6
CONTINUOUS
 62
    7
 10
1497.7449571764148
 20
722.99769633525125
 11
1447.7450396563559
 21
722.99769633525125
  0
LINE
  8
_0-2_
  6
CONTINUOUS
 62
    7
 10
1447.7450396563559
 20
725.99765674487969
 11
1497.7449571764148
 21
722.99769633525125
  0
LINE
  8
_0-5_
  6
CONTINUOUS
 62
    7
 10
1208.5972966374579
 20
927.11396088471292
 11
1191.1234675226985
 21
927.11396088471292
  0
LINE
  8
_0-5_
  6
CONTINUOUS
 62
    7
 10
1204.6474147487331
 20
731.74147734770918
 11
1325.436525087099
 21
399.87614605877855
  0
LINE
  8
_0-5_
  6
CONTINUOUS
 62
    7
 10
1346.5861964870144
 20
399.87614605877855
 11
1325.436525087099
 21
399.87614605877855
  0
LINE
  8
_0-5_
  6
CONTINUOUS
 62
    7
 10
1346.5861964870144
 20
419.75193539181276
 11
1318.2023744325379
 21
419.75193539181276
  0
LINE
  8
_0-5_
  6
CONTINUOUS
 62
    7
 10
1346.5861964870144
 20
438.43518849965687
 11
1311.4022332268792
 21
438.43518849965687
  0
LINE
  8
_0-5_
  6
CONTINUOUS
 62
    7
 10
1346.5861964870144
 20
460.29860006796349
 11
1303.4445685309333
 21
460.29860006796349
  0
LINE
  8
_0-5_
  6
CONTINUOUS
 62
    7
 10
1346.5861964870144
 20
479.77687732593438
 11
1296.3550464527029
 21
479.77687732593438
  0
LINE
  8
ADD_LINE
  6
DOT
 62
    7
 10
884.05312203072208
 20
743.99772850242823
 11
803.01163132126271
 21
743.99772850242823
  0
LINE
  8
_0-1_
  6
CONTINUOUS
 62
    7
 10
884.05312203072208
 20
722.99769633525125
 11
765.87091394372897
 21
722.99769633525125
  0
LINE
  8
_0-7_
  6
CONTINUOUS
 62
    7
 10
794.65694942989876
 20
743.99772850242823
 11
794.65694942989876
 21
722.99769633525125
  0
LINE
  8
_0-2_
  6
CONTINUOUS
 62
    7
 10
819.39722009607272
 20
743.99772850242823
 11
794.65694942989876
 21
743.99772850242823
  0
LINE
  8
_0-2_
  6
CONTINUOUS
 62
    7
 10
819.39722009607272
 20
725.99771860483531
 11
794.65694942989876
 21
725.99771860483531
  0
LINE
  8
_0-2_
  6
CONTINUOUS
 62
    7
 10
819.39722009607272
 20
722.99769633525125
 11
794.65694942989876
 21
722.99769633525125
  0
LINE
  8
_0-2_
  6
DASHED1
 62
    3
 10
756.82414286845437
 20
721.32116781698699
 11
1730.758790712099
 21
721.32116781698699
  0
LINE
  8
_0-2_
  6
CONTINUOUS
 62
    7
 10
932.87089579814187
 20
646.99766829207135
 11
992.87084631017751
 21
646.99766829207135
  0
LINE
  8
_0-2_
  6
CONTINUOUS
 62
    7
 10
1235.8708562077704
 20
646.99766829207135
 11
1295.8708067198058
 21
646.99766829207135
  0
LINE
  8
_0-2_
  6
CONTINUOUS
 62
    7
 10
1538.8708166173988
 20
646.99766829207135
 11
1598.8707671294342
 21
646.99766829207135
  0
LINE
  8
_0-7_
  6
CONTINUOUS
 62
    7
 10
832.7152973896749
 20
474.02922140585412
 11
849.75332311681791
 21
474.02922140585412
  0
LINE
  8
_0-5_
  6
CONTINUOUS
 62
    7
 10
815.87083146378802
 20
725.99771860483531
 11
794.65694942989876
 21
725.99771860483531
  0
LINE
  8
_1-0_
  6
CONTINUOUS
 62
    7
 10
884.05312203072208
 20
706.9976806640625
 11
647.83902554898646
 21
706.9976806640625
  0
LINE
  8
_0-1_
  6
CONTINUOUS
 62
    7
 10
884.05312203072208
 20
718.99770788244291
 11
647.83902554898646
 21
718.99770788244291
  0
LINE
  8
_0-5_
  6
DASHED1
 62
    3
 10
884.05312203072208
 20
720.74302467140001
 11
647.83902554898646
 21
720.74302467140001
  0
LINE
  8
_0-1_
  6
CONTINUOUS
 62
    7
 10
884.05312203072208
 20
725.99771860483531
 11
794.65694942989876
 21
725.99771860483531
  0
LINE
  8
_0-4_下地
  6
CONTINUOUS
 62
    7
 10
815.83111737225511
 20
743.99772850242823
 11
794.65694942989876
 21
743.99772850242823
  0
LINE
  8
_0-1_
  6
CONTINUOUS
 62
    7
 10
794.65694942989876
 20
725.99771860483531
 11
1730.758790712099
 21
725.99771860483531
  0
LINE
  8
_0-5_
  6
CONTINUOUS
 62
    7
 10
790.61118460990292
 20
722.99769633525125
 11
815.87083146378802
 21
722.99769633525125
  0
LINE
  8
_0-7_
  6
CONTINUOUS
 62
    3
 10
765.87091394372897
 20
722.99769633525125
 11
790.61118460990292
 21
722.99769633525125
  0
LINE
  8
_0-2_
  6
CONTINUOUS
 62
    7
 10
794.65694942989876
 20
722.99769633525125
 11
794.65694942989876
 21
725.99765674487969
  0
LINE
  8
_0-2_
  6
CONTINUOUS
 62
    7
 10
794.65694942989876
 20
725.99765674487969
 11
844.65699066986917
 21
725.99765674487969
  0
LINE
  8
_0-2_
  6
CONTINUOUS
 62
    7
 10
844.65699066986917
 20
725.99765674487969
 11
844.65699066986917
 21
722.99769633525125
  0
LINE
  8
_0-2_
  6
CONTINUOUS
 62
    7
 10
844.65699066986917
 20
722.99769633525125
 11
794.65694942989876
 21
722.99769633525125
  0
LINE
  8
_0-2_
  6
CONTINUOUS
 62
    7
 10
794.65694942989876
 20
725.99765674487969
 11
844.65699066986917
 21
722.99769633525125
  0
LINE
  8
_0-5_
  6
CONTINUOUS
 62
    7
 10
794.65694942989876
 20
733.93719647381761
 11
794.65694942989876
 21
722.99769633525125
  0
LINE
  8
_0-7_
  6
CONTINUOUS
 62
    7
 10
739.18923042915958
 20
730.9901263262775
 11
733.15701871304907
 21
722.99769633525125
  0
LINE
  8
_0-7_
  6
CONTINUOUS
 62
    7
 10
459.38458829312714
 20
722.99769633525125
 11
607.17872413429052
 21
722.99769633525125
  0
LINE
  8
_0-5_
  6
CONTINUOUS
 62
    7
 10
647.83902554898646
 20
1128.5276258313979
 11
647.83902554898646
 21
420.18582112080344
  0
LINE
  8
_0-6_
  6
CONTINUOUS
 62
    7
 10
672.45334934543916
 20
881.48321203283376
 11
672.45334934543916
 21
1128.5276258313979
  0
LINE
  8
_0-6_
  6
CONTINUOUS
 62
    7
 10
684.45319098395271
 20
881.48321203283376
 11
684.45319098395271
 21
1128.5276258313979
  0
LINE
  8
_0-5_
  6
CONTINUOUS
 62
    7
 10
670.71112555426521
 20
721.21340777422927
 11
670.71112555426521
 21
850.40489402977198
  0
LINE
  8
_0-5_
  6
CONTINUOUS
 62
    7
 10
670.71112555426521
 20
850.40489402977198
 11
650.71130701013522
 21
850.40489402977198
  0
LINE
  8
_0-5_
  6
CONTINUOUS
 62
    7
 10
650.71130701013522
 20
850.40489402977198
 11
650.71130701013522
 21
721.21340777422927
  0
LINE
  8
_0-5_
  6
CONTINUOUS
 62
    7
 10
650.71130701013522
 20
721.21340777422927
 11
670.71112555426521
 21
850.40489402977198
  0
LINE
  8
ADD_LINE
  6
DOT
 62
    3
 10
670.71112555426521
 20
850.40489402977198
 11
684.92976008234803
 21
850.40489402977198
  0
LINE
  8
_0-5_
  6
CONTINUOUS
 62
    3
 10
674.0745750633447
 20
850.40489402977198
 11
691.96496911951022
 21
843.86017258102834
  0
LINE
  8
_0-5_
  6
CONTINUOUS
 62
    3
 10
674.0745750633447
 20
722.99769633525125
 11
674.0745750633447
 21
850.40489402977198
  0
LINE
  8
_0-5_
  6
CONTINUOUS
 62
    7
 10
659.1888427734375
 20
876.95976463524073
 11
654.03541358741563
 21
862.8727680927999
  0
LINE
  8
_0-5_
  6
CONTINUOUS
 62
    7
 10
738.55739284206084
 20
831.95268785631345
 11
743.71057458826022
 21
846.03968439875428
  0
LINE
  8
_0-5_
  6
CONTINUOUS
 62
    7
 10
743.71057458826022
 20
846.03968439875428
 11
659.1888427734375
 21
876.95976463524073
  0
LINE
  8
_0-5_
  6
CONTINUOUS
 62
    7
 10
743.71057458826022
 20
846.03968439875428
 11
654.03541358741563
 21
862.8727680927999
  0
LINE
  8
_0-5_
  6
CONTINUOUS
 62
    3
 10
750.99347088788011
 20
846.70177150417021
 11
652.45328336148646
 21
882.7500420647699
  0
LINE
  8
_0-5_
  6
CONTINUOUS
 62
    3
 10
652.45328336148646
 20
882.7500420647699
 11
652.45328336148646
 21
949.54289616765209
  0
LINE
  8
_0-5_
  6
CONTINUOUS
 62
    3
 10
750.99347088788011
 20
846.70177150417021
 11
745.80317316828553
 21
825.47168216189834
  0
LINE
  8
_0-5_
  6
CONTINUOUS
 62
    7
 10
654.03541358741563
 20
862.8727680927999
 11
738.55739284206084
 21
831.95268785631345
  0
LINE
  8
_0-6_
  6
CONTINUOUS
 62
    7
 10
684.45319098395271
 20
881.48321203283376
 11
672.45334934543916
 21
881.48321203283376
  0
LINE
  8
_0-6_
  6
CONTINUOUS
 62
    7
 10
672.45334934543916
 20
906.121351912215
 11
672.45334934543916
 21
946.12129830025333
  0
LINE
  8
_0-6_
  6
CONTINUOUS
 62
    7
 10
672.45334934543916
 20
946.12129830025333
 11
652.45328336148646
 21
946.12129830025333
  0
LINE
  8
_0-6_
  6
CONTINUOUS
 62
    7
 10
652.45328336148646
 20
946.12129830025333
 11
652.45328336148646
 21
906.121351912215
  0
LINE
  8
_0-6_
  6
CONTINUOUS
 62
    7
 10
652.45328336148646
 20
906.121351912215
 11
672.45334934543916
 21
906.121351912215
  0
LINE
  8
_0-6_
  6
CONTINUOUS
 62
    7
 10
672.45334934543916
 20
946.12129830025333
 11
652.45328336148646
 21
906.121351912215
  0
LINE
  8
_0-7_
  6
CONTINUOUS
 62
    7
 10
542.04192290434969
 20
722.99769633525125
 11
542.04192290434969
 21
850.40489402977198
  0
LINE
  8
_0-7_
  6
CONTINUOUS
 62
    7
 10
607.17872413429052
 20
850.40489402977198
 11
542.04192290434969
 21
850.40489402977198
  0
LINE
  8
_0-7_
  6
CONTINUOUS
 62
    7
 10
730.2696434227197
 20
842.05819207268803
 11
776.44735800253386
 21
968.93054859058282
  0
LINE
  8
_0-7_
  6
CONTINUOUS
 62
    7
 10
794.26401499155406
 20
887.76830724767751
 11
757.20643739442562
 21
806.76189113307646
  0
LINE
  8
_0-7_
  6
CONTINUOUS
 62
    7
 10
794.26401499155406
 20
887.76830724767751
 11
807.73587613492407
 21
924.78196427628802
  0
LINE
  8
_0-7_
  6
CONTINUOUS
 62
    7
 10
712.74310962573907
 20
1118.1399783572635
 11
732.16119714685397
 21
1118.1399783572635
  0
LINE
  8
_0-7_
  6
CONTINUOUS
 62
    3
 10
652.45328336148646
 20
949.54289616765209
 11
652.45328336148646
 21
1032.6995024809967
  0
LINE
  8
_0-7_
  6
CONTINUOUS
 62
    7
 10
542.04192290434969
 20
882.7500420647699
 11
542.04192290434969
 21
1032.7499802048142
  0
LINE
  8
_0-7_
  6
CONTINUOUS
 62
    7
 10
607.17872413429052
 20
882.7500420647699
 11
542.04192290434969
 21
882.7500420647699
  0
LINE
  8
_0-7_
  6
CONTINUOUS
 62
    7
 10
607.17872413429052
 20
1032.7499802048142
 11
542.04192290434969
 21
1032.7499802048142
  0
LINE
  8
_0-7_
  6
CONTINUOUS
 62
    7
 10
704.1496483055322
 20
864.26028689822647
 11
769.1384805215373
 21
1042.8159559095229
  0
LINE
  8
_0-7_
  6
CONTINUOUS
 62
    7
 10
769.1384805215373
 20
1042.8159559095229
 11
784.32497591585729
 21
1042.8159559095229
  0
LINE
  8
_0-7_
  6
CONTINUOUS
 62
    7
 10
776.44735800253386
 20
968.93054859058282
 11
785.99197800095021
 21
968.93054859058282
  0
LINE
  8
_0-7_
  6
CONTINUOUS
 62
    7
 10
807.73587613492407
 20
924.78196427628802
 11
817.66526505753802
 21
924.78196427628802
  0
LINE
  8
_0-7_
  6
CONTINUOUS
 62
    7
 10
684.45319098395271
 20
1040.4139338312923
 11
712.74310962573907
 21
1118.1399783572635
  0
LINE
  8
_0-5_
  6
DASHED1
 62
    3
 10
650.10755384290542
 20
720.74302467140001
 11
650.10755384290542
 21
1082.7500214447846
  0
LINE
  8
_0-7_
  6
CONTINUOUS
 62
    7
 10
542.04192290434969
 20
1032.7499802048142
 11
607.17872413429052
 21
1032.7499802048142
  0
LINE
  8
_0-7_
  6
CONTINUOUS
 62
    7
 10
542.04192290434969
 20
1082.7500214447846
 11
607.17872413429052
 21
1082.7500214447846
  0
LINE
  8
_0-7_
  6
CONTINUOUS
 62
    7
 10
542.04192290434969
 20
1032.7499802048142
 11
542.04192290434969
 21
1082.7500214447846
  0
LINE
  8
_0-7_
  6
CONTINUOUS
 62
    7
 10
459.38458829312714
 20
1082.7500214447846
 11
607.17872413429052
 21
1082.7500214447846
  0
LINE
  8
_0-7_
  6
CONTINUOUS
 62
    7
 10
541.17000682933917
 20
1064.0335495407517
 11
516.97518632218646
 21
1154.3299082163219
  0
LINE
  8
_0-7_
  6
CONTINUOUS
 62
    7
 10
542.46652963999156
 20
973.9262348896749
 11
505.67331056337105
 21
1111.2403663429054
  0
LINE
  8
_0-7_
  6
CONTINUOUS
 62
    7
 10
516.97518632218646
 20
1154.3299082163219
 11
505.28922209868563
 21
1154.3299082163219
  0
LINE
  8
_0-7_
  6
CONTINUOUS
 62
    7
 10
505.67331056337105
 20
1111.2403663429054
 11
492.55095816947318
 21
1111.2403663429054
  0
LINE
  8
_0-7_
  6
CONTINUOUS
 62
    7
 10
459.38458829312714
 20
722.99769633525125
 11
459.38458829312714
 21
1082.7500214447846
  0
LINE
  8
_0-1_
  6
CONTINUOUS
 62
    7
 10
680.06595920872041
 20
794.51009389516469
 11
690.06599220069688
 21
794.51009389516469
  0
LINE
  8
_0-1_
  6
CONTINUOUS
 62
    7
 10
680.06595920872041
 20
794.51009389516469
 11
680.06595920872041
 21
779.51010626715583
  0
LINE
  8
_0-1_
  6
CONTINUOUS
 62
    7
 10
823.21571143897813
 20
743.99772850242823
 11
1021.1073798102302
 21
743.99772850242823
  0
LINE
  8
_0-1_
  6
CONTINUOUS
 62
    7
 10
990.06599220069688
 20
768.99774912241344
 11
971.65535591744083
 21
776.27520174593542
  0
LINE
  8
_0-1_
  6
CONTINUOUS
 62
    7
 10
690.06599220069688
 20
794.51009389516469
 11
690.06599220069688
 21
791.29665477855792
  0
LINE
  8
_0-1_
  6
CONTINUOUS
 62
    7
 10
940.06595096072647
 20
794.51009389516469
 11
950.06598395270271
 21
794.51009389516469
  0
LINE
  8
_0-1_
  6
CONTINUOUS
 62
    7
 10
940.06595096072647
 20
794.51009389516469
 11
940.06595096072647
 21
779.51010626715583
  0
LINE
  8
_0-1_
  6
CONTINUOUS
 62
    7
 10
1083.215703190984
 20
743.99772850242823
 11
1281.1074334221917
 21
743.99772850242823
  0
LINE
  8
_0-1_
  6
CONTINUOUS
 62
    7
 10
990.06599220069688
 20
768.99774912241344
 11
971.65535591744083
 21
776.27520174593542
  0
LINE
  8
_0-1_
  6
CONTINUOUS
 62
    7
 10
1250.0659839527027
 20
768.99774912241344
 11
1231.6553476694469
 21
776.27520174593542
  0
LINE
  8
_0-1_
  6
CONTINUOUS
 62
    7
 10
950.06598395270271
 20
794.51009389516469
 11
950.06598395270271
 21
791.29665477855792
  0
LINE
  8
_0-1_
  6
CONTINUOUS
 62
    7
 10
1200.0659427127323
 20
794.51009389516469
 11
1210.0659757047088
 21
794.51009389516469
  0
LINE
  8
_0-1_
  6
CONTINUOUS
 62
    7
 10
1200.0659427127323
 20
794.51009389516469
 11
1200.0659427127323
 21
779.51010626715583
  0
LINE
  8
_0-1_
  6
CONTINUOUS
 62
    7
 10
1343.2156949429898
 20
743.99772850242823
 11
1541.1073014542865
 21
743.99772850242823
  0
LINE
  8
_0-1_
  6
CONTINUOUS
 62
    7
 10
1510.0659757047085
 20
768.99774912241344
 11
1491.6553394214529
 21
776.27520174593542
  0
LINE
  8
_0-1_
  6
CONTINUOUS
 62
    7
 10
1210.0659757047088
 20
794.51009389516469
 11
1210.0659757047088
 21
791.29665477855792
  0
LINE
  8
_0-1_
  6
CONTINUOUS
 62
    7
 10
1510.0659757047085
 20
768.99774912241344
 11
1491.6553394214529
 21
776.27520174593542
  0
LINE
  8
_0-1_
  6
CONTINUOUS
 62
    7
 10
1460.0659344647383
 20
794.51009389516469
 11
1470.0659674567146
 21
794.51009389516469
  0
LINE
  8
_0-1_
  6
CONTINUOUS
 62
    7
 10
1460.0659344647383
 20
794.51009389516469
 11
1460.0659344647383
 21
779.51010626715583
  0
LINE
  8
_0-1_
  6
CONTINUOUS
 62
    7
 10
1470.0659674567146
 20
794.51009389516469
 11
1470.0659674567146
 21
791.29665477855792
  0
LINE
  8
_0-1_
  6
CONTINUOUS
 62
    7
 10
783.15198743665542
 20
743.99772850242823
 11
1698.0796607764992
 21
743.99772850242823
  0
LINE
  8
_0-1_
  6
CONTINUOUS
 62
    7
 10
851.3739920951225
 20
743.99772850242823
 11
794.65694942989876
 21
743.99772850242823
  0
LINE
  8
_0-5_
  6
CONTINUOUS
 62
    7
 10
1268.4091928842906
 20
762.78224635768584
 11
1208.5972966374579
 21
927.11396088471292
  0
CIRCLE
  8
_0-6_
  6
CONTINUOUS
 62
    7
 10
714.25410090266053
 20
838.20252289643167
 40
0.3530966269003378
  0
CIRCLE
  8
_0-6_
  6
CONTINUOUS
 62
    7
 10
716.72577729096292
 20
824.78497479413011
 40
0.3530966269003378
  0
CIRCLE
  8
_0-6_
  6
CONTINUOUS
 62
    7
 10
719.55055030616563
 20
828.66903769003386
 40
0.3530966269003378
  0
CIRCLE
  8
_0-6_
  6
CONTINUOUS
 62
    7
 10
723.08151657516896
 20
830.78755559148021
 40
0.3530966269003378
  0
CIRCLE
  8
_0-6_
  6
CONTINUOUS
 62
    7
 10
719.55055030616563
 20
821.96026363888313
 40
0.3530966269003378
  0
CIRCLE
  8
_0-6_
  6
CONTINUOUS
 62
    7
 10
718.49101298564187
 20
819.13549062368031
 40
0.3530966269003378
  0
CIRCLE
  8
_0-6_
  6
CONTINUOUS
 62
    7
 10
718.49101298564187
 20
814.54529633393167
 40
0.3530966269003378
  0
CIRCLE
  8
_0-6_
  6
CONTINUOUS
 62
    7
 10
720.25674355996625
 20
809.24890879038219
 40
0.3530966269003378
  0
CIRCLE
  8
_0-6_
  6
CONTINUOUS
 62
    7
 10
724.1405590160474
 20
802.54013473923146
 40
0.3530966269003378
  0
CIRCLE
  8
_0-6_
  6
CONTINUOUS
 62
    7
 10
725.55294552364876
 20
798.30303707638313
 40
0.3530966269003378
  0
CIRCLE
  8
_0-6_
  6
CONTINUOUS
 62
    7
 10
727.67152528505062
 20
791.94735965213272
 40
0.3530966269003378
  0
CIRCLE
  8
_0-6_
  6
CONTINUOUS
 62
    7
 10
714.96029415646126
 20
777.11748690218542
 40
0.3530966269003378
  0
CIRCLE
  8
_0-6_
  6
CONTINUOUS
 62
    7
 10
714.60719752956084
 20
795.83136068808074
 40
0.3530966269003378
  0
CIRCLE
  8
_0-6_
  6
CONTINUOUS
 62
    7
 10
707.89836161845437
 20
792.30045627903291
 40
0.3530966269003378
  0
CIRCLE
  8
_0-6_
  6
CONTINUOUS
 62
    7
 10
707.54526499155406
 20
789.82884175068637
 40
0.3530966269003378
  0
CIRCLE
  8
_0-6_
  6
CONTINUOUS
 62
    7
 10
705.77978185705228
 20
783.82626095333626
 40
0.3530966269003378
  0
CIRCLE
  8
_0-6_
  6
CONTINUOUS
 62
    7
 10
705.42668523015209
 20
796.89065056878178
 40
0.3530966269003378
  0
CIRCLE
  8
_0-6_
  6
CONTINUOUS
 62
    7
 10
705.42668523015209
 20
802.54013473923146
 40
0.3530966269003378
  0
CIRCLE
  8
_0-6_
  6
CONTINUOUS
 62
    7
 10
702.24906302787167
 20
803.95252124683282
 40
0.3530966269003378
  0
CIRCLE
  8
_0-6_
  6
CONTINUOUS
 62
    7
 10
712.84171439505917
 20
807.48342565588041
 40
0.3530966269003378
  0
CIRCLE
  8
_0-6_
  6
CONTINUOUS
 62
    7
 10
712.13552114125844
 20
806.42419763513522
 40
0.3530966269003378
  0
CIRCLE
  8
_0-6_
  6
CONTINUOUS
 62
    7
 10
707.89836161845437
 20
807.13032902898021
 40
0.3530966269003378
  0
CIRCLE
  8
_0-6_
  6
CONTINUOUS
 62
    7
 10
711.07623126055739
 20
812.0736818055849
 40
0.3530966269003378
  0
CIRCLE
  8
_0-6_
  6
CONTINUOUS
 62
    7
 10
710.7231346336572
 20
816.66387609533353
 40
0.3530966269003378
  0
CIRCLE
  8
_0-6_
  6
CONTINUOUS
 62
    7
 10
707.89836161845437
 20
825.84426467483115
 40
0.3530966269003378
  0
CIRCLE
  8
_0-6_
  6
CONTINUOUS
 62
    7
 10
709.31074812605573
 20
832.19994209908145
 40
0.3530966269003378
  0
CIRCLE
  8
_0-6_
  6
CONTINUOUS
 62
    7
 10
696.59951699746625
 20
835.02471511428428
 40
0.3530966269003378
  0
CIRCLE
  8
_0-6_
  6
CONTINUOUS
 62
    7
 10
698.36475269214532
 20
824.07884340028522
 40
0.3530966269003378
  0
CIRCLE
  8
_0-6_
  6
CONTINUOUS
 62
    7
 10
699.42429001266896
 20
820.54787713128178
 40
0.3530966269003378
  0
CIRCLE
  8
_0-6_
  6
CONTINUOUS
 62
    7
 10
692.3623574746623
 20
815.25148958773229
 40
0.3530966269003378
  0
CIRCLE
  8
_0-6_
  6
CONTINUOUS
 62
    7
 10
698.71809675886823
 20
807.13032902898021
 40
0.3530966269003378
  0
CIRCLE
  8
_0-6_
  6
CONTINUOUS
 62
    7
 10
698.01190350506761
 20
804.65871450063344
 40
0.3530966269003378
  0
CIRCLE
  8
_0-6_
  6
CONTINUOUS
 62
    7
 10
696.95236618454396
 20
792.65355290593334
 40
0.3530966269003378
  0
CIRCLE
  8
_0-6_
  6
CONTINUOUS
 62
    7
 10
697.30571025126687
 20
790.18193837758656
 40
0.3530966269003378
  0
CIRCLE
  8
_0-6_
  6
CONTINUOUS
 62
    7
 10
689.18448783255917
 20
796.53755394188136
 40
0.3530966269003378
  0
CIRCLE
  8
_0-6_
  6
CONTINUOUS
 62
    7
 10
682.82874854835313
 20
801.12781009158584
 40
0.3530966269003378
  0
CIRCLE
  8
_0-6_
  6
CONTINUOUS
 62
    7
 10
680.00422297297303
 20
808.18961890968126
 40
0.3530966269003378
  0
CIRCLE
  8
_0-6_
  6
CONTINUOUS
 62
    7
 10
687.0659080711572
 20
815.95768284153291
 40
0.3530966269003378
  0
CIRCLE
  8
_0-6_
  6
CONTINUOUS
 62
    7
 10
684.24113505595437
 20
821.2540703850824
 40
0.3530966269003378
  0
CIRCLE
  8
_0-6_
  6
CONTINUOUS
 62
    7
 10
685.30042493665542
 20
830.78755559148021
 40
0.3530966269003378
  0
CIRCLE
  8
_0-6_
  6
CONTINUOUS
 62
    7
 10
688.83139120565886
 20
832.90613535288219
 40
0.3530966269003378
  0
CIRCLE
  8
_0-6_
  6
CONTINUOUS
 62
    7
 10
678.94468565244938
 20
836.79013638883032
 40
0.3530966269003378
  0
CIRCLE
  8
_0-6_
  6
CONTINUOUS
 62
    7
 10
686.35971481735646
 20
773.9396172600824
 40
0.3530966269003378
  0
CIRCLE
  8
_0-6_
  6
CONTINUOUS
 62
    7
 10
680.71041622677376
 20
767.58400169578761
 40
0.3530966269003378
  0
CIRCLE
  8
_0-6_
  6
CONTINUOUS
 62
    7
 10
677.88564321157094
 20
791.24116639833187
 40
0.3530966269003378
  0
CIRCLE
  8
_0-6_
  6
CONTINUOUS
 62
    7
 10
681.41660948057438
 20
795.83136068808074
 40
0.3530966269003378
  0
CIRCLE
  8
_0-6_
  6
CONTINUOUS
 62
    7
 10
698.36475269214532
 20
787.71026198928428
 40
0.3530966269003378
  0
CIRCLE
  8
_0-6_
  6
CONTINUOUS
 62
    7
 10
712.48861776815886
 20
789.47574512378594
 40
0.3530966269003378
  0
CIRCLE
  8
_0-6_
  6
CONTINUOUS
 62
    7
 10
708.2514582453548
 20
779.94219805743239
 40
0.3530966269003378
  0
CIRCLE
  8
_0-6_
  6
CONTINUOUS
 62
    7
 10
701.18952570734803
 20
789.82884175068637
 40
0.3530966269003378
  0
CIRCLE
  8
_0-6_
  6
CONTINUOUS
 62
    7
 10
696.24617293074323
 20
796.18445731498105
 40
0.3530966269003378
  0
CIRCLE
  8
_0-6_
  6
CONTINUOUS
 62
    7
 10
692.7154541015625
 20
802.89323136613177
 40
0.3530966269003378
  0
CIRCLE
  8
_0-6_
  6
CONTINUOUS
 62
    7
 10
689.8906810863599
 20
806.42419763513522
 40
0.3530966269003378
  0
CIRCLE
  8
_0-6_
  6
CONTINUOUS
 62
    7
 10
704.72049197635147
 20
813.13290982633032
 40
0.3530966269003378
  0
CIRCLE
  8
_0-6_
  6
CONTINUOUS
 62
    7
 10
696.59951699746625
 20
813.13290982633032
 40
0.3530966269003378
  0
CIRCLE
  8
_0-6_
  6
CONTINUOUS
 62
    7
 10
710.7231346336572
 20
802.89323136613177
 40
0.3530966269003378
  0
CIRCLE
  8
_0-6_
  6
CONTINUOUS
 62
    7
 10
714.96029415646126
 20
802.18703811233115
 40
0.3530966269003378
  0
CIRCLE
  8
_0-6_
  6
CONTINUOUS
 62
    7
 10
718.49101298564187
 20
800.42161683778522
 40
0.3530966269003378
  0
CIRCLE
  8
_0-6_
  6
CONTINUOUS
 62
    7
 10
699.77713919974667
 20
816.66387609533353
 40
0.3530966269003378
  0
CIRCLE
  8
_0-6_
  6
CONTINUOUS
 62
    7
 10
689.18448783255917
 20
819.13549062368031
 40
0.3530966269003378
  0
CIRCLE
  8
_0-6_
  6
CONTINUOUS
 62
    7
 10
680.00422297297303
 20
815.25148958773229
 40
0.3530966269003378
  0
CIRCLE
  8
_0-6_
  6
CONTINUOUS
 62
    7
 10
688.47829457875844
 20
810.66129529798354
 40
0.3530966269003378
  0
CIRCLE
  8
_0-6_
  6
CONTINUOUS
 62
    7
 10
694.48093723606416
 20
826.55045792863177
 40
0.3530966269003378
  0
CIRCLE
  8
_0-6_
  6
CONTINUOUS
 62
    7
 10
700.1304832664697
 20
830.78755559148021
 40
0.3530966269003378
  0
CIRCLE
  8
_0-6_
  6
CONTINUOUS
 62
    7
 10
684.5942316828548
 20
836.08394313502959
 40
0.3530966269003378
  0
CIRCLE
  8
_0-6_
  6
CONTINUOUS
 62
    7
 10
702.9552562816724
 20
837.49632964263105
 40
0.3530966269003378
  0
CIRCLE
  8
_0-6_
  6
CONTINUOUS
 62
    7
 10
715.31339078336146
 20
834.67161848738385
 40
0.3530966269003378
  0
CIRCLE
  8
_0-6_
  6
CONTINUOUS
 62
    7
 10
717.78481973184125
 20
835.02471511428428
 40
0.3530966269003378
  0
CIRCLE
  8
_0-6_
  6
CONTINUOUS
 62
    7
 10
719.19720623944261
 20
834.31852186048354
 40
0.3530966269003378
  0
CIRCLE
  8
_0-6_
  6
CONTINUOUS
 62
    7
 10
720.96293681376687
 20
818.07620074297927
 40
0.3530966269003378
  0
CIRCLE
  8
_0-6_
  6
CONTINUOUS
 62
    7
 10
722.72817250844594
 20
814.54529633393167
 40
0.3530966269003378
  0
CIRCLE
  8
_0-6_
  6
CONTINUOUS
 62
    7
 10
723.08151657516896
 20
809.95510204418292
 40
0.3530966269003378
  0
CIRCLE
  8
_0-6_
  6
CONTINUOUS
 62
    7
 10
713.90100427576022
 20
817.37006934913438
 40
0.3530966269003378
  0
CIRCLE
  8
_0-6_
  6
CONTINUOUS
 62
    7
 10
712.13552114125844
 20
829.37516908387897
 40
0.3530966269003378
  0
CIRCLE
  8
_0-6_
  6
CONTINUOUS
 62
    7
 10
686.35971481735646
 20
801.48090671848604
 40
0.3530966269003378
  0
CIRCLE
  8
_0-6_
  6
CONTINUOUS
 62
    7
 10
701.18952570734803
 20
794.77213266733531
 40
0.3530966269003378
  0
CIRCLE
  8
_0-6_
  6
CONTINUOUS
 62
    7
 10
711.07623126055739
 20
796.18445731498105
 40
0.3530966269003378
  0
CIRCLE
  8
_0-6_
  6
CONTINUOUS
 62
    7
 10
724.84675226984803
 20
789.82884175068637
 40
0.3530966269003378
  0
CIRCLE
  8
_0-6_
  6
CONTINUOUS
 62
    7
 10
729.43700841955228
 20
787.35716536238385
 40
0.3530966269003378
  0
CIRCLE
  8
_0-6_
  6
CONTINUOUS
 62
    7
 10
704.72049197635147
 20
819.51252705342074
 40
0.3530966269003378
  0
CIRCLE
  8
_0-6_
  6
CONTINUOUS
 62
    7
 10
699.42429001266896
 20
821.63110681482272
 40
0.3530966269003378
  0
CIRCLE
  8
_0-6_
  6
CONTINUOUS
 62
    7
 10
704.36764278927376
 20
825.86820447767104
 40
0.3530966269003378
  0
CIRCLE
  8
_0-6_
  6
CONTINUOUS
 62
    7
 10
713.5479076488599
 20
825.86820447767104
 40
0.3530966269003378
  0
CIRCLE
  8
_0-6_
  6
CONTINUOUS
 62
    7
 10
711.07623126055739
 20
823.7496865762248
 40
0.3530966269003378
  0
CIRCLE
  8
_0-6_
  6
CONTINUOUS
 62
    7
 10
698.01190350506761
 20
829.39917074667449
 40
0.3530966269003378
  0
CIRCLE
  8
_0-6_
  6
CONTINUOUS
 62
    7
 10
692.00926084776188
 20
831.51768864812084
 40
0.3530966269003378
  0
CIRCLE
  8
_0-6_
  6
CONTINUOUS
 62
    7
 10
706.83907173775333
 20
833.98936503642312
 40
0.3530966269003378
  0
CIRCLE
  8
_0-6_
  6
CONTINUOUS
 62
    7
 10
711.42932788745782
 20
834.69555829022386
 40
0.3530966269003378
  0
CIRCLE
  8
_0-6_
  6
CONTINUOUS
 62
    7
 10
720.96293681376687
 20
832.57697852882188
 40
0.3530966269003378
  0
CIRCLE
  8
_0-6_
  6
CONTINUOUS
 62
    7
 10
724.1405590160474
 20
830.10536400047511
 40
0.3530966269003378
  0
CIRCLE
  8
_0-6_
  6
CONTINUOUS
 62
    7
 10
721.3157860008447
 20
825.51516971072647
 40
0.3530966269003378
  0
CIRCLE
  8
_0-6_
  6
CONTINUOUS
 62
    7
 10
721.3157860008447
 20
820.21872030722136
 40
0.3530966269003378
  0
CIRCLE
  8
_0-6_
  6
CONTINUOUS
 62
    7
 10
682.82874854835313
 20
824.45587983002542
 40
0.3530966269003378
  0
CIRCLE
  8
_0-6_
  6
CONTINUOUS
 62
    7
 10
692.00926084776188
 20
827.2805909852724
 40
0.3530966269003378
  0
CIRCLE
  8
_0-6_
  6
CONTINUOUS
 62
    7
 10
702.24906302787167
 20
835.04865491712417
 40
0.3530966269003378
  0
CIRCLE
  8
_0-6_
  6
CONTINUOUS
 62
    7
 10
697.30571025126687
 20
838.57955932617187
 40
0.3530966269003378
  0
CIRCLE
  8
_0-6_
  6
CONTINUOUS
 62
    7
 10
685.65352156355573
 20
818.4532990326752
 40
0.3530966269003378
  0
CIRCLE
  8
_0-6_
  6
CONTINUOUS
 62
    7
 10
688.83139120565886
 20
820.21872030722136
 40
0.3530966269003378
  0
CIRCLE
  8
_0-6_
  6
CONTINUOUS
 62
    7
 10
688.83139120565886
 20
823.7496865762248
 40
0.3530966269003378
  0
CIRCLE
  8
_0-6_
  6
CONTINUOUS
 62
    7
 10
717.07862647804063
 20
823.39658994932438
 40
0.3530966269003378
  0
CIRCLE
  8
_0-6_
  6
CONTINUOUS
 62
    7
 10
716.3726806640625
 20
832.22388190192146
 40
0.3530966269003378
  0
CIRCLE
  8
_0-6_
  6
CONTINUOUS
 62
    7
 10
704.72049197635147
 20
838.9326559530723
 40
0.3530966269003378
  0
CIRCLE
  8
_0-6_
  6
CONTINUOUS
 62
    7
 10
701.54286977407094
 20
841.40433234137458
 40
0.3530966269003378
  0
CIRCLE
  8
_0-6_
  6
CONTINUOUS
 62
    7
 10
696.59951699746625
 20
824.80897645692585
 40
0.3530966269003378
  0
ARC
  8
_0-1_
  6
CONTINUOUS
 62
    7
 10
919.27321150496198
 20
751.6199885187923
 40
72.894480421736432
 50
13.791900634765625
 51
161.69851684570312
  0
ARC
  8
_0-1_
  6
CONTINUOUS
 62
    7
 10
783.15198743665542
 20
911.37412818702501
 40
167.37638421960781
 50
231.9831237792969
 51
298.39506530761719
  0
ARC
  8
_0-1_
  6
CONTINUOUS
 62
    7
 10
919.27321150496198
 20
751.6199885187923
 40
57.894481194985879
 50
25.20538330078125
 51
167.5159912109375
  0
ARC
  8
_0-1_
  6
CONTINUOUS
 62
    7
 10
782.40948238888313
 20
914.51005677919147
 40
155.49068966427365
 50
234.57966613769534
 51
295.79264831542969
  0
ARC
  8
_0-1_
  6
CONTINUOUS
 62
    7
 10
699.87067145270271
 20
795.07524645006345
 40
10.507658687797754
 50
201.07586669921878
 51
223.8392028808594
  0
ARC
  8
_0-1_
  6
CONTINUOUS
 62
    7
 10
1179.2732032569679
 20
751.6199885187923
 40
72.894480421736432
 50
13.791900634765625
 51
161.69851684570312
  0
ARC
  8
_0-1_
  6
CONTINUOUS
 62
    7
 10
1043.1519791886612
 20
911.37412818702501
 40
167.37638421960781
 50
231.9831237792969
 51
298.39506530761719
  0
ARC
  8
_0-1_
  6
CONTINUOUS
 62
    7
 10
1179.2732032569679
 20
751.6199885187923
 40
57.894481194985879
 50
25.20538330078125
 51
167.5159912109375
  0
ARC
  8
_0-1_
  6
CONTINUOUS
 62
    7
 10
1042.4095360008446
 20
914.51005677919147
 40
155.49068966427365
 50
234.57966613769534
 51
295.79264831542969
  0
ARC
  8
_0-1_
  6
CONTINUOUS
 62
    7
 10
959.87066320470876
 20
795.07524645006345
 40
10.507658687797754
 50
201.07586669921878
 51
223.8392028808594
  0
ARC
  8
_0-1_
  6
CONTINUOUS
 62
    7
 10
1439.273195008974
 20
751.6199885187923
 40
72.894480421736432
 50
13.791900634765625
 51
161.69851684570312
  0
ARC
  8
_0-1_
  6
CONTINUOUS
 62
    7
 10
1303.1519709406671
 20
911.37412818702501
 40
167.37638421960781
 50
231.9831237792969
 51
298.39506530761719
  0
ARC
  8
_0-1_
  6
CONTINUOUS
 62
    7
 10
1439.273195008974
 20
751.6199885187923
 40
57.894481194985879
 50
25.20538330078125
 51
167.5159912109375
  0
ARC
  8
_0-1_
  6
CONTINUOUS
 62
    7
 10
1302.4095277528504
 20
914.51005677919147
 40
155.49068966427365
 50
234.57966613769534
 51
295.79264831542969
  0
ARC
  8
_0-1_
  6
CONTINUOUS
 62
    7
 10
1219.8706549567146
 20
795.07524645006345
 40
10.507658687797754
 50
201.07586669921878
 51
223.8392028808594
  0
ARC
  8
_0-1_
  6
CONTINUOUS
 62
    7
 10
1563.1519626926731
 20
911.37412818702501
 40
167.37638421960781
 50
231.9831237792969
 51
298.39506530761719
  0
ARC
  8
_0-1_
  6
CONTINUOUS
 62
    7
 10
1562.409395784945
 20
914.51005677919147
 40
155.49068966427365
 50
234.57966613769534
 51
295.79264831542969
  0
ARC
  8
_0-1_
  6
CONTINUOUS
 62
    7
 10
1479.8706467087206
 20
795.07524645006345
 40
10.507658687797754
 50
201.07586669921878
 51
223.8392028808594
  0
ARC
  8
_0-1_
  6
CONTINUOUS
 62
    7
 10
1699.2731867609796
 20
751.6199885187923
 40
57.894481194985879
 50
91.181274414062514
 51
167.5159912109375
  0
ARC
  8
_0-1_
  6
CONTINUOUS
 62
    7
 10
1699.2731867609796
 20
751.6199885187923
 40
72.894480421736432
 50
91.181274414062514
 51
161.69844055175781
  0
ARC
  8
_0-7_
  6
CONTINUOUS
 62
    5
 10
855.07284628378386
 20
831.235916550095
 40
130.56483913112334
 50
177.44996643066406
 51
210.9602966308594
  0
CIRCLE
  8
_0-6_
  6
CONTINUOUS
 62
    7
 10
728.16832258894635
 20
784.85394039669563
 40
0.3530966269003378
  0
CIRCLE
  8
_0-6_
  6
CONTINUOUS
 62
    7
 10
721.45948667784
 20
781.32303598764781
 40
0.3530966269003378
  0
CIRCLE
  8
_0-6_
  6
CONTINUOUS
 62
    7
 10
721.10639005093958
 20
778.85142145930115
 40
0.3530966269003378
  0
CIRCLE
  8
_0-6_
  6
CONTINUOUS
 62
    7
 10
718.98781028953761
 20
785.91323027739668
 40
0.3530966269003378
  0
CIRCLE
  8
_0-6_
  6
CONTINUOUS
 62
    7
 10
726.04974282754438
 20
778.49832483240084
 40
0.3530966269003378
  0
CIRCLE
  8
_0-6_
  6
CONTINUOUS
 62
    7
 10
714.75065076673354
 20
778.85142145930115
 40
0.3530966269003378
  0
CIRCLE
  8
_0-6_
  6
CONTINUOUS
 62
    7
 10
714.75065076673354
 20
783.79471237595021
 40
0.3530966269003378
  0
CIRCLE
  8
_0-6_
  6
CONTINUOUS
 62
    7
 10
724.63735631994291
 20
785.20703702359594
 40
0.3530966269003378
  0
CIRCLE
  8
_0-6_
  6
CONTINUOUS
 62
    7
 10
730.1281078441724
 20
775.97932557801937
 40
0.3530966269003378
  0
CIRCLE
  8
_0-6_
  6
CONTINUOUS
 62
    7
 10
729.77501121727198
 20
773.50771104967282
 40
0.3530966269003378
  0
CIRCLE
  8
_0-6_
  6
CONTINUOUS
 62
    7
 10
727.65643145586989
 20
780.56951986776824
 40
0.3530966269003378
  0
CIRCLE
  8
_0-6_
  6
CONTINUOUS
 62
    7
 10
734.71836399387666
 20
773.1546144227724
 40
0.3530966269003378
  0
CIRCLE
  8
_0-6_
  6
CONTINUOUS
 62
    7
 10
723.41927193306583
 20
773.50771104967282
 40
0.3530966269003378
  0
CIRCLE
  8
_0-6_
  6
CONTINUOUS
 62
    7
 10
723.41927193306583
 20
778.45100196632188
 40
0.3530966269003378
  0
CIRCLE
  8
_0-6_
  6
CONTINUOUS
 62
    7
 10
733.30597748627542
 20
779.86332661396762
 40
0.3530966269003378
  0
CIRCLE
  8
_0-6_
  6
CONTINUOUS
 62
    7
 10
692.90022978911543
 20
762.76678136877103
 40
0.3530966269003378
  0
CIRCLE
  8
_0-6_
  6
CONTINUOUS
 62
    7
 10
686.19139387800885
 20
759.23587695972344
 40
0.3530966269003378
  0
CIRCLE
  8
_0-6_
  6
CONTINUOUS
 62
    7
 10
685.83829725110854
 20
756.76426243137666
 40
0.3530966269003378
  0
CIRCLE
  8
_0-6_
  6
CONTINUOUS
 62
    7
 10
683.71971748970645
 20
763.82607124947208
 40
0.3530966269003378
  0
CIRCLE
  8
_0-6_
  6
CONTINUOUS
 62
    7
 10
690.78165002771334
 20
756.41116580447647
 40
0.3530966269003378
  0
CIRCLE
  8
_0-6_
  6
CONTINUOUS
 62
    7
 10
679.4825579669025
 20
756.76426243137666
 40
0.3530966269003378
  0
CIRCLE
  8
_0-6_
  6
CONTINUOUS
 62
    7
 10
679.4825579669025
 20
761.70755334802584
 40
0.3530966269003378
  0
CIRCLE
  8
_0-6_
  6
CONTINUOUS
 62
    7
 10
689.36926352011199
 20
763.11987799567146
 40
0.3530966269003378
  0
CIRCLE
  8
_0-6_
  6
CONTINUOUS
 62
    7
 10
694.34478347365928
 20
832.35050923115512
 40
0.3530966269003378
  0
CIRCLE
  8
_0-6_
  6
CONTINUOUS
 62
    7
 10
687.63594756255293
 20
828.81960482210729
 40
0.3530966269003378
  0
CIRCLE
  8
_0-6_
  6
CONTINUOUS
 62
    7
 10
687.2828509356525
 20
826.34799029376052
 40
0.3530966269003378
  0
CIRCLE
  8
_0-6_
  6
CONTINUOUS
 62
    7
 10
685.16427117425053
 20
833.40979911185605
 40
0.3530966269003378
  0
CIRCLE
  8
_0-6_
  6
CONTINUOUS
 62
    7
 10
692.22620371225719
 20
825.99489366686032
 40
0.3530966269003378
  0
CIRCLE
  8
_0-6_
  6
CONTINUOUS
 62
    7
 10
680.92711165144635
 20
826.34799029376052
 40
0.3530966269003378
  0
CIRCLE
  8
_0-6_
  6
CONTINUOUS
 62
    7
 10
680.92711165144635
 20
831.29128121040958
 40
0.3530966269003378
  0
CIRCLE
  8
_0-6_
  6
CONTINUOUS
 62
    7
 10
690.81381720465583
 20
832.70360585805531
 40
0.3530966269003378
  0
CIRCLE
  8
_0-6_
  6
CONTINUOUS
 62
    7
 10
703.18778785499376
 20
841.19351361248948
 40
0.3530966269003378
  0
CIRCLE
  8
_0-6_
  6
CONTINUOUS
 62
    7
 10
696.4789519438873
 20
837.66260920344178
 40
0.3530966269003378
  0
CIRCLE
  8
_0-6_
  6
CONTINUOUS
 62
    7
 10
696.12585531698699
 20
835.190994675095
 40
0.3530966269003378
  0
CIRCLE
  8
_0-6_
  6
CONTINUOUS
 62
    7
 10
694.0072755555849
 20
842.25280349319053
 40
0.3530966269003378
  0
CIRCLE
  8
_0-6_
  6
CONTINUOUS
 62
    7
 10
701.06920809359167
 20
834.83789804819469
 40
0.3530966269003378
  0
CIRCLE
  8
_0-6_
  6
CONTINUOUS
 62
    7
 10
689.77011603278083
 20
835.190994675095
 40
0.3530966269003378
  0
CIRCLE
  8
_0-6_
  6
CONTINUOUS
 62
    7
 10
689.77011603278083
 20
840.13428559174417
 40
0.3530966269003378
  0
CIRCLE
  8
_0-6_
  6
CONTINUOUS
 62
    7
 10
699.65682158599043
 20
841.54661023938979
 40
0.3530966269003378
  0
CIRCLE
  8
_0-6_
  6
CONTINUOUS
 62
    7
 10
692.62532414616771
 20
838.49147074931375
 40
0.3530966269003378
  0
CIRCLE
  8
_0-6_
  6
CONTINUOUS
 62
    7
 10
685.91648823506137
 20
834.96056634026615
 40
0.3530966269003378
  0
CIRCLE
  8
_0-6_
  6
CONTINUOUS
 62
    7
 10
685.56339160816094
 20
832.48895181191938
 40
0.3530966269003378
  0
CIRCLE
  8
_0-6_
  6
CONTINUOUS
 62
    7
 10
683.44481184675885
 20
839.55076063001479
 40
0.3530966269003378
  0
CIRCLE
  8
_0-6_
  6
CONTINUOUS
 62
    7
 10
690.50674438476562
 20
832.13585518501895
 40
0.3530966269003378
  0
CIRCLE
  8
_0-6_
  6
CONTINUOUS
 62
    7
 10
679.20765232395479
 20
832.48895181191938
 40
0.3530966269003378
  0
CIRCLE
  8
_0-6_
  6
CONTINUOUS
 62
    7
 10
679.20765232395479
 20
837.43224272856855
 40
0.3530966269003378
  0
CIRCLE
  8
_0-6_
  6
CONTINUOUS
 62
    7
 10
689.09435787716438
 20
838.84456737621417
 40
0.3530966269003378
  0
CIRCLE
  8
_0-6_
  6
CONTINUOUS
 62
    7
 10
693.36219993797511
 20
817.36654333166166
 40
0.3530966269003378
  0
CIRCLE
  8
_0-6_
  6
CONTINUOUS
 62
    7
 10
686.65336402686876
 20
813.83563892261407
 40
0.3530966269003378
  0
CIRCLE
  8
_0-6_
  6
CONTINUOUS
 62
    7
 10
686.30026739996833
 20
811.36402439426729
 40
0.3530966269003378
  0
CIRCLE
  8
_0-6_
  6
CONTINUOUS
 62
    7
 10
684.18168763856625
 20
818.4258332123627
 40
0.3530966269003378
  0
CIRCLE
  8
_0-6_
  6
CONTINUOUS
 62
    7
 10
691.24362017657302
 20
811.01092776736709
 40
0.3530966269003378
  0
CIRCLE
  8
_0-6_
  6
CONTINUOUS
 62
    7
 10
679.9445281157623
 20
811.36402439426729
 40
0.3530966269003378
  0
CIRCLE
  8
_0-6_
  6
CONTINUOUS
 62
    7
 10
679.9445281157623
 20
816.30731531091647
 40
0.3530966269003378
  0
CIRCLE
  8
_0-6_
  6
CONTINUOUS
 62
    7
 10
689.83123366897178
 20
817.71963995856208
 40
0.3530966269003378
  0
CIRCLE
  8
_0-6_
  6
CONTINUOUS
 62
    7
 10
713.50460567989876
 20
808.76918483424834
 40
0.3530966269003378
  0
CIRCLE
  8
_0-6_
  6
CONTINUOUS
 62
    7
 10
706.7957697687923
 20
805.23828042520063
 40
0.3530966269003378
  0
CIRCLE
  8
_0-6_
  6
CONTINUOUS
 62
    7
 10
706.44267314189187
 20
802.76666589685397
 40
0.3530966269003378
  0
CIRCLE
  8
_0-6_
  6
CONTINUOUS
 62
    7
 10
704.32409338048978
 20
809.82847471494938
 40
0.3530966269003378
  0
CIRCLE
  8
_0-6_
  6
CONTINUOUS
 62
    7
 10
711.38602591849667
 20
802.41356926995365
 40
0.3530966269003378
  0
CIRCLE
  8
_0-6_
  6
CONTINUOUS
 62
    7
 10
700.08693385768584
 20
802.76666589685397
 40
0.3530966269003378
  0
CIRCLE
  8
_0-6_
  6
CONTINUOUS
 62
    7
 10
700.08693385768584
 20
807.70995681350303
 40
0.3530966269003378
  0
CIRCLE
  8
_0-6_
  6
CONTINUOUS
 62
    7
 10
709.97363941089532
 20
809.12228146114876
 40
0.3530966269003378
  0
CIRCLE
  8
_0-6_
  6
CONTINUOUS
 62
    7
 10
715.22406500739021
 20
798.9435969172298
 40
0.3530966269003378
  0
CIRCLE
  8
_0-6_
  6
CONTINUOUS
 62
    7
 10
708.51522909628386
 20
795.41269250818209
 40
0.3530966269003378
  0
CIRCLE
  8
_0-6_
  6
CONTINUOUS
 62
    7
 10
708.16213246938344
 20
792.94107797983531
 40
0.3530966269003378
  0
CIRCLE
  8
_0-6_
  6
CONTINUOUS
 62
    7
 10
706.04355270798146
 20
800.00288679793073
 40
0.3530966269003378
  0
CIRCLE
  8
_0-6_
  6
CONTINUOUS
 62
    7
 10
713.10548524598812
 20
792.587981352935
 40
0.3530966269003378
  0
CIRCLE
  8
_0-6_
  6
CONTINUOUS
 62
    7
 10
701.80639318517728
 20
792.94107797983531
 40
0.3530966269003378
  0
CIRCLE
  8
_0-6_
  6
CONTINUOUS
 62
    7
 10
701.80639318517728
 20
797.88436889648437
 40
0.3530966269003378
  0
CIRCLE
  8
_0-6_
  6
CONTINUOUS
 62
    7
 10
711.69309873838688
 20
799.29669354413011
 40
0.3530966269003378
  0
CIRCLE
  8
_0-6_
  6
CONTINUOUS
 62
    7
 10
718.17175375448699
 20
795.25903237832563
 40
0.3530966269003378
  0
CIRCLE
  8
_0-6_
  6
CONTINUOUS
 62
    7
 10
711.46291784338041
 20
791.72812796927792
 40
0.3530966269003378
  0
CIRCLE
  8
_0-6_
  6
CONTINUOUS
 62
    7
 10
711.10982121648021
 20
789.25651344093126
 40
0.3530966269003378
  0
CIRCLE
  8
_0-6_
  6
CONTINUOUS
 62
    7
 10
708.99124145507812
 20
796.31832225902667
 40
0.3530966269003378
  0
CIRCLE
  8
_0-6_
  6
CONTINUOUS
 62
    7
 10
716.0531739930849
 20
788.90341681403083
 40
0.3530966269003378
  0
CIRCLE
  8
_0-6_
  6
CONTINUOUS
 62
    7
 10
704.75408193227406
 20
789.25651344093126
 40
0.3530966269003378
  0
CIRCLE
  8
_0-6_
  6
CONTINUOUS
 62
    7
 10
704.75408193227406
 20
794.19980435758032
 40
0.3530966269003378
  0
CIRCLE
  8
_0-6_
  6
CONTINUOUS
 62
    7
 10
714.64078748548354
 20
795.61212900522594
 40
0.3530966269003378
  0
CIRCLE
  8
_0-6_
  6
CONTINUOUS
 62
    7
 10
709.57439525707355
 20
805.08455843538854
 40
0.3530966269003378
  0
CIRCLE
  8
_0-6_
  6
CONTINUOUS
 62
    7
 10
702.86555934596709
 20
801.55365402634084
 40
0.3530966269003378
  0
CIRCLE
  8
_0-6_
  6
CONTINUOUS
 62
    7
 10
702.51246271906678
 20
799.08203949799417
 40
0.3530966269003378
  0
CIRCLE
  8
_0-6_
  6
CONTINUOUS
 62
    7
 10
700.39388295766469
 20
806.14384831608959
 40
0.3530966269003378
  0
CIRCLE
  8
_0-6_
  6
CONTINUOUS
 62
    7
 10
707.45581549567146
 20
798.72894287109375
 40
0.3530966269003378
  0
CIRCLE
  8
_0-6_
  6
CONTINUOUS
 62
    7
 10
696.15672343486062
 20
799.08203949799417
 40
0.3530966269003378
  0
CIRCLE
  8
_0-6_
  6
CONTINUOUS
 62
    7
 10
696.15672343486062
 20
804.02533041464324
 40
0.3530966269003378
  0
CIRCLE
  8
_0-6_
  6
CONTINUOUS
 62
    7
 10
706.04342898807022
 20
805.43765506228897
 40
0.3530966269003378
  0
CIRCLE
  8
_0-6_
  6
CONTINUOUS
 62
    7
 10
702.45085020323063
 20
817.61212735562719
 40
0.3530966269003378
  0
CIRCLE
  8
_0-6_
  6
CONTINUOUS
 62
    7
 10
695.74201429212417
 20
814.08122294657937
 40
0.3530966269003378
  0
CIRCLE
  8
_0-6_
  6
CONTINUOUS
 62
    7
 10
695.38891766522386
 20
811.60960841823271
 40
0.3530966269003378
  0
CIRCLE
  8
_0-6_
  6
CONTINUOUS
 62
    7
 10
693.27033790382188
 20
818.67141723632812
 40
0.3530966269003378
  0
CIRCLE
  8
_0-6_
  6
CONTINUOUS
 62
    7
 10
700.33227044182865
 20
811.2565117913324
 40
0.3530966269003378
  0
CIRCLE
  8
_0-6_
  6
CONTINUOUS
 62
    7
 10
689.03317838101771
 20
811.60960841823271
 40
0.3530966269003378
  0
CIRCLE
  8
_0-6_
  6
CONTINUOUS
 62
    7
 10
689.03317838101771
 20
816.55289933488177
 40
0.3530966269003378
  0
CIRCLE
  8
_0-6_
  6
CONTINUOUS
 62
    7
 10
698.91988393422719
 20
817.9652239825275
 40
0.3530966269003378
  0
TEXT
  8
_1-0_
 62
    7
 10
717.5675778775601
 20
145.94594594594597
 40
12.5
 41
1
 50
0
  1
図名
  0
TEXT
  8
_1-0_
 62
    7
 10
717.5675778775601
 20
97.297297297297263
 40
12.5
 41
1
 50
0
  1
縮尺
  0
TEXT
  8
_1-0_
 62
    7
 10
1893.6189599939298
 20
138.65179113439609
 40
12.5
 41
1
 50
0
  1
ＮＯ
  0
TEXT
  8
_1-0_
 62
    7
 10
81.081079792332105
 20
145.94594594594597
 40
12.5
 41
1
 50
0
  1
Ｓ型
  0
TEXT
  8
_1-0_
 62
    7
 10
135.88908169720625
 20
125.3822120460304
 40
12.5
 41
1
 50
0
  1
木造
  0
TEXT
  8
_1-0_
 62
    7
 10
1927.7262301058386
 20
115.24704598091745
 40
12.5
 41
1
 50
0
  1
Ｓ
  0
TEXT
  8
_0-7_
 62
    7
 10
1991.8601164946688
 20
99.02956163561015
 40
12.5
 41
1
 50
0
  1
6
  0
TEXT
  8
_0-7_
 62
    7
 10
206.71764837728972
 20
101.30050246779987
 40
12.5
 41
1
 50
0
  1
壁際
  0
TEXT
  8
_0-7_
 62
    7
 10
257.32286556346992
 20
101.30050246779987
 40
12.5
 41
1
 50
0
  1
2
  0
TEXT
  8
_0-7_
 62
    7
 10
826.05656804265209
 20
93.963269929628126
 40
12.5
 41
1
 50
0
  1
1/5
  0
TEXT
  8
_0-7_
 62
    7
 10
537.61491517762886
 20
788.873291015625
 40
12.5
 41
1
 50
90
  1
150
  0
TEXT
  8
_0-7_
 62
    7
 10
723.01792454075166
 20
557.31873383393167
 40
12.5
 41
1
 50
0
  1
120
  0
TEXT
  8
_0-7_
 62
    7
 10
856.76979889740824
 20
473.0567210429424
 40
12.5
 41
1
 50
0
  1
捨谷
  0
TEXT
  8
_0-5_
 62
    7
 10
1139.0555923049515
 20
920.96576175174209
 40
12.5
 41
1
 50
0
  1
Ｓ　桟瓦
  0
TEXT
  8
_0-5_
 62
    7
 10
1390.1008399757179
 20
472.9002772150813
 40
12.5
 41
1
 50
0
  1
瓦桟　
  0
TEXT
  8
_0-5_
 62
    7
 10
1390.1008399757179
 20
412.90026484309016
 40
12.5
 41
1
 50
0
  1
野地板
  0
TEXT
  8
_0-5_
 62
    7
 10
1455.8422604122677
 20
412.90026484309016
 40
12.5
 41
1
 50
0
  1
ｔ＝12
  0
TEXT
  8
_0-5_
 62
    7
 10
1390.1008193557327
 20
392.90026071909318
 40
12.5
 41
1
 50
0
  1
垂木
  0
TEXT
  8
_0-7_
 62
    7
 10
1390.1008399757179
 20
452.90027309108427
 40
12.5
 41
1
 50
0
  1
流し桟
  0
TEXT
  8
_0-7_
 62
    7
 10
1390.1008605957031
 20
432.90026896708724
 40
12.5
 41
1
 50
0
  1
下葺き材
  0
TEXT
  8
_0-7_
 62
    7
 10
1456.7890682735958
 20
431.89393120843016
 40
12.5
 41
1
 50
0
  1
ゴムアス系ルーフィング
  0
TEXT
  8
_0-7_
 62
    7
 10
1455.8422604122677
 20
392.90026071909318
 40
12.5
 41
1
 50
0
  1
60ｘ60
  0
TEXT
  8
_0-7_
 62
    7
 10
1616.5915411871833
 20
473.08545499234589
 40
12.5
 41
1
 50
0
  1
※　地域により瓦桟木の大きさは、異なります
  0
TEXT
  8
_0-7_
 62
    7
 10
1451.8878215068096
 20
473.28810820708406
 40
12.5
 41
1
 50
0
  1
15×30　以上　（防腐処理）
  0
TEXT
  8
_0-7_
 62
    7
 10
737.21442351470137
 20
1112.4916695259712
 40
12.5
 41
1
 50
0
  1
外壁
  0
TEXT
  8
_0-7_
 62
    7
 10
538.75765413851354
 20
947.23230310388522
 40
12.5
 41
1
 50
90
  1
150
  0
TEXT
  8
_0-7_
 62
    7
 10
795.03579010834574
 20
964.04905576963688
 40
12.5
 41
1
 50
0
  1
雨押え板　15ｘ90
  0
TEXT
  8
_0-7_
 62
    7
 10
790.85251060692042
 20
1039.0960693359375
 40
12.5
 41
1
 50
0
  1
水切り鉄板
  0
TEXT
  8
_0-7_
 62
    7
 10
826.94864015321491
 20
916.35923643369938
 40
12.5
 41
1
 50
0
  1
面土漆喰
  0
TEXT
  8
_0-7_
 62
    7
 10
845.12323946566198
 20
901.49899044552376
 40
12.5
 41
1
 50
0
  1
及び葺き土
  0
TEXT
  8
_0-7_
 62
    7
 10
539.54191465635563
 20
1051.5000008247994
 40
12.5
 41
1
 50
90
  1
50
  0
TEXT
  8
_0-7_
 62
    7
 10
324.33252592344547
 20
829.69362413561032
 40
12.5
 41
1
 50
0
  1
下葺き材立上がり寸法
  0
TEXT
  8
_0-7_
 62
    7
 10
307.83889770507813
 20
1247.2992355759079
 40
15
 41
1
 50
0
  1
下葺き材立上げ長さは、300ｍｍ以上かつ
  0
TEXT
  8
_0-7_
 62
    7
 10
309.7720130714211
 20
1219.0637536951015
 40
15
 41
1
 50
0
  1
雨押え板上端より50mm以上とする
  0
TEXT
  8
_0-7_
 62
    7
 10
401.57577411548516
 20
1147.9999026736698
 40
12.5
 41
1
 50
0
  1
水切鉄板上端より
  0
TEXT
  8
_0-7_
 62
    7
 10
404.01033453039219
 20
1134.3663396062079
 40
12.5
 41
1
 50
0
  1
50ｍｍ以上
  0
TEXT
  8
_0-7_
 62
    7
 10
350.5833290718698
 20
1103.577031315984
 40
12.5
 41
1
 50
0
  1
水切り鉄板立上がり寸法
  0
TEXT
  8
_0-7_
 62
    7
 10
456.88461097511089
 20
877.87385889001803
 40
12.5
 41
1
 50
90
  1
300 以上
  0
POINT
  8
_0-7_
 62
    7
 10
542.04192290434969
 20
722.99769633525125
  0
POINT
  8
_0-7_
 62
    7
 10
790.71127401815886
 20
554.8187255859375
  0
POINT
  8
_0-7_
 62
    7
 10
674.0745750633447
 20
554.8187255859375
  0
POINT
  8
_0-7_
 62
    7
 10
459.38458829312714
 20
722.99769633525125
  0
POINT
  8
_0-7_
 62
    7
 10
542.04192290434969
 20
850.40489402977198
  0
POINT
  8
_0-7_
 62
    7
 10
542.04192290434969
 20
882.7500420647699
  0
POINT
  8
_0-7_
 62
    7
 10
542.04192290434969
 20
1032.7499802048142
  0
POINT
  8
_0-7_
 62
    7
 10
542.04192290434969
 20
1032.7499802048142
  0
POINT
  8
_0-7_
 62
    7
 10
542.04192290434969
 20
1082.7500214447846
  0
POINT
  8
_0-7_
 62
    7
 10
459.38458829312714
 20
1082.7500214447846
  0
ENDSEC
  0
EOF
