  0
SECTION
  2
HEADER
  9
$ACADVER
  1
AC1009
  9
$INSBASE
 10
0
 20
0
 30
0
  9
$EXTMIN
 10
0
 20
0
  9
$EXTMAX
 10
420
 20
297
  9
$LIMMIN
 10
0
 20
0
  9
$LIMMAX
 10
420
 20
297
  9
$LTSCALE
 40
1
  0
ENDSEC
  0
SECTION
  2
TABLES
  0
TABLE
  2
LTYPE
 70
     9
  0
LTYPE
  2
CONTINUOUS
 70
    64
  3
実線
 72
    65
 73
     0
 40
0.0
  0
LTYPE
  2
DASHED1
 70
    64
  3
--  --  --  --  --  --  --  --  
 72
    65
 73
     2
 40
2.5
 49
1.25
 49
-1.25
  0
LTYPE
  2
DASHED2
 70
    64
  3
----    ----    ----    ----    
 72
    65
 73
     2
 40
5.0
 49
2.5
 49
-2.5
  0
LTYPE
  2
DASHED3
 70
    64
  3
------  ------  ------  ------  
 72
    65
 73
     2
 40
5.0
 49
3.75
 49
-1.25
  0
LTYPE
  2
CENTER1
 70
    64
  3
----- - ----- - ----- - ----- - 
 72
    65
 73
     4
 40
10.0
 49
6.25
 49
-1.25
 49
1.25
 49
-1.25
  0
LTYPE
  2
CENTER2
 70
    64
  3
----------  --  ----------  --  
 72
    65
 73
     4
 40
20.0
 49
12.5
 49
-2.5
 49
2.5
 49
-2.5
  0
LTYPE
  2
PHANTOM1
 70
    64
  3
--- - - --- - - --- - - --- - - 
 72
    65
 73
     6
 40
10.0
 49
3.25
 49
-1.25
 49
1.25
 49
-1.25
 49
1.25
 49
-1.25
  0
LTYPE
  2
PHANTOM2
 70
    64
  3
--------  -  -  --------  -  -  
 72
    65
 73
     6
 40
20.0
 49
10.0
 49
-2.5
 49
1.25
 49
-2.5
 49
1.25
 49
-2.5
  0
LTYPE
  2
DOT
 70
    64
  3
-   -   -   -   -   -   -   -   
 72
    65
 73
     2
 40
2.5
 49
0.625
 49
-1.875
  0
LTYPE
  2
DUMMY
 70
    64
  3
ダミー
 72
    65
 73
     0
 40
0.0
  0
LTYPE
  2
RAND1
 70
    64
  3
ランダム線1
 72
    65
 73
     4
 40
10.0
 49
1.0
 49
-2.0
 49
3.0
 49
-4.0
  0
LTYPE
  2
RAND2
 70
    64
  3
ランダム線2
 72
    65
 73
     4
 40
14.0
 49
2.0
 49
-3.0
 49
4.0
 49
-5.0
  0
LTYPE
  2
RAND3
 70
    64
  3
ランダム線3
 72
    65
 73
     4
 40
18.0
 49
3.0
 49
-4.0
 49
5.0
 49
-6.0
  0
LTYPE
  2
RAND4
 70
    64
  3
ランダム線4
 72
    65
 73
     4
 40
22.0
 49
4.0
 49
-5.0
 49
6.0
 49
-7.0
  0
LTYPE
  2
RAND5
 70
    64
  3
ランダム線5
 72
    65
 73
     4
 40
26.0
 49
5.0
 49
-6.0
 49
7.0
 49
-8.0
  0
LTYPE
  2
LONG1
 70
    64
  3
----------  --  ----------  --  
 72
    65
 73
     4
 40
40.0
 49
32.5
 49
-2.5
 49
2.5
 49
-2.5
  0
LTYPE
  2
LONG2
 70
    64
  3
--------  -  -  --------  -  -  
 72
    65
 73
     6
 40
40.0
 49
30.0
 49
-2.5
 49
1.25
 49
-2.5
 49
1.25
 49
-2.5
  0
LTYPE
  2
LONG3
 70
    64
  3
+++++++++++++++..+++++++++++++++
 72
    65
 73
     2
 40
40.0
 49
37.5
 49
-2.5
  0
LTYPE
  2
LONG4
 70
    64
  3
+++++++++++++++..+++++++++++++++
 72
    65
 73
     2
 40
80.0
 49
75.0
 49
-5.0
  0
LTYPE
  2
LONG5
 70
    64
  3
----------  --  ----------  --  
 72
    65
 73
     4
 40
60.0
 49
37.5
 49
-7.5
 49
7.5
 49
-7.5
  0
LTYPE
  2
dashed
 70
   64
  3
-------   -------------   ------
 72
   65
 73
    2
 40
7.5
 49
6
 49
-1.5
  0
LTYPE
  2
dashed_spaced
 70
   64
  3
----        --------        ----
 72
   65
 73
    2
 40
12
 49
6
 49
-6
  0
LTYPE
  2
long_dashed_dotted
 70
   64
  3
------------- --- --------------
 72
   65
 73
    4
 40
15.25
 49
12
 49
-1.5
 49
0.25
 49
-1.5
  0
LTYPE
  2
long_dashed_double-dotted
 70
   64
  3
----------- --- --- ------------
 72
   65
 73
    6
 40
17
 49
12
 49
-1.5
 49
0.25
 49
-1.5
 49
0.25
 49
-1.5
  0
LTYPE
  2
long_dashed_triplicate-dotted
 70
   64
  3
--------- --- --- --- ----------
 72
   65
 73
    8
 40
18.75
 49
12
 49
-1.5
 49
0.25
 49
-1.5
 49
0.25
 49
-1.5
 49
0.25
 49
-1.5
  0
LTYPE
  2
dotted
 70
   64
  3
   -       -       -       -    
 72
   65
 73
    2
 40
1.75
 49
0.25
 49
-1.5
  0
LTYPE
  2
chain
 70
   64
  3
-------------- -- --------------
 72
   65
 73
    4
 40
18.5
 49
12
 49
-1.5
 49
3.5
 49
-1.5
  0
LTYPE
  2
chain_double_dash
 70
   64
  3
------------ -- -- -------------
 72
   65
 73
    6
 40
23.5
 49
12
 49
-1.5
 49
3.5
 49
-1.5
 49
3.5
 49
-1.5
  0
LTYPE
  2
dashed_dotted
 70
   64
  3
-----------     -     ----------
 72
   65
 73
    4
 40
9.25
 49
6
 49
-1.5
 49
0.25
 49
-1.5
  0
LTYPE
  2
double-dashed_dotted
 70
   64
  3
------   -----------   -   -----
 72
   65
 73
    6
 40
16.75
 49
6
 49
-1.5
 49
6
 49
-1.5
 49
0.25
 49
-1.5
  0
LTYPE
  2
dashed_double-dotted
 70
   64
  3
---------    -    -    ---------
 72
   65
 73
    6
 40
11
 49
6
 49
-1.5
 49
0.25
 49
-1.5
 49
0.25
 49
-1.5
  0
LTYPE
  2
double-dashed_double-dotted
 70
   64
  3
-----   ---------   -   -   ----
 72
   65
 73
    8
 40
18.5
 49
6
 49
-1.5
 49
6
 49
-1.5
 49
0.25
 49
-1.5
 49
0.25
 49
-1.5
  0
LTYPE
  2
dashed_triplicate-dotted
 70
   64
  3
-------    -    -    -    ------
 72
   65
 73
    8
 40
12.75
 49
6
 49
-1.5
 49
0.25
 49
-1.5
 49
0.25
 49
-1.5
 49
0.25
 49
-1.5
  0
LTYPE
  2
double-dashed_triplicate-dotted
 70
   64
  3
-----  ---------  -  -  -  -----
 72
   65
 73
   10
 40
20.25
 49
6
 49
-1.5
 49
6
 49
-1.5
 49
0.25
 49
-1.5
 49
0.25
 49
-1.5
 49
0.25
 49
-1.5
  0
LTYPE
  2
undefined
 70
   64
  3
--------------------------------
 72
   65
 73
    0
 40
0
  0
LTYPE
  2
DOT_17
 70
   64
  3
--             ---             -
 72
   65
 73
    2
 40
5
 49
1
 49
-4
  0
LTYPE
  2
DASHED
 70
   64
  3
---          ------          ---
 72
   65
 73
    2
 40
5
 49
2
 49
-3
  0
LTYPE
  2
DASHED2_19
 70
   64
  3
---          ------          ---
 72
   65
 73
    2
 40
10
 49
4
 49
-6
  0
LTYPE
  2
CENTER
 70
   64
  3
----------    ----    ----------
 72
   65
 73
    4
 40
9
 49
6
 49
-1
 49
1
 49
-1
  0
LTYPE
  2
CENTER2_21
 70
   64
  3
----------    ----    ----------
 72
   65
 73
    4
 40
18
 49
12
 49
-2
 49
2
 49
-2
  0
LTYPE
  2
PHANTOM
 70
   64
  3
---------   ---   ---   --------
 72
   65
 73
    6
 40
10
 49
5
 49
-1
 49
1
 49
-1
 49
1
 49
-1
  0
LTYPE
  2
PHANTOM2_23
 70
   64
  3
------    ----    ----    ------
 72
   65
 73
    6
 40
16
 49
6
 49
-2
 49
2
 49
-2
 49
2
 49
-2
  0
LTYPE
  2
HIDDEN
 70
   64
  3
--             ---             -
 72
   65
 73
    2
 40
2.5
 49
0.5
 49
-2
  0
ENDTAB
  0
TABLE
  2
STYLE
  5
3
100
AcDbSymbolTable
 70
     1
  0
STYLE
  5
10
100
AcDbSymbolTableRecord
100
AcDbTextStyleTableRecord
  2
STANDARD
 70
     0
 40
0.0
 41
1.0
 50
0.0
 71
     0
 42
0.2
  3
txt
  4
bigfont.shx
  0
STYLE
  5
26
100
AcDbSymbolTableRecord
100
AcDbTextStyleTableRecord
  2
TATEGAKI
 70
    68
 40
0.0
 41
1.0
 50
0.0
 71
     0
 42
1.0
  3
txt
  4
bigfont.shx
  0
ENDTAB
  0
TABLE
  2
LAYER
 70
    7
  0
LAYER
  2
_0-0_
 70
   64
 62
    7
  6
CONTINUOUS
  0
LAYER
  2
_0-1_
 70
   64
 62
    7
  6
CONTINUOUS
  0
LAYER
  2
_1-0_
 70
   64
 62
    7
  6
CONTINUOUS
  0
LAYER
  2
_1-1_
 70
   64
 62
    7
  6
CONTINUOUS
  0
LAYER
  2
_1-2_
 70
   64
 62
    7
  6
CONTINUOUS
  0
LAYER
  2
_1-4_
 70
   64
 62
    7
  6
CONTINUOUS
  0
LAYER
  2
ADD_LINE
 70
   64
 62
    7
  6
CONTINUOUS
  0
ENDTAB
  0
ENDSEC
  0
SECTION
  2
BLOCKS
  0
ENDSEC
  0
SECTION
  2
ENTITIES
  0
LINE
  8
_0-0_
  6
CONTINUOUS
 62
    5
 10
12.432428308435391
 20
278.51351351351354
 11
412.43244892842063
 21
278.51351351351354
  0
LINE
  8
_0-0_
  6
CONTINUOUS
 62
    5
 10
412.43244892842063
 20
28.513511451515001
 11
12.432415936444272
 21
28.513511451515001
  0
LINE
  8
_0-0_
  6
CONTINUOUS
 62
    5
 10
377.43248192039698
 20
8.5135135135135158
 11
377.43248192039698
 21
28.513511451515001
  0
LINE
  8
_0-0_
  6
CONTINUOUS
 62
    5
 10
142.70271507469386
 20
28.513511451515001
 11
142.70271507469386
 21
8.5135135135135158
  0
LINE
  8
_0-0_
  6
CONTINUOUS
 62
    5
 10
220.54054054054055
 20
28.513511451515001
 11
220.54054054054055
 21
8.5135135135135158
  0
LINE
  8
_0-0_
  6
CONTINUOUS
 62
    5
 10
142.70271507469386
 20
18.513512482514244
 11
220.54054054054055
 21
18.513512482514244
  0
LINE
  8
_0-0_
  6
CONTINUOUS
 62
    5
 10
402.16218690614443
 20
24.324325870823216
 11
389.59456985061234
 21
11.756758303255651
  0
LINE
  8
_1-0_
  6
CONTINUOUS
 62
    7
 10
72.270268620671459
 20
178.45946440825591
 11
80.27027027027026
 21
178.45946440825591
  0
LINE
  8
_1-0_
  6
CONTINUOUS
 62
    7
 10
80.27027027027026
 20
178.45946440825591
 11
80.27027027027026
 21
155.05945154138513
  0
LINE
  8
_1-0_
  6
CONTINUOUS
 62
    7
 10
80.27027027027026
 20
169.45945945945948
 11
391.09257053684547
 21
169.45945945945948
  0
LINE
  8
_1-0_
  6
CONTINUOUS
 62
    7
 10
86.870269775390625
 20
170.65946836729307
 11
391.09257053684547
 21
170.65946836729307
  0
LINE
  8
_1-0_
  6
CONTINUOUS
 62
    7
 10
86.870269775390625
 20
171.2594728212099
 11
391.09259528082771
 21
171.2594728212099
  0
LINE
  8
_1-0_
  6
CONTINUOUS
 62
    7
 10
86.870269775390625
 20
171.2594728212099
 11
86.870269775390625
 21
170.65946836729307
  0
LINE
  8
_1-0_
  6
CONTINUOUS
 62
    2
 10
81.181257093274922
 20
170.48158387880068
 11
86.440571965398021
 21
170.48158387880068
  0
LINE
  8
_1-0_
  6
CONTINUOUS
 62
    2
 10
86.440571965398021
 20
170.48158387880068
 11
86.440571965398021
 21
172.73556271114865
  0
LINE
  8
_1-0_
  6
CONTINUOUS
 62
    7
 10
72.270268620671459
 20
148.63779428842906
 11
78.574274423960105
 21
154.94180627771325
  0
LINE
  8
_1-0_
  6
CONTINUOUS
 62
    7
 10
78.69191968763198
 20
155.05945154138513
 11
80.27027027027026
 21
156.63779593802789
  0
LINE
  8
_1-0_
  6
CONTINUOUS
 62
    7
 10
72.270268620671459
 20
151.46621704101562
 11
80.27027027027026
 21
159.46623106260557
  0
LINE
  8
_1-0_
  6
CONTINUOUS
 62
    7
 10
72.270268620671459
 20
154.29465216559333
 11
80.27027027027026
 21
162.29465381519216
  0
LINE
  8
_1-0_
  6
CONTINUOUS
 62
    7
 10
72.270268620671459
 20
157.1230749181799
 11
80.27027027027026
 21
165.12307656777872
  0
LINE
  8
_1-0_
  6
CONTINUOUS
 62
    7
 10
72.270268620671459
 20
159.9515100427576
 11
80.27027027027026
 21
167.95151169235643
  0
LINE
  8
_1-0_
  6
CONTINUOUS
 62
    7
 10
72.270268620671459
 20
162.77993279534419
 11
80.27027027027026
 21
170.77994681693414
  0
LINE
  8
_1-0_
  6
CONTINUOUS
 62
    7
 10
72.270268620671459
 20
165.60836791992187
 11
80.27027027027026
 21
173.60835719752956
  0
LINE
  8
_1-0_
  6
CONTINUOUS
 62
    7
 10
72.270268620671459
 20
168.43679067250847
 11
80.27027027027026
 21
176.43679232210727
  0
LINE
  8
_1-0_
  6
CONTINUOUS
 62
    7
 10
72.270268620671459
 20
171.26521342509503
 11
79.46451341783677
 21
178.45946440825591
  0
LINE
  8
_1-0_
  6
CONTINUOUS
 62
    7
 10
72.270268620671459
 20
174.09364854967274
 11
76.636090665250208
 21
178.45946440825591
  0
LINE
  8
_1-0_
  6
CONTINUOUS
 62
    7
 10
72.270268620671459
 20
176.9220713022593
 11
73.807661726668073
 21
178.45946440825591
  0
LINE
  8
_1-0_
  6
CONTINUOUS
 62
    7
 10
86.870269775390625
 20
174.25947034681167
 11
86.870269775390625
 21
171.2594728212099
  0
LINE
  8
_1-0_
  6
CONTINUOUS
 62
    2
 10
86.440571965398021
 20
172.73556271114865
 11
86.440571965398021
 21
174.10540194124789
  0
LINE
  8
_1-0_
  6
CONTINUOUS
 62
    2
 10
86.440571965398021
 20
174.10540194124789
 11
85.384523546373529
 21
174.10540194124789
  0
LINE
  8
_1-0_
  6
CONTINUOUS
 62
    7
 10
86.870269775390625
 20
170.65946836729307
 11
86.870269775390625
 21
171.2594728212099
  0
LINE
  8
_1-0_
  6
CONTINUOUS
 62
    7
 10
86.870269775390625
 20
171.2594728212099
 11
91.670268290751693
 21
171.2594728212099
  0
LINE
  8
_1-0_
  6
CONTINUOUS
 62
    7
 10
91.670268290751693
 20
171.2594728212099
 11
91.670268290751693
 21
170.65946836729307
  0
LINE
  8
_1-0_
  6
CONTINUOUS
 62
    7
 10
91.670268290751693
 20
170.65946836729307
 11
86.870269775390625
 21
170.65946836729307
  0
LINE
  8
_1-0_
  6
CONTINUOUS
 62
    7
 10
86.870269775390625
 20
171.2594728212099
 11
91.670268290751693
 21
170.65946836729307
  0
LINE
  8
_1-0_
  6
CONTINUOUS
 62
    7
 10
147.47027422930745
 20
170.65946836729307
 11
147.47027422930745
 21
171.2594728212099
  0
LINE
  8
_1-0_
  6
CONTINUOUS
 62
    7
 10
147.47027422930745
 20
171.2594728212099
 11
152.27027274466852
 21
171.2594728212099
  0
LINE
  8
_1-0_
  6
CONTINUOUS
 62
    7
 10
152.27027274466852
 20
171.2594728212099
 11
152.27027274466852
 21
170.65946836729307
  0
LINE
  8
_1-0_
  6
CONTINUOUS
 62
    7
 10
152.27027274466852
 20
170.65946836729307
 11
147.47027422930745
 21
170.65946836729307
  0
LINE
  8
_1-0_
  6
CONTINUOUS
 62
    7
 10
147.47027422930745
 20
171.2594728212099
 11
152.27027274466852
 21
170.65946836729307
  0
LINE
  8
_1-0_
  6
CONTINUOUS
 62
    7
 10
208.07026631123313
 20
170.65946836729307
 11
208.07026631123313
 21
171.2594728212099
  0
LINE
  8
_1-0_
  6
CONTINUOUS
 62
    7
 10
208.07026631123313
 20
171.2594728212099
 11
212.87025245460305
 21
171.2594728212099
  0
LINE
  8
_1-0_
  6
CONTINUOUS
 62
    7
 10
212.87025245460305
 20
171.2594728212099
 11
212.87025245460305
 21
170.65946836729307
  0
LINE
  8
_1-0_
  6
CONTINUOUS
 62
    7
 10
212.87025245460305
 20
170.65946836729307
 11
208.07026631123313
 21
170.65946836729307
  0
LINE
  8
_1-0_
  6
CONTINUOUS
 62
    7
 10
208.07026631123313
 20
171.2594728212099
 11
212.87025245460305
 21
170.65946836729307
  0
LINE
  8
_1-0_
  6
CONTINUOUS
 62
    7
 10
268.6702583931588
 20
170.65946836729307
 11
268.6702583931588
 21
171.2594728212099
  0
LINE
  8
_1-0_
  6
CONTINUOUS
 62
    7
 10
268.6702583931588
 20
171.2594728212099
 11
273.47024453652875
 21
171.2594728212099
  0
LINE
  8
_1-0_
  6
CONTINUOUS
 62
    7
 10
273.47024453652875
 20
171.2594728212099
 11
273.47024453652875
 21
170.65946836729307
  0
LINE
  8
_1-0_
  6
CONTINUOUS
 62
    7
 10
273.47024453652875
 20
170.65946836729307
 11
268.6702583931588
 21
170.65946836729307
  0
LINE
  8
_1-0_
  6
CONTINUOUS
 62
    7
 10
268.6702583931588
 20
171.2594728212099
 11
273.47024453652875
 21
170.65946836729307
  0
LINE
  8
_1-0_
  6
CONTINUOUS
 62
    7
 10
329.27025047508448
 20
170.65946836729307
 11
329.27025047508448
 21
171.2594728212099
  0
LINE
  8
_1-0_
  6
CONTINUOUS
 62
    7
 10
329.27025047508448
 20
171.2594728212099
 11
334.07023661845443
 21
171.2594728212099
  0
LINE
  8
_1-0_
  6
CONTINUOUS
 62
    7
 10
334.07023661845443
 20
171.2594728212099
 11
334.07023661845443
 21
170.65946836729307
  0
LINE
  8
_1-0_
  6
CONTINUOUS
 62
    7
 10
334.07023661845443
 20
170.65946836729307
 11
329.27025047508448
 21
170.65946836729307
  0
LINE
  8
_1-0_
  6
CONTINUOUS
 62
    7
 10
329.27025047508448
 20
171.2594728212099
 11
334.07023661845443
 21
170.65946836729307
  0
LINE
  8
_1-0_
  6
CONTINUOUS
 62
    7
 10
389.87024255701016
 20
170.65946836729307
 11
389.87024255701016
 21
171.2594728212099
  0
LINE
  8
_1-0_
  6
CONTINUOUS
 62
    7
 10
391.09259528082771
 20
170.65946836729307
 11
389.87024255701016
 21
170.65946836729307
  0
LINE
  8
_1-0_
  6
CONTINUOUS
 62
    7
 10
389.87024255701016
 20
171.2594728212099
 11
391.09257053684547
 21
171.10667873073268
  0
LINE
  8
_1-0_
  6
CONTINUOUS
 62
    7
 10
389.87024255701016
 20
171.2594728212099
 11
391.09259528082771
 21
171.2594728212099
  0
LINE
  8
_1-1_
  6
CONTINUOUS
 62
    3
 10
81.270267383472344
 20
176.8594690271326
 11
81.270267383472344
 21
174.25947034681167
  0
LINE
  8
_1-1_
  6
CONTINUOUS
 62
    3
 10
89.070263424435183
 20
179.85947892472552
 11
89.070263424435183
 21
176.25947694520693
  0
LINE
  8
_1-1_
  6
CONTINUOUS
 62
    3
 10
150.27025377428211
 20
179.85947892472552
 11
150.27025377428211
 21
177.45947348104943
  0
LINE
  8
_1-1_
  6
CONTINUOUS
 62
    3
 10
81.270267383472344
 20
174.25947034681167
 11
139.27024222709039
 21
174.25947034681167
  0
LINE
  8
_1-1_
  6
CONTINUOUS
 62
    3
 10
89.070263424435183
 20
179.85947892472552
 11
90.270284704259936
 21
179.85947892472552
  0
LINE
  8
_1-1_
  6
CONTINUOUS
 62
    3
 10
140.40804476351352
 20
179.85947892472552
 11
150.27025377428211
 21
179.85947892472552
  0
LINE
  8
_1-1_
  6
CONTINUOUS
 62
    3
 10
142.27025212468328
 20
177.45947348104943
 11
139.27024222709039
 21
174.25947034681167
  0
LINE
  8
_1-1_
  6
CONTINUOUS
 62
    3
 10
148.6702583931588
 20
177.45947348104943
 11
148.6702583931588
 21
177.05947463576859
  0
LINE
  8
_1-1_
  6
CONTINUOUS
 62
    3
 10
147.87026070259714
 20
177.45947348104943
 11
147.87026070259714
 21
177.05947463576859
  0
LINE
  8
_1-1_
  6
CONTINUOUS
 62
    3
 10
146.27026532147383
 20
177.45947348104943
 11
146.27026532147383
 21
177.05947463576859
  0
LINE
  8
_1-1_
  6
CONTINUOUS
 62
    3
 10
145.47026763091216
 20
177.45947348104943
 11
145.47026763091216
 21
177.05947463576859
  0
LINE
  8
_1-1_
  6
CONTINUOUS
 62
    3
 10
142.27025212468328
 20
177.45947348104943
 11
145.47026763091216
 21
177.45947348104943
  0
LINE
  8
_1-1_
  6
CONTINUOUS
 62
    3
 10
146.27026532147383
 20
177.45947348104943
 11
147.87026070259714
 21
177.45947348104943
  0
LINE
  8
_1-1_
  6
CONTINUOUS
 62
    3
 10
148.6702583931588
 20
177.45947348104943
 11
150.27025377428211
 21
177.45947348104943
  0
LINE
  8
_1-1_
  6
CONTINUOUS
 62
    3
 10
145.47026763091216
 20
177.05947463576859
 11
146.27026532147383
 21
177.05947463576859
  0
LINE
  8
_1-1_
  6
CONTINUOUS
 62
    3
 10
147.87026070259714
 20
177.05947463576859
 11
148.6702583931588
 21
177.05947463576859
  0
LINE
  8
_1-1_
  6
CONTINUOUS
 62
    3
 10
93.870274311787384
 20
177.25946787241344
 11
137.67024684596706
 21
177.25946787241344
  0
LINE
  8
_1-1_
  6
CONTINUOUS
 62
    3
 10
82.470251547323699
 20
176.8594690271326
 11
82.754337207691094
 21
176.25947694520693
  0
LINE
  8
_1-1_
  6
CONTINUOUS
 62
    3
 10
81.270267383472344
 20
176.8594690271326
 11
82.470251547323699
 21
176.8594690271326
  0
LINE
  8
_1-1_
  6
CONTINUOUS
 62
    3
 10
82.754337207691094
 20
176.25947694520693
 11
89.070263424435183
 21
176.25947694520693
  0
LINE
  8
ADD_LINE
  6
DOT
 62
    3
 10
89.270269033071159
 20
174.71588547165331
 11
89.270269033071159
 21
173.89319754935602
  0
LINE
  8
_1-1_
  6
CONTINUOUS
 62
    3
 10
71.270265321473801
 20
179.85947892472552
 11
71.270265321473801
 21
156.65947166649073
  0
LINE
  8
_1-1_
  6
CONTINUOUS
 62
    3
 10
90.87027060019004
 20
179.85947892472552
 11
71.270265321473801
 21
179.85947892472552
  0
LINE
  8
_1-1_
  6
CONTINUOUS
 62
    3
 10
90.87027060019004
 20
183.05946968697214
 11
90.87027060019004
 21
179.85947892472552
  0
LINE
  8
_1-1_
  6
CONTINUOUS
 62
    3
 10
71.270265321473801
 20
156.65947166649073
 11
68.270255423880911
 21
156.65947166649073
  0
LINE
  8
_1-1_
  6
CONTINUOUS
 62
    3
 10
68.270255423880911
 20
182.05946638777451
 11
68.270255423880911
 21
156.65947166649073
  0
LINE
  8
_1-1_
  6
CONTINUOUS
 62
    3
 10
75.470259382918073
 20
182.53670357369089
 11
73.470277528505051
 21
182.53670357369089
  0
LINE
  8
_1-1_
  6
CONTINUOUS
 62
    3
 10
75.470259382918073
 20
183.05946968697214
 11
75.470259382918073
 21
182.53670357369089
  0
LINE
  8
_1-1_
  6
CONTINUOUS
 62
    3
 10
73.470277528505051
 20
183.05946968697214
 11
73.470277528505051
 21
182.53670357369089
  0
LINE
  8
_1-1_
  6
CONTINUOUS
 62
    3
 10
69.270258723078541
 20
183.05946968697214
 11
73.470277528505051
 21
183.05946968697214
  0
LINE
  8
_1-1_
  6
CONTINUOUS
 62
    3
 10
75.470259382918073
 20
183.05946968697214
 11
90.87027060019004
 21
183.05946968697214
  0
LINE
  8
_1-1_
  6
CONTINUOUS
 62
    3
 10
142.47025773331927
 20
176.8594690271326
 11
142.47025773331927
 21
174.25947034681167
  0
LINE
  8
_1-1_
  6
CONTINUOUS
 62
    3
 10
150.27025377428211
 20
179.85947892472552
 11
150.27025377428211
 21
176.25947694520693
  0
LINE
  8
_1-1_
  6
CONTINUOUS
 62
    3
 10
211.47023793813347
 20
179.85947892472552
 11
211.47023793813347
 21
177.45947348104943
  0
LINE
  8
_1-1_
  6
CONTINUOUS
 62
    3
 10
142.47025773331927
 20
174.25947034681167
 11
200.47023876293287
 21
174.25947034681167
  0
LINE
  8
_1-1_
  6
CONTINUOUS
 62
    3
 10
150.27025377428211
 20
179.85947892472552
 11
151.47027505410685
 21
179.85947892472552
  0
LINE
  8
_1-1_
  6
CONTINUOUS
 62
    3
 10
201.60804129935602
 20
179.85947892472552
 11
211.47023793813347
 21
179.85947892472552
  0
LINE
  8
_1-1_
  6
CONTINUOUS
 62
    3
 10
203.47023628853464
 20
177.45947348104943
 11
200.47023876293287
 21
174.25947034681167
  0
LINE
  8
_1-1_
  6
CONTINUOUS
 62
    3
 10
209.87024255701016
 20
177.45947348104943
 11
209.87024255701016
 21
177.05947463576859
  0
LINE
  8
_1-1_
  6
CONTINUOUS
 62
    3
 10
209.07024486644849
 20
177.45947348104943
 11
209.07024486644849
 21
177.05947463576859
  0
LINE
  8
_1-1_
  6
CONTINUOUS
 62
    3
 10
207.47024948532518
 20
177.45947348104943
 11
207.47024948532518
 21
177.05947463576859
  0
LINE
  8
_1-1_
  6
CONTINUOUS
 62
    3
 10
206.67025179476352
 20
177.45947348104943
 11
206.67025179476352
 21
177.05947463576859
  0
LINE
  8
_1-1_
  6
CONTINUOUS
 62
    3
 10
203.47023628853464
 20
177.45947348104943
 11
206.67025179476352
 21
177.45947348104943
  0
LINE
  8
_1-1_
  6
CONTINUOUS
 62
    3
 10
207.47024948532518
 20
177.45947348104943
 11
209.07024486644849
 21
177.45947348104943
  0
LINE
  8
_1-1_
  6
CONTINUOUS
 62
    3
 10
209.87024255701016
 20
177.45947348104943
 11
211.47023793813347
 21
177.45947348104943
  0
LINE
  8
_1-1_
  6
CONTINUOUS
 62
    3
 10
206.67025179476352
 20
177.05947463576859
 11
207.47024948532518
 21
177.05947463576859
  0
LINE
  8
_1-1_
  6
CONTINUOUS
 62
    3
 10
209.07024486644849
 20
177.05947463576859
 11
209.87024255701016
 21
177.05947463576859
  0
LINE
  8
_1-1_
  6
CONTINUOUS
 62
    3
 10
155.0702646616343
 20
177.25946787241344
 11
198.87023100981841
 21
177.25946787241344
  0
LINE
  8
_1-1_
  6
CONTINUOUS
 62
    3
 10
143.67024189717063
 20
176.8594690271326
 11
143.95432755753802
 21
176.25947694520693
  0
LINE
  8
_1-1_
  6
CONTINUOUS
 62
    3
 10
142.47025773331927
 20
176.8594690271326
 11
143.67024189717063
 21
176.8594690271326
  0
LINE
  8
_1-1_
  6
CONTINUOUS
 62
    3
 10
143.95432755753802
 20
176.25947694520693
 11
150.27025377428211
 21
176.25947694520693
  0
LINE
  8
_1-1_
  6
CONTINUOUS
 62
    3
 10
203.67025426916175
 20
176.8594690271326
 11
203.67025426916175
 21
174.25947034681167
  0
LINE
  8
_1-1_
  6
CONTINUOUS
 62
    3
 10
211.47023793813347
 20
179.85947892472552
 11
211.47023793813347
 21
176.25947694520693
  0
LINE
  8
_1-1_
  6
CONTINUOUS
 62
    3
 10
272.67022210198479
 20
179.85947892472552
 11
272.67022210198479
 21
177.45947348104943
  0
LINE
  8
_1-0_
  6
CONTINUOUS
 62
    3
 10
203.67025426916175
 20
174.25947034681167
 11
261.67023529877537
 21
174.25947034681167
  0
LINE
  8
_1-1_
  6
CONTINUOUS
 62
    3
 10
211.47023793813347
 20
179.85947892472552
 11
212.67027158994932
 21
179.85947892472552
  0
LINE
  8
_1-1_
  6
CONTINUOUS
 62
    3
 10
262.80803783519849
 20
179.85947892472552
 11
272.67022210198479
 21
179.85947892472552
  0
LINE
  8
_1-1_
  6
CONTINUOUS
 62
    3
 10
264.67024519636828
 20
177.45947348104943
 11
261.67023529877537
 21
174.25947034681167
  0
LINE
  8
_1-1_
  6
CONTINUOUS
 62
    3
 10
271.07022672086151
 20
177.45947348104943
 11
271.07022672086151
 21
177.05947463576859
  0
LINE
  8
_1-1_
  6
CONTINUOUS
 62
    3
 10
270.27025377428208
 20
177.45947348104943
 11
270.27025377428208
 21
177.05947463576859
  0
LINE
  8
_1-1_
  6
CONTINUOUS
 62
    3
 10
268.6702583931588
 20
177.45947348104943
 11
268.6702583931588
 21
177.05947463576859
  0
LINE
  8
_1-1_
  6
CONTINUOUS
 62
    3
 10
267.8702359586149
 20
177.45947348104943
 11
267.8702359586149
 21
177.05947463576859
  0
LINE
  8
_1-1_
  6
CONTINUOUS
 62
    3
 10
264.67024519636828
 20
177.45947348104943
 11
267.8702359586149
 21
177.45947348104943
  0
LINE
  8
_1-1_
  6
CONTINUOUS
 62
    3
 10
268.6702583931588
 20
177.45947348104943
 11
270.27025377428208
 21
177.45947348104943
  0
LINE
  8
_1-1_
  6
CONTINUOUS
 62
    3
 10
271.07022672086151
 20
177.45947348104943
 11
272.67022210198479
 21
177.45947348104943
  0
LINE
  8
_1-1_
  6
CONTINUOUS
 62
    3
 10
267.8702359586149
 20
177.05947463576859
 11
268.6702583931588
 21
177.05947463576859
  0
LINE
  8
_1-1_
  6
CONTINUOUS
 62
    3
 10
270.27025377428208
 20
177.05947463576859
 11
271.07022672086151
 21
177.05947463576859
  0
LINE
  8
_1-1_
  6
CONTINUOUS
 62
    3
 10
216.27027356946792
 20
177.25946787241344
 11
260.07023991765203
 21
177.25946787241344
  0
LINE
  8
_1-1_
  6
CONTINUOUS
 62
    3
 10
204.8702384330131
 20
176.8594690271326
 11
205.1543240933805
 21
176.25947694520693
  0
LINE
  8
_1-1_
  6
CONTINUOUS
 62
    3
 10
203.67025426916175
 20
176.8594690271326
 11
204.8702384330131
 21
176.8594690271326
  0
LINE
  8
_1-1_
  6
CONTINUOUS
 62
    3
 10
205.1543240933805
 20
176.25947694520693
 11
211.47023793813347
 21
176.25947694520693
  0
LINE
  8
_1-1_
  6
CONTINUOUS
 62
    3
 10
264.87025080500422
 20
176.8594690271326
 11
264.87025080500422
 21
174.25947034681167
  0
LINE
  8
_1-1_
  6
CONTINUOUS
 62
    3
 10
272.67024684596709
 20
179.85947892472552
 11
272.67024684596709
 21
176.25947694520693
  0
LINE
  8
_1-1_
  6
CONTINUOUS
 62
    3
 10
333.87023100981844
 20
179.85947892472552
 11
333.87023100981844
 21
177.45947348104943
  0
LINE
  8
_1-0_
  6
CONTINUOUS
 62
    3
 10
264.87025080500422
 20
174.25947034681167
 11
322.87021946262672
 21
174.25947034681167
  0
LINE
  8
_1-1_
  6
CONTINUOUS
 62
    3
 10
272.67024684596709
 20
179.85947892472552
 11
273.87025575380068
 21
179.85947892472552
  0
LINE
  8
_1-1_
  6
CONTINUOUS
 62
    3
 10
324.00804674303214
 20
179.85947892472552
 11
333.87023100981844
 21
179.85947892472552
  0
LINE
  8
_1-1_
  6
CONTINUOUS
 62
    3
 10
325.87022936021964
 20
177.45947348104943
 11
322.87021946262672
 21
174.25947034681167
  0
LINE
  8
_1-1_
  6
CONTINUOUS
 62
    3
 10
332.2702356286951
 20
177.45947348104943
 11
332.2702356286951
 21
177.05947463576859
  0
LINE
  8
_1-1_
  6
CONTINUOUS
 62
    3
 10
331.47023793813344
 20
177.45947348104943
 11
331.47023793813344
 21
177.05947463576859
  0
LINE
  8
_1-1_
  6
CONTINUOUS
 62
    3
 10
329.87024255701016
 20
177.45947348104943
 11
329.87024255701016
 21
177.05947463576859
  0
LINE
  8
_1-1_
  6
CONTINUOUS
 62
    3
 10
329.07024486644849
 20
177.45947348104943
 11
329.07024486644849
 21
177.05947463576859
  0
LINE
  8
_1-1_
  6
CONTINUOUS
 62
    3
 10
325.87022936021964
 20
177.45947348104943
 11
329.07024486644849
 21
177.45947348104943
  0
LINE
  8
_1-1_
  6
CONTINUOUS
 62
    3
 10
329.87024255701016
 20
177.45947348104943
 11
331.47023793813344
 21
177.45947348104943
  0
LINE
  8
_1-1_
  6
CONTINUOUS
 62
    3
 10
332.2702356286951
 20
177.45947348104943
 11
333.87023100981844
 21
177.45947348104943
  0
LINE
  8
_1-1_
  6
CONTINUOUS
 62
    3
 10
329.07024486644849
 20
177.05947463576859
 11
329.87024255701016
 21
177.05947463576859
  0
LINE
  8
_1-1_
  6
CONTINUOUS
 62
    3
 10
331.47023793813344
 20
177.05947463576859
 11
332.2702356286951
 21
177.05947463576859
  0
LINE
  8
_1-1_
  6
CONTINUOUS
 62
    3
 10
277.47025773331927
 20
177.25946787241344
 11
321.27022408150339
 21
177.25946787241344
  0
LINE
  8
_1-1_
  6
CONTINUOUS
 62
    3
 10
266.07023496885557
 20
176.8594690271326
 11
266.35432062922297
 21
176.25947694520693
  0
LINE
  8
_1-1_
  6
CONTINUOUS
 62
    3
 10
264.87025080500422
 20
176.8594690271326
 11
266.07023496885557
 21
176.8594690271326
  0
LINE
  8
_1-1_
  6
CONTINUOUS
 62
    3
 10
266.35432062922297
 20
176.25947694520693
 11
272.67024684596709
 21
176.25947694520693
  0
LINE
  8
_1-1_
  6
CONTINUOUS
 62
    3
 10
326.07025971283787
 20
176.8594690271326
 11
326.07025971283787
 21
174.25947034681167
  0
LINE
  8
_1-1_
  6
CONTINUOUS
 62
    3
 10
333.87025575380068
 20
179.85947892472552
 11
333.87025575380068
 21
176.25947694520693
  0
LINE
  8
_1-0_
  6
CONTINUOUS
 62
    3
 10
326.07025971283787
 20
174.25947034681167
 11
384.07025311444261
 21
174.25947034681167
  0
LINE
  8
_1-1_
  6
CONTINUOUS
 62
    3
 10
333.87025575380068
 20
179.85947892472552
 11
335.07028940561656
 21
179.85947892472552
  0
LINE
  8
_1-1_
  6
CONTINUOUS
 62
    3
 10
387.07023826805323
 20
177.45947348104943
 11
384.07025311444261
 21
174.25947034681167
  0
LINE
  8
_1-1_
  6
CONTINUOUS
 62
    3
 10
391.07025146484375
 20
177.45947348104943
 11
391.07025146484375
 21
177.05947463576859
  0
LINE
  8
_1-1_
  6
CONTINUOUS
 62
    3
 10
390.27025377428214
 20
177.45947348104943
 11
390.27025377428214
 21
177.05947463576859
  0
LINE
  8
_1-1_
  6
CONTINUOUS
 62
    3
 10
387.07023826805323
 20
177.45947348104943
 11
390.27025377428214
 21
177.45947348104943
  0
LINE
  8
_1-1_
  6
CONTINUOUS
 62
    3
 10
390.27025377428214
 20
177.05947463576859
 11
391.07025146484375
 21
177.05947463576859
  0
LINE
  8
_1-1_
  6
CONTINUOUS
 62
    3
 10
338.67026664115286
 20
177.25946787241344
 11
382.47023298933703
 21
177.25946787241344
  0
LINE
  8
_1-1_
  6
CONTINUOUS
 62
    3
 10
327.27024387668922
 20
176.8594690271326
 11
327.55432953705662
 21
176.25947694520693
  0
LINE
  8
_1-1_
  6
CONTINUOUS
 62
    3
 10
326.07025971283787
 20
176.8594690271326
 11
327.27024387668922
 21
176.8594690271326
  0
LINE
  8
_1-1_
  6
CONTINUOUS
 62
    3
 10
327.55432953705662
 20
176.25947694520693
 11
333.87025575380068
 21
176.25947694520693
  0
LINE
  8
_1-1_
  6
CONTINUOUS
 62
    3
 10
387.27024387668922
 20
176.8594690271326
 11
387.27024387668922
 21
174.25947034681167
  0
LINE
  8
_1-1_
  6
CONTINUOUS
 62
    3
 10
388.47022804054058
 20
176.8594690271326
 11
388.75431370090797
 21
176.25947694520693
  0
LINE
  8
_1-1_
  6
CONTINUOUS
 62
    3
 10
387.27024387668922
 20
176.8594690271326
 11
388.47022804054058
 21
176.8594690271326
  0
LINE
  8
_1-1_
  6
CONTINUOUS
 62
    3
 10
388.75431370090797
 20
176.25947694520693
 11
391.09257053684547
 21
176.25947694520693
  0
LINE
  8
_1-1_
  6
CONTINUOUS
 62
    3
 10
385.20803090688349
 20
179.85947892472552
 11
391.09257053684547
 21
179.85947892472552
  0
LINE
  8
_1-1_
  6
CONTINUOUS
 62
    3
 10
387.27024387668922
 20
174.25947034681167
 11
391.09257053684547
 21
174.25947034681167
  0
LINE
  8
_1-0_
  6
DASHED1
 62
    3
 10
80.574806831978464
 20
170.05946391337628
 11
391.09257053684547
 21
170.05946391337628
  0
LINE
  8
_1-0_
  6
CONTINUOUS
 62
    2
 10
81.181257093274922
 20
170.48158387880068
 11
80.822036330764377
 21
170.48158387880068
  0
LINE
  8
_1-0_
  6
CONTINUOUS
 62
    2
 10
80.822036330764377
 20
170.48158387880068
 11
80.822036330764377
 21
179.24172066353464
  0
LINE
  8
_1-0_
  6
CONTINUOUS
 62
    2
 10
80.822036330764377
 20
179.24172066353464
 11
81.634362710488801
 21
177.93494147223396
  0
LINE
  8
_1-0_
  6
DASHED1
 62
    3
 10
72.270268620671459
 20
179.05946886217274
 11
80.574806831978464
 21
179.05946886217274
  0
LINE
  8
_1-0_
  6
DASHED1
 62
    3
 10
80.574806831978464
 20
179.05946886217274
 11
80.574806831978464
 21
170.05946391337628
  0
LINE
  8
_1-0_
  6
CONTINUOUS
 62
    3
 10
387.27024387668922
 20
174.25947034681167
 11
391.09257053684547
 21
174.25947034681167
  0
LINE
  8
_1-1_
  6
CONTINUOUS
 62
    7
 10
384.07025311444261
 20
174.25947034681167
 11
387.27024387668922
 21
174.25947034681167
  0
LINE
  8
_1-0_
  6
CONTINUOUS
 62
    3
 10
326.07025971283787
 20
174.25947034681167
 11
384.07025311444261
 21
174.25947034681167
  0
LINE
  8
_1-1_
  6
CONTINUOUS
 62
    7
 10
322.87021946262672
 20
174.25947034681167
 11
326.07025971283787
 21
174.25947034681167
  0
LINE
  8
_1-0_
  6
CONTINUOUS
 62
    3
 10
264.87025080500422
 20
174.25947034681167
 11
322.87021946262672
 21
174.25947034681167
  0
LINE
  8
_1-1_
  6
CONTINUOUS
 62
    7
 10
261.67023529877537
 20
174.25947034681167
 11
264.87025080500422
 21
174.25947034681167
  0
LINE
  8
_1-0_
  6
CONTINUOUS
 62
    3
 10
203.67025426916175
 20
174.25947034681167
 11
261.67023529877537
 21
174.25947034681167
  0
LINE
  8
_1-1_
  6
CONTINUOUS
 62
    7
 10
200.47023876293287
 20
174.25947034681167
 11
203.67025426916175
 21
174.25947034681167
  0
LINE
  8
_1-0_
  6
CONTINUOUS
 62
    3
 10
86.870269775390625
 20
174.25947034681167
 11
139.27024222709039
 21
174.25947034681167
  0
LINE
  8
_1-0_
  6
CONTINUOUS
 62
    3
 10
142.47025773331927
 20
174.25947034681167
 11
200.47023876293287
 21
174.25947034681167
  0
LINE
  8
_1-1_
  6
CONTINUOUS
 62
    7
 10
142.47025773331927
 20
174.25947034681167
 11
139.27024222709039
 21
174.25947034681167
  0
LINE
  8
_1-2_
  6
CONTINUOUS
 62
    7
 10
71.270265321473801
 20
113.48630750501479
 11
72.270268620671459
 21
113.48630750501479
  0
LINE
  8
_1-2_
  6
CONTINUOUS
 62
    7
 10
71.270265321473801
 20
126.89461372994089
 11
71.270265321473801
 21
113.48630750501479
  0
LINE
  8
_1-2_
  6
CONTINUOUS
 62
    7
 10
72.270268620671459
 20
126.89461372994089
 11
72.270268620671459
 21
113.48630750501479
  0
LINE
  8
_1-2_
  6
CONTINUOUS
 62
    7
 10
72.270268620671459
 20
113.48630750501479
 11
80.27027027027026
 21
113.48630750501479
  0
LINE
  8
_1-2_
  6
CONTINUOUS
 62
    7
 10
80.27027027027026
 20
126.89461372994089
 11
80.27027027027026
 21
113.48630750501479
  0
LINE
  8
_1-2_
  6
CONTINUOUS
 62
    7
 10
80.27027027027026
 20
212.43243243243245
 11
89.270269033071159
 21
212.43243243243245
  0
LINE
  8
_1-2_
  6
CONTINUOUS
 62
    7
 10
80.27027027027026
 20
192.16216216216216
 11
80.27027027027026
 21
212.43243243243245
  0
LINE
  8
_1-2_
  6
CONTINUOUS
 62
    7
 10
89.270269033071159
 20
192.16216216216216
 11
89.270269033071159
 21
212.43243243243245
  0
LINE
  8
_1-2_
  6
CONTINUOUS
 62
    7
 10
89.270269033071159
 20
212.43243243243245
 11
150.27025377428211
 21
212.43243243243245
  0
LINE
  8
_1-2_
  6
CONTINUOUS
 62
    7
 10
150.27025377428211
 20
192.16216216216216
 11
150.27025377428211
 21
212.43243243243245
  0
LINE
  8
_1-2_
  6
CONTINUOUS
 62
    7
 10
150.27025377428211
 20
212.43243243243245
 11
211.47023793813347
 21
212.43243243243245
  0
LINE
  8
_1-2_
  6
CONTINUOUS
 62
    7
 10
211.47023793813347
 20
192.16216216216216
 11
211.47023793813347
 21
212.43243243243245
  0
LINE
  8
_1-2_
  6
CONTINUOUS
 62
    7
 10
211.47023793813347
 20
212.43243243243245
 11
272.67024684596709
 21
212.43243243243245
  0
LINE
  8
_1-2_
  6
CONTINUOUS
 62
    7
 10
272.67024684596709
 20
192.16216216216216
 11
272.67024684596709
 21
212.43243243243245
  0
LINE
  8
_1-2_
  6
CONTINUOUS
 62
    7
 10
272.67024684596709
 20
212.43243243243245
 11
333.87025575380068
 21
212.43243243243245
  0
LINE
  8
_1-2_
  6
CONTINUOUS
 62
    7
 10
333.87025575380068
 20
192.16216216216216
 11
333.87025575380068
 21
212.43243243243245
  0
LINE
  8
_1-2_
  6
CONTINUOUS
 62
    7
 10
45.294270902066614
 20
169.45945945945948
 11
45.294270902066614
 21
178.45946440825591
  0
LINE
  8
_1-2_
  6
CONTINUOUS
 62
    7
 10
64.15893142287797
 20
169.45945945945948
 11
45.294270902066614
 21
169.45945945945948
  0
LINE
  8
_1-2_
  6
CONTINUOUS
 62
    7
 10
64.15893142287797
 20
178.45946440825591
 11
45.294270902066614
 21
178.45946440825591
  0
LINE
  8
_0-1_
  6
CONTINUOUS
 62
    7
 10
224.57903062975086
 20
125.27581292229731
 11
243.24324324324326
 21
125.27581292229731
  0
LINE
  8
_0-1_
  6
CONTINUOUS
 62
    7
 10
227.12681950749578
 20
118.27581457189612
 11
243.24324324324326
 21
118.27581457189612
  0
LINE
  8
_0-1_
  6
CONTINUOUS
 62
    7
 10
229.674633129223
 20
111.27581622149494
 11
243.24324324324326
 21
111.27581622149494
  0
LINE
  8
_0-1_
  6
CONTINUOUS
 62
    7
 10
232.22242200696792
 20
104.27581787109375
 11
243.24324324324326
 21
104.27581787109375
  0
LINE
  8
_0-1_
  6
CONTINUOUS
 62
    7
 10
234.77021088471284
 20
97.275813334697006
 11
243.24324324324326
 21
97.275813334697006
  0
LINE
  8
_0-1_
  6
CONTINUOUS
 62
    7
 10
70.189918311866563
 20
181.09257053684544
 11
61.083972003008881
 21
206.11096356366133
  0
LINE
  8
_0-1_
  6
CONTINUOUS
 62
    7
 10
80.27027027027026
 20
142.49565743111276
 11
99.538130889067787
 21
89.557651829075169
  0
LINE
  8
_0-1_
  6
CONTINUOUS
 62
    7
 10
84.532507819098399
 20
172.16504071209883
 11
100.99296569824219
 21
126.94030349319047
  0
LINE
  8
_0-1_
  6
CONTINUOUS
 62
    7
 10
84.532507819098399
 20
172.16504071209883
 11
84.114575772672097
 21
170.41741036080026
  0
LINE
  8
_0-1_
  6
CONTINUOUS
 62
    7
 10
100.99296569824219
 20
126.94030349319047
 11
105.40540540540542
 21
126.94030349319047
  0
LINE
  8
_0-1_
  6
CONTINUOUS
 62
    7
 10
99.538130889067787
 20
89.557651829075169
 11
104.5945945945946
 21
89.557651829075169
  0
LINE
  8
_0-1_
  6
CONTINUOUS
 62
    7
 10
61.083972003008881
 20
206.11096356366133
 11
57.567567567567579
 21
206.11096356366133
  0
LINE
  8
_1-0_
  6
CONTINUOUS
 62
    7
 10
80.27027027027026
 20
163.45946440825591
 11
391.09257053684547
 21
163.45946440825591
  0
LINE
  8
_1-0_
  6
CONTINUOUS
 62
    7
 10
72.270268620671459
 20
148.45946440825591
 11
80.27027027027026
 21
148.45946440825591
  0
LINE
  8
_1-0_
  6
CONTINUOUS
 62
    7
 10
77.748784245671459
 20
148.45946440825591
 11
80.27027027027026
 21
150.98095043285474
  0
LINE
  8
_1-0_
  6
CONTINUOUS
 62
    7
 10
74.920361493084897
 20
148.45946440825591
 11
80.27027027027026
 21
153.8093731854413
  0
LINE
  8
_1-0_
  6
CONTINUOUS
 62
    7
 10
72.270268620671459
 20
178.45946440825591
 11
72.270268620671459
 21
148.45946440825591
  0
LINE
  8
_1-0_
  6
CONTINUOUS
 62
    7
 10
80.27027027027026
 20
167.05945401578336
 11
80.27027027027026
 21
148.45946440825591
  0
LINE
  8
_1-0_
  6
CONTINUOUS
 62
    7
 10
83.270267795872044
 20
137.45946523305534
 11
391.09257053684547
 21
137.45946523305534
  0
LINE
  8
_1-0_
  6
CONTINUOUS
 62
    7
 10
80.27027027027026
 20
148.45946440825591
 11
80.27027027027026
 21
139.45945945945948
  0
LINE
  8
_1-0_
  6
CONTINUOUS
 62
    7
 10
83.270267795872044
 20
139.45945945945948
 11
83.270267795872044
 21
137.45946523305534
  0
LINE
  8
_1-0_
  6
DASHED1
 62
    7
 10
83.270267795872044
 20
139.45945945945948
 11
391.09257053684547
 21
139.45945945945948
  0
LINE
  8
_1-0_
  6
CONTINUOUS
 62
    7
 10
80.27027027027026
 20
139.45945945945948
 11
83.270267795872044
 21
139.45945945945948
  0
LINE
  8
_1-0_
  6
CONTINUOUS
 62
    7
 10
80.27027027027026
 20
142.49565743111276
 11
76.766503823770051
 21
152.12218001082138
  0
LINE
  8
_1-2_
  6
CONTINUOUS
 62
    7
 10
205.69081074482688
 20
177.17077306798987
 11
234.77021088471284
 21
97.275813334697006
  0
LINE
  8
_1-0_
  6
CONTINUOUS
 62
    7
 10
174.53922581028294
 20
163.45946440825591
 11
148.53922663508234
 21
137.45946523305534
  0
LINE
  8
_1-0_
  6
CONTINUOUS
 62
    7
 10
168.88235556112755
 20
163.45946440825591
 11
142.88235638592695
 21
137.45946523305534
  0
LINE
  8
_1-0_
  6
CONTINUOUS
 62
    7
 10
171.85979894689612
 20
163.6084726694468
 11
145.71079151050466
 21
137.45946523305534
  0
LINE
  8
_1-0_
  6
CONTINUOUS
 62
    7
 10
320.75676170555323
 20
163.45946440825591
 11
294.75675015836151
 21
137.45946523305534
  0
LINE
  8
_1-0_
  6
CONTINUOUS
 62
    7
 10
323.58519683013094
 20
163.45946440825591
 11
297.58518528293922
 21
137.45946523305534
  0
LINE
  8
_1-0_
  6
CONTINUOUS
 62
    7
 10
326.41363195470865
 20
163.45946440825591
 11
300.41362040751693
 21
137.45946523305534
  0
LINE
  8
_0-0_
  6
CONTINUOUS
 62
    5
 10
412.43244892842063
 20
8.5135135135135158
 11
12.432428308435391
 21
8.5135135135135158
  0
ARC
  8
_1-1_
  6
CONTINUOUS
 62
    3
 10
94.116402703362553
 20
181.39254183382602
 40
4.1404008865356445
 50
201.73239135742187
 51
266.59201049804687
  0
ARC
  8
_1-1_
  6
CONTINUOUS
 62
    3
 10
137.6656197212838
 20
180.00581483583193
 40
2.7463450302948824
 50
270.09652709960937
 51
356.94560241699224
  0
ARC
  8
_1-1_
  6
CONTINUOUS
 62
    3
 10
69.270258723078541
 20
182.05946638777451
 40
0.9999999162313101
 50
90
 51
180
  0
ARC
  8
_1-1_
  6
CONTINUOUS
 62
    3
 10
155.31639305320948
 20
181.39254183382602
 40
4.1404008865356445
 50
201.73239135742187
 51
266.59201049804687
  0
ARC
  8
_1-1_
  6
CONTINUOUS
 62
    3
 10
198.86560388513516
 20
180.00581483583193
 40
2.7463450302948824
 50
270.09652709960937
 51
356.94560241699224
  0
ARC
  8
_1-1_
  6
CONTINUOUS
 62
    3
 10
216.51637721706084
 20
181.39254183382602
 40
4.1404008865356445
 50
201.73239135742187
 51
266.59201049804687
  0
ARC
  8
_1-1_
  6
CONTINUOUS
 62
    3
 10
260.06558804898651
 20
180.00581483583193
 40
2.7463450302948824
 50
270.09652709960937
 51
356.94560241699224
  0
ARC
  8
_1-1_
  6
CONTINUOUS
 62
    3
 10
277.71638612489443
 20
181.39254183382602
 40
4.1404008865356445
 50
201.73239135742187
 51
266.59201049804687
  0
ARC
  8
_1-1_
  6
CONTINUOUS
 62
    3
 10
321.2655969568201
 20
180.00581483583193
 40
2.7463450302948824
 50
270.09652709960937
 51
356.94560241699224
  0
ARC
  8
_1-1_
  6
CONTINUOUS
 62
    3
 10
338.91639503272808
 20
181.39254183382602
 40
4.1404008865356445
 50
201.73239135742187
 51
266.59201049804687
  0
ARC
  8
_1-1_
  6
CONTINUOUS
 62
    3
 10
382.46560586465375
 20
180.00581483583193
 40
2.7463450302948824
 50
270.09652709960937
 51
356.94560241699224
  0
CIRCLE
  8
_1-0_
  6
CONTINUOUS
 62
    7
 10
93.479028650232266
 20
165.40272068332982
 40
0.1761903835309518
  0
CIRCLE
  8
_1-0_
  6
CONTINUOUS
 62
    7
 10
91.903121535842487
 20
166.58465411211995
 40
0.1761903835309518
  0
CIRCLE
  8
_1-0_
  6
CONTINUOUS
 62
    7
 10
90.327214421452709
 20
166.50585690060177
 40
0.1761903835309518
  0
CIRCLE
  8
_1-0_
  6
CONTINUOUS
 62
    7
 10
88.908895544103686
 20
165.40272068332982
 40
0.1761903835309518
  0
CIRCLE
  8
_1-0_
  6
CONTINUOUS
 62
    7
 10
86.939014744114232
 20
165.56031510636615
 40
0.1761903835309518
  0
CIRCLE
  8
_1-0_
  6
CONTINUOUS
 62
    7
 10
84.969127758129233
 20
165.6391123178843
 40
0.1761903835309518
  0
CIRCLE
  8
_1-0_
  6
CONTINUOUS
 62
    7
 10
82.526469875026393
 20
165.79669436892948
 40
0.1761903835309518
  0
CIRCLE
  8
_1-0_
  6
CONTINUOUS
 62
    7
 10
82.290084426467487
 20
166.89983058620143
 40
0.1761903835309518
  0
CIRCLE
  8
_1-0_
  6
CONTINUOUS
 62
    7
 10
84.811533335092903
 20
167.45139869483742
 40
0.1761903835309518
  0
CIRCLE
  8
_1-0_
  6
CONTINUOUS
 62
    7
 10
93.873008521827501
 20
166.26947763803844
 40
0.1761903835309518
  0
CIRCLE
  8
_1-0_
  6
CONTINUOUS
 62
    7
 10
97.024828936602617
 20
166.19068042652029
 40
0.1761903835309518
  0
CIRCLE
  8
_1-0_
  6
CONTINUOUS
 62
    7
 10
94.582164867504233
 20
164.85115257469386
 40
0.1761903835309518
  0
CIRCLE
  8
_1-0_
  6
CONTINUOUS
 62
    7
 10
96.236869193412161
 20
164.6147733121305
 40
0.1761903835309518
  0
CIRCLE
  8
_1-0_
  6
CONTINUOUS
 62
    7
 10
94.424576630463477
 20
166.11188321500211
 40
0.1761903835309518
  0
CIRCLE
  8
_1-0_
  6
CONTINUOUS
 62
    7
 10
93.79421749630491
 20
168.16056122650971
 40
0.1761903835309518
  0
CIRCLE
  8
_1-0_
  6
CONTINUOUS
 62
    7
 10
98.206756179397175
 20
167.76658754091005
 40
0.1761903835309518
  0
CIRCLE
  8
_1-0_
  6
CONTINUOUS
 62
    7
 10
100.01904874234587
 20
167.37261385531039
 40
0.1761903835309518
  0
CIRCLE
  8
_1-0_
  6
CONTINUOUS
 62
    7
 10
99.073506948110222
 20
166.58465411211995
 40
0.1761903835309518
  0
CIRCLE
  8
_1-0_
  6
CONTINUOUS
 62
    7
 10
101.75255027977197
 20
166.19068042652029
 40
0.1761903835309518
  0
CIRCLE
  8
_1-0_
  6
CONTINUOUS
 62
    7
 10
103.0920781315984
 20
165.6391123178843
 40
0.1761903835309518
  0
CIRCLE
  8
_1-0_
  6
CONTINUOUS
 62
    7
 10
103.56484902871622
 20
167.45139869483742
 40
0.1761903835309518
  0
CIRCLE
  8
_1-0_
  6
CONTINUOUS
 62
    7
 10
102.22532117688979
 20
165.00874699773016
 40
0.1761903835309518
  0
CIRCLE
  8
_1-0_
  6
CONTINUOUS
 62
    7
 10
100.49182582545926
 20
164.77235536317568
 40
0.1761903835309518
  0
CIRCLE
  8
_1-0_
  6
CONTINUOUS
 62
    7
 10
103.24966018264358
 20
165.16634142076649
 40
0.1761903835309518
  0
CIRCLE
  8
_1-0_
  6
CONTINUOUS
 62
    7
 10
106.63786604597762
 20
165.00874699773016
 40
0.1761903835309518
  0
CIRCLE
  8
_1-0_
  6
CONTINUOUS
 62
    7
 10
110.10486912082982
 20
165.08754420924831
 40
0.1761903835309518
  0
CIRCLE
  8
_1-0_
  6
CONTINUOUS
 62
    7
 10
112.62631802945525
 20
165.08754420924831
 40
0.1761903835309518
  0
CIRCLE
  8
_1-0_
  6
CONTINUOUS
 62
    7
 10
108.52896200644004
 20
166.19068042652029
 40
0.1761903835309518
  0
CIRCLE
  8
_1-0_
  6
CONTINUOUS
 62
    7
 10
106.63786604597762
 20
166.50585690060177
 40
0.1761903835309518
  0
CIRCLE
  8
_1-0_
  6
CONTINUOUS
 62
    7
 10
104.98316172006969
 20
166.97862779771961
 40
0.1761903835309518
  0
CIRCLE
  8
_1-0_
  6
CONTINUOUS
 62
    7
 10
107.97739389780406
 20
167.76658754091005
 40
0.1761903835309518
  0
CIRCLE
  8
_1-0_
  6
CONTINUOUS
 62
    7
 10
110.49884280642948
 20
167.92418196394638
 40
0.1761903835309518
  0
CIRCLE
  8
_1-0_
  6
CONTINUOUS
 62
    7
 10
113.7294542467272
 20
167.21501943227409
 40
0.1761903835309518
  0
CIRCLE
  8
_1-0_
  6
CONTINUOUS
 62
    7
 10
109.08053011507602
 20
164.37838167757602
 40
0.1761903835309518
  0
CIRCLE
  8
_1-0_
  6
CONTINUOUS
 62
    7
 10
113.49307498416385
 20
165.40272068332982
 40
0.1761903835309518
  0
CIRCLE
  8
_1-0_
  6
CONTINUOUS
 62
    7
 10
116.4872947899071
 20
165.56031510636615
 40
0.1761903835309518
  0
CIRCLE
  8
_1-0_
  6
CONTINUOUS
 62
    7
 10
113.02029171505491
 20
166.03308600348396
 40
0.1761903835309518
  0
CIRCLE
  8
_1-0_
  6
CONTINUOUS
 62
    7
 10
97.497599833720443
 20
166.74224853515625
 40
0.1761903835309518
  0
CIRCLE
  8
_1-0_
  6
CONTINUOUS
 62
    7
 10
95.52771284773543
 20
167.45139869483742
 40
0.1761903835309518
  0
CIRCLE
  8
_1-0_
  6
CONTINUOUS
 62
    7
 10
82.211287214949323
 20
165.08754420924831
 40
0.1761903835309518
  0
CIRCLE
  8
_1-0_
  6
CONTINUOUS
 62
    7
 10
80.63538010055953
 20
166.19068042652029
 40
0.1761903835309518
  0
CIRCLE
  8
_1-0_
  6
CONTINUOUS
 62
    7
 10
80.083811991923568
 20
167.76658754091005
 40
0.1761903835309518
  0
CIRCLE
  8
_1-0_
  6
CONTINUOUS
 62
    7
 10
81.186948209195521
 20
164.37838167757602
 40
0.1761903835309518
  0
CIRCLE
  8
_1-0_
  6
CONTINUOUS
 62
    7
 10
89.618051889780403
 20
165.40272068332982
 40
0.1761903835309518
  0
CIRCLE
  8
_1-0_
  6
CONTINUOUS
 62
    7
 10
90.012031761375638
 20
166.26947763803844
 40
0.1761903835309518
  0
CIRCLE
  8
_1-0_
  6
CONTINUOUS
 62
    7
 10
93.163852176150769
 20
166.19068042652029
 40
0.1761903835309518
  0
CIRCLE
  8
_1-0_
  6
CONTINUOUS
 62
    7
 10
90.72118810705237
 20
164.85115257469386
 40
0.1761903835309518
  0
CIRCLE
  8
_1-0_
  6
CONTINUOUS
 62
    7
 10
92.375892432960313
 20
164.6147733121305
 40
0.1761903835309518
  0
CIRCLE
  8
_1-0_
  6
CONTINUOUS
 62
    7
 10
90.563599870011615
 20
166.11188321500211
 40
0.1761903835309518
  0
CIRCLE
  8
_1-0_
  6
CONTINUOUS
 62
    7
 10
89.933240735853047
 20
168.16056122650971
 40
0.1761903835309518
  0
CIRCLE
  8
_1-0_
  6
CONTINUOUS
 62
    7
 10
94.345779418945313
 20
167.76658754091005
 40
0.1761903835309518
  0
CIRCLE
  8
_1-0_
  6
CONTINUOUS
 62
    7
 10
96.158071981894011
 20
167.37261385531039
 40
0.1761903835309518
  0
CIRCLE
  8
_1-0_
  6
CONTINUOUS
 62
    7
 10
95.212530187658373
 20
166.58465411211995
 40
0.1761903835309518
  0
CIRCLE
  8
_1-0_
  6
CONTINUOUS
 62
    7
 10
97.891573519320104
 20
166.19068042652029
 40
0.1761903835309518
  0
CIRCLE
  8
_1-0_
  6
CONTINUOUS
 62
    7
 10
99.231101371146536
 20
165.6391123178843
 40
0.1761903835309518
  0
CIRCLE
  8
_1-0_
  6
CONTINUOUS
 62
    7
 10
99.703872268264362
 20
167.45139869483742
 40
0.1761903835309518
  0
CIRCLE
  8
_1-0_
  6
CONTINUOUS
 62
    7
 10
98.36434441643793
 20
165.00874699773016
 40
0.1761903835309518
  0
CIRCLE
  8
_1-0_
  6
CONTINUOUS
 62
    7
 10
96.630849065007396
 20
164.77235536317568
 40
0.1761903835309518
  0
CIRCLE
  8
_1-0_
  6
CONTINUOUS
 62
    7
 10
99.388683422191733
 20
165.16634142076649
 40
0.1761903835309518
  0
CIRCLE
  8
_1-0_
  6
CONTINUOUS
 62
    7
 10
102.77688928552577
 20
165.00874699773016
 40
0.1761903835309518
  0
CIRCLE
  8
_1-0_
  6
CONTINUOUS
 62
    7
 10
106.24389236037796
 20
165.08754420924831
 40
0.1761903835309518
  0
CIRCLE
  8
_1-0_
  6
CONTINUOUS
 62
    7
 10
104.66798524598818
 20
166.19068042652029
 40
0.1761903835309518
  0
CIRCLE
  8
_1-0_
  6
CONTINUOUS
 62
    7
 10
102.77688928552577
 20
166.50585690060177
 40
0.1761903835309518
  0
CIRCLE
  8
_1-0_
  6
CONTINUOUS
 62
    7
 10
101.12218495961783
 20
166.97862779771961
 40
0.1761903835309518
  0
CIRCLE
  8
_1-0_
  6
CONTINUOUS
 62
    7
 10
104.1164171373522
 20
167.76658754091005
 40
0.1761903835309518
  0
CIRCLE
  8
_1-0_
  6
CONTINUOUS
 62
    7
 10
105.21955335462417
 20
164.37838167757602
 40
0.1761903835309518
  0
CIRCLE
  8
_1-0_
  6
CONTINUOUS
 62
    7
 10
93.636623073268581
 20
166.74224853515625
 40
0.1761903835309518
  0
CIRCLE
  8
_1-0_
  6
CONTINUOUS
 62
    7
 10
91.666736087283581
 20
167.45139869483742
 40
0.1761903835309518
  0
CIRCLE
  8
_1-0_
  6
CONTINUOUS
 62
    7
 10
105.06195893158784
 20
165.40272068332982
 40
0.1761903835309518
  0
CIRCLE
  8
_1-0_
  6
CONTINUOUS
 62
    7
 10
105.4559326171875
 20
166.26947763803844
 40
0.1761903835309518
  0
CIRCLE
  8
_1-0_
  6
CONTINUOUS
 62
    7
 10
108.6077592179582
 20
166.19068042652029
 40
0.1761903835309518
  0
CIRCLE
  8
_1-0_
  6
CONTINUOUS
 62
    7
 10
106.16509514885981
 20
164.85115257469386
 40
0.1761903835309518
  0
CIRCLE
  8
_1-0_
  6
CONTINUOUS
 62
    7
 10
107.81979947476775
 20
164.6147733121305
 40
0.1761903835309518
  0
CIRCLE
  8
_1-0_
  6
CONTINUOUS
 62
    7
 10
106.00750072582349
 20
166.11188321500211
 40
0.1761903835309518
  0
CIRCLE
  8
_1-0_
  6
CONTINUOUS
 62
    7
 10
105.37714777766048
 20
168.16056122650971
 40
0.1761903835309518
  0
CIRCLE
  8
_1-0_
  6
CONTINUOUS
 62
    7
 10
109.78969264674832
 20
167.76658754091005
 40
0.1761903835309518
  0
CIRCLE
  8
_1-0_
  6
CONTINUOUS
 62
    7
 10
111.60197902370145
 20
167.37261385531039
 40
0.1761903835309518
  0
CIRCLE
  8
_1-0_
  6
CONTINUOUS
 62
    7
 10
110.65643722946579
 20
166.58465411211995
 40
0.1761903835309518
  0
CIRCLE
  8
_1-0_
  6
CONTINUOUS
 62
    7
 10
113.33548056112754
 20
166.19068042652029
 40
0.1761903835309518
  0
CIRCLE
  8
_1-0_
  6
CONTINUOUS
 62
    7
 10
114.67500841295397
 20
165.6391123178843
 40
0.1761903835309518
  0
CIRCLE
  8
_1-0_
  6
CONTINUOUS
 62
    7
 10
115.1477793100718
 20
167.45139869483742
 40
0.1761903835309518
  0
CIRCLE
  8
_1-0_
  6
CONTINUOUS
 62
    7
 10
113.80825145824537
 20
165.00874699773016
 40
0.1761903835309518
  0
CIRCLE
  8
_1-0_
  6
CONTINUOUS
 62
    7
 10
112.07474992081926
 20
164.77235536317568
 40
0.1761903835309518
  0
CIRCLE
  8
_1-0_
  6
CONTINUOUS
 62
    7
 10
114.83259046399917
 20
165.16634142076649
 40
0.1761903835309518
  0
CIRCLE
  8
_1-0_
  6
CONTINUOUS
 62
    7
 10
118.2207963273332
 20
165.00874699773016
 40
0.1761903835309518
  0
CIRCLE
  8
_1-0_
  6
CONTINUOUS
 62
    7
 10
121.68779940218539
 20
165.08754420924831
 40
0.1761903835309518
  0
CIRCLE
  8
_1-0_
  6
CONTINUOUS
 62
    7
 10
120.11189228779561
 20
166.19068042652029
 40
0.1761903835309518
  0
CIRCLE
  8
_1-0_
  6
CONTINUOUS
 62
    7
 10
118.2207963273332
 20
166.50585690060177
 40
0.1761903835309518
  0
CIRCLE
  8
_1-0_
  6
CONTINUOUS
 62
    7
 10
116.56609200142526
 20
166.97862779771961
 40
0.1761903835309518
  0
CIRCLE
  8
_1-0_
  6
CONTINUOUS
 62
    7
 10
119.56032417915964
 20
167.76658754091005
 40
0.1761903835309518
  0
CIRCLE
  8
_1-0_
  6
CONTINUOUS
 62
    7
 10
120.66346039643159
 20
164.37838167757602
 40
0.1761903835309518
  0
CIRCLE
  8
_1-0_
  6
CONTINUOUS
 62
    7
 10
109.08053011507602
 20
166.74224853515625
 40
0.1761903835309518
  0
CIRCLE
  8
_1-0_
  6
CONTINUOUS
 62
    7
 10
107.11063694309544
 20
167.45139869483742
 40
0.1761903835309518
  0
CIRCLE
  8
_1-0_
  6
CONTINUOUS
 62
    7
 10
121.29380097260346
 20
165.40272068332982
 40
0.1761903835309518
  0
CIRCLE
  8
_1-0_
  6
CONTINUOUS
 62
    7
 10
121.68778703019426
 20
166.26947763803844
 40
0.1761903835309518
  0
CIRCLE
  8
_1-0_
  6
CONTINUOUS
 62
    7
 10
124.83960125897383
 20
166.19068042652029
 40
0.1761903835309518
  0
CIRCLE
  8
_1-0_
  6
CONTINUOUS
 62
    7
 10
122.39693718987543
 20
164.85115257469386
 40
0.1761903835309518
  0
CIRCLE
  8
_1-0_
  6
CONTINUOUS
 62
    7
 10
124.05164151578337
 20
164.6147733121305
 40
0.1761903835309518
  0
CIRCLE
  8
_1-0_
  6
CONTINUOUS
 62
    7
 10
122.23935513883025
 20
166.11188321500211
 40
0.1761903835309518
  0
CIRCLE
  8
_1-0_
  6
CONTINUOUS
 62
    7
 10
121.60898981867611
 20
168.16056122650971
 40
0.1761903835309518
  0
CIRCLE
  8
_1-0_
  6
CONTINUOUS
 62
    7
 10
126.02152231577281
 20
167.76658754091005
 40
0.1761903835309518
  0
CIRCLE
  8
_1-0_
  6
CONTINUOUS
 62
    7
 10
127.83382106471707
 20
167.37261385531039
 40
0.1761903835309518
  0
CIRCLE
  8
_1-0_
  6
CONTINUOUS
 62
    7
 10
126.88827927048142
 20
166.58465411211995
 40
0.1761903835309518
  0
CIRCLE
  8
_1-0_
  6
CONTINUOUS
 62
    7
 10
129.56732260214318
 20
166.19068042652029
 40
0.1761903835309518
  0
CIRCLE
  8
_1-0_
  6
CONTINUOUS
 62
    7
 10
130.90685045396961
 20
165.6391123178843
 40
0.1761903835309518
  0
CIRCLE
  8
_1-0_
  6
CONTINUOUS
 62
    7
 10
131.37962135108742
 20
167.45139869483742
 40
0.1761903835309518
  0
CIRCLE
  8
_1-0_
  6
CONTINUOUS
 62
    7
 10
130.04009349926099
 20
165.00874699773016
 40
0.1761903835309518
  0
CIRCLE
  8
_1-0_
  6
CONTINUOUS
 62
    7
 10
128.30660433382602
 20
164.77235536317568
 40
0.1761903835309518
  0
CIRCLE
  8
_1-0_
  6
CONTINUOUS
 62
    7
 10
131.06443250501479
 20
165.16634142076649
 40
0.1761903835309518
  0
CIRCLE
  8
_1-0_
  6
CONTINUOUS
 62
    7
 10
134.45263836834883
 20
165.00874699773016
 40
0.1761903835309518
  0
CIRCLE
  8
_1-0_
  6
CONTINUOUS
 62
    7
 10
137.91964144320102
 20
165.08754420924831
 40
0.1761903835309518
  0
CIRCLE
  8
_1-0_
  6
CONTINUOUS
 62
    7
 10
136.34373432881125
 20
166.19068042652029
 40
0.1761903835309518
  0
CIRCLE
  8
_1-0_
  6
CONTINUOUS
 62
    7
 10
134.45263836834883
 20
166.50585690060177
 40
0.1761903835309518
  0
CIRCLE
  8
_1-0_
  6
CONTINUOUS
 62
    7
 10
132.79793404244089
 20
166.97862779771961
 40
0.1761903835309518
  0
CIRCLE
  8
_1-0_
  6
CONTINUOUS
 62
    7
 10
135.79216622017526
 20
167.76658754091005
 40
0.1761903835309518
  0
CIRCLE
  8
_1-0_
  6
CONTINUOUS
 62
    7
 10
136.89530243744721
 20
164.37838167757602
 40
0.1761903835309518
  0
CIRCLE
  8
_1-0_
  6
CONTINUOUS
 62
    7
 10
125.31237215609164
 20
166.74224853515625
 40
0.1761903835309518
  0
CIRCLE
  8
_1-0_
  6
CONTINUOUS
 62
    7
 10
123.3424913561022
 20
167.45139869483742
 40
0.1761903835309518
  0
CIRCLE
  8
_1-0_
  6
CONTINUOUS
 62
    7
 10
146.00311691696581
 20
165.00874699773016
 40
0.1761903835309518
  0
CIRCLE
  8
_1-0_
  6
CONTINUOUS
 62
    7
 10
149.470119991818
 20
165.08754420924831
 40
0.1761903835309518
  0
CIRCLE
  8
_1-0_
  6
CONTINUOUS
 62
    7
 10
147.89421287742823
 20
166.19068042652029
 40
0.1761903835309518
  0
CIRCLE
  8
_1-0_
  6
CONTINUOUS
 62
    7
 10
146.00311691696581
 20
166.50585690060177
 40
0.1761903835309518
  0
CIRCLE
  8
_1-0_
  6
CONTINUOUS
 62
    7
 10
147.34264476879224
 20
167.76658754091005
 40
0.1761903835309518
  0
CIRCLE
  8
_1-0_
  6
CONTINUOUS
 62
    7
 10
148.44578098606419
 20
164.37838167757602
 40
0.1761903835309518
  0
CIRCLE
  8
_1-0_
  6
CONTINUOUS
 62
    7
 10
149.07612156223607
 20
165.40272068332982
 40
0.1761903835309518
  0
CIRCLE
  8
_1-0_
  6
CONTINUOUS
 62
    7
 10
149.47010761982688
 20
166.26947763803844
 40
0.1761903835309518
  0
CIRCLE
  8
_1-0_
  6
CONTINUOUS
 62
    7
 10
152.62192184860643
 20
166.19068042652029
 40
0.1761903835309518
  0
CIRCLE
  8
_1-0_
  6
CONTINUOUS
 62
    7
 10
150.17925777950802
 20
164.85115257469386
 40
0.1761903835309518
  0
CIRCLE
  8
_1-0_
  6
CONTINUOUS
 62
    7
 10
151.83396210541596
 20
164.6147733121305
 40
0.1761903835309518
  0
CIRCLE
  8
_1-0_
  6
CONTINUOUS
 62
    7
 10
150.02167572846284
 20
166.11188321500211
 40
0.1761903835309518
  0
CIRCLE
  8
_1-0_
  6
CONTINUOUS
 62
    7
 10
149.3913104083087
 20
168.16056122650971
 40
0.1761903835309518
  0
CIRCLE
  8
_1-0_
  6
CONTINUOUS
 62
    7
 10
153.80384290540542
 20
167.76658754091005
 40
0.1761903835309518
  0
CIRCLE
  8
_1-0_
  6
CONTINUOUS
 62
    7
 10
155.61614165434966
 20
167.37261385531039
 40
0.1761903835309518
  0
CIRCLE
  8
_1-0_
  6
CONTINUOUS
 62
    7
 10
154.67059986011404
 20
166.58465411211995
 40
0.1761903835309518
  0
CIRCLE
  8
_1-0_
  6
CONTINUOUS
 62
    7
 10
157.34964319177575
 20
166.19068042652029
 40
0.1761903835309518
  0
CIRCLE
  8
_1-0_
  6
CONTINUOUS
 62
    7
 10
158.68917104360222
 20
165.6391123178843
 40
0.1761903835309518
  0
CIRCLE
  8
_1-0_
  6
CONTINUOUS
 62
    7
 10
159.16194194072003
 20
167.45139869483742
 40
0.1761903835309518
  0
CIRCLE
  8
_1-0_
  6
CONTINUOUS
 62
    7
 10
157.82241408889359
 20
165.00874699773016
 40
0.1761903835309518
  0
CIRCLE
  8
_1-0_
  6
CONTINUOUS
 62
    7
 10
156.08892492345862
 20
164.77235536317568
 40
0.1761903835309518
  0
CIRCLE
  8
_1-0_
  6
CONTINUOUS
 62
    7
 10
158.8467530946474
 20
165.16634142076649
 40
0.1761903835309518
  0
CIRCLE
  8
_1-0_
  6
CONTINUOUS
 62
    7
 10
162.23495895798143
 20
165.00874699773016
 40
0.1761903835309518
  0
CIRCLE
  8
_1-0_
  6
CONTINUOUS
 62
    7
 10
165.70196203283362
 20
165.08754420924831
 40
0.1761903835309518
  0
CIRCLE
  8
_1-0_
  6
CONTINUOUS
 62
    7
 10
164.12605491844386
 20
166.19068042652029
 40
0.1761903835309518
  0
CIRCLE
  8
_1-0_
  6
CONTINUOUS
 62
    7
 10
162.23495895798143
 20
166.50585690060177
 40
0.1761903835309518
  0
CIRCLE
  8
_1-0_
  6
CONTINUOUS
 62
    7
 10
160.58025463207349
 20
166.97862779771961
 40
0.1761903835309518
  0
CIRCLE
  8
_1-0_
  6
CONTINUOUS
 62
    7
 10
163.57448680980787
 20
167.76658754091005
 40
0.1761903835309518
  0
CIRCLE
  8
_1-0_
  6
CONTINUOUS
 62
    7
 10
164.67762302707982
 20
164.37838167757602
 40
0.1761903835309518
  0
CIRCLE
  8
_1-0_
  6
CONTINUOUS
 62
    7
 10
153.09469274572425
 20
166.74224853515625
 40
0.1761903835309518
  0
CIRCLE
  8
_1-0_
  6
CONTINUOUS
 62
    7
 10
151.12481194573482
 20
167.45139869483742
 40
0.1761903835309518
  0
CIRCLE
  8
_1-0_
  6
CONTINUOUS
 62
    7
 10
138.46893310546875
 20
165.00874699773016
 40
0.1761903835309518
  0
CIRCLE
  8
_1-0_
  6
CONTINUOUS
 62
    7
 10
141.93593618032097
 20
165.08754420924831
 40
0.1761903835309518
  0
CIRCLE
  8
_1-0_
  6
CONTINUOUS
 62
    7
 10
140.36002906593117
 20
166.19068042652029
 40
0.1761903835309518
  0
CIRCLE
  8
_1-0_
  6
CONTINUOUS
 62
    7
 10
138.46893310546875
 20
166.50585690060177
 40
0.1761903835309518
  0
CIRCLE
  8
_1-0_
  6
CONTINUOUS
 62
    7
 10
139.80846095729518
 20
167.76658754091005
 40
0.1761903835309518
  0
CIRCLE
  8
_1-0_
  6
CONTINUOUS
 62
    7
 10
140.91159717456716
 20
164.37838167757602
 40
0.1761903835309518
  0
CIRCLE
  8
_1-0_
  6
CONTINUOUS
 62
    7
 10
141.54193775073904
 20
165.40272068332982
 40
0.1761903835309518
  0
CIRCLE
  8
_1-0_
  6
CONTINUOUS
 62
    7
 10
141.93592380832982
 20
166.26947763803844
 40
0.1761903835309518
  0
CIRCLE
  8
_1-0_
  6
CONTINUOUS
 62
    7
 10
145.08773803710937
 20
166.19068042652029
 40
0.1761903835309518
  0
CIRCLE
  8
_1-0_
  6
CONTINUOUS
 62
    7
 10
142.64507396801099
 20
164.85115257469386
 40
0.1761903835309518
  0
CIRCLE
  8
_1-0_
  6
CONTINUOUS
 62
    7
 10
144.29977829391893
 20
164.6147733121305
 40
0.1761903835309518
  0
CIRCLE
  8
_1-0_
  6
CONTINUOUS
 62
    7
 10
142.48749191696581
 20
166.11188321500211
 40
0.1761903835309518
  0
CIRCLE
  8
_1-0_
  6
CONTINUOUS
 62
    7
 10
141.85712659681167
 20
168.16056122650971
 40
0.1761903835309518
  0
CIRCLE
  8
_1-0_
  6
CONTINUOUS
 62
    7
 10
146.26965909390836
 20
167.76658754091005
 40
0.1761903835309518
  0
CIRCLE
  8
_1-0_
  6
CONTINUOUS
 62
    7
 10
148.08195784285263
 20
167.37261385531039
 40
0.1761903835309518
  0
CIRCLE
  8
_1-0_
  6
CONTINUOUS
 62
    7
 10
147.13641604861698
 20
166.58465411211995
 40
0.1761903835309518
  0
CIRCLE
  8
_1-0_
  6
CONTINUOUS
 62
    7
 10
149.81545938027872
 20
166.19068042652029
 40
0.1761903835309518
  0
CIRCLE
  8
_1-0_
  6
CONTINUOUS
 62
    7
 10
151.15498723210516
 20
165.6391123178843
 40
0.1761903835309518
  0
CIRCLE
  8
_1-0_
  6
CONTINUOUS
 62
    7
 10
151.62775812922297
 20
167.45139869483742
 40
0.1761903835309518
  0
CIRCLE
  8
_1-0_
  6
CONTINUOUS
 62
    7
 10
150.28823027739654
 20
165.00874699773016
 40
0.1761903835309518
  0
CIRCLE
  8
_1-0_
  6
CONTINUOUS
 62
    7
 10
148.55474111196159
 20
164.77235536317568
 40
0.1761903835309518
  0
CIRCLE
  8
_1-0_
  6
CONTINUOUS
 62
    7
 10
151.31256928315034
 20
165.16634142076649
 40
0.1761903835309518
  0
CIRCLE
  8
_1-0_
  6
CONTINUOUS
 62
    7
 10
154.70077514648437
 20
165.00874699773016
 40
0.1761903835309518
  0
CIRCLE
  8
_1-0_
  6
CONTINUOUS
 62
    7
 10
158.16777822133659
 20
165.08754420924831
 40
0.1761903835309518
  0
CIRCLE
  8
_1-0_
  6
CONTINUOUS
 62
    7
 10
156.5918711069468
 20
166.19068042652029
 40
0.1761903835309518
  0
CIRCLE
  8
_1-0_
  6
CONTINUOUS
 62
    7
 10
154.70077514648437
 20
166.50585690060177
 40
0.1761903835309518
  0
CIRCLE
  8
_1-0_
  6
CONTINUOUS
 62
    7
 10
153.04607082057643
 20
166.97862779771961
 40
0.1761903835309518
  0
CIRCLE
  8
_1-0_
  6
CONTINUOUS
 62
    7
 10
156.04030299831081
 20
167.76658754091005
 40
0.1761903835309518
  0
CIRCLE
  8
_1-0_
  6
CONTINUOUS
 62
    7
 10
157.14343921558279
 20
164.37838167757602
 40
0.1761903835309518
  0
CIRCLE
  8
_1-0_
  6
CONTINUOUS
 62
    7
 10
145.56050893422722
 20
166.74224853515625
 40
0.1761903835309518
  0
CIRCLE
  8
_1-0_
  6
CONTINUOUS
 62
    7
 10
143.59062813423776
 20
167.45139869483742
 40
0.1761903835309518
  0
CIRCLE
  8
_1-0_
  6
CONTINUOUS
 62
    7
 10
173.31455952412375
 20
165.00874699773016
 40
0.1761903835309518
  0
CIRCLE
  8
_1-0_
  6
CONTINUOUS
 62
    7
 10
176.78156259897594
 20
165.08754420924831
 40
0.1761903835309518
  0
CIRCLE
  8
_1-0_
  6
CONTINUOUS
 62
    7
 10
175.20565548458615
 20
166.19068042652029
 40
0.1761903835309518
  0
CIRCLE
  8
_1-0_
  6
CONTINUOUS
 62
    7
 10
173.31455952412375
 20
166.50585690060177
 40
0.1761903835309518
  0
CIRCLE
  8
_1-0_
  6
CONTINUOUS
 62
    7
 10
174.65408737595018
 20
167.76658754091005
 40
0.1761903835309518
  0
CIRCLE
  8
_1-0_
  6
CONTINUOUS
 62
    7
 10
175.75722359322214
 20
164.37838167757602
 40
0.1761903835309518
  0
CIRCLE
  8
_1-0_
  6
CONTINUOUS
 62
    7
 10
176.38756416939401
 20
165.40272068332982
 40
0.1761903835309518
  0
CIRCLE
  8
_1-0_
  6
CONTINUOUS
 62
    7
 10
176.78155022698482
 20
166.26947763803844
 40
0.1761903835309518
  0
CIRCLE
  8
_1-0_
  6
CONTINUOUS
 62
    7
 10
179.93336445576438
 20
166.19068042652029
 40
0.1761903835309518
  0
CIRCLE
  8
_1-0_
  6
CONTINUOUS
 62
    7
 10
177.49070038666596
 20
164.85115257469386
 40
0.1761903835309518
  0
CIRCLE
  8
_1-0_
  6
CONTINUOUS
 62
    7
 10
179.14540471257391
 20
164.6147733121305
 40
0.1761903835309518
  0
CIRCLE
  8
_1-0_
  6
CONTINUOUS
 62
    7
 10
177.33311833562078
 20
166.11188321500211
 40
0.1761903835309518
  0
CIRCLE
  8
_1-0_
  6
CONTINUOUS
 62
    7
 10
176.70275301546664
 20
168.16056122650971
 40
0.1761903835309518
  0
CIRCLE
  8
_1-0_
  6
CONTINUOUS
 62
    7
 10
181.11528551256336
 20
167.76658754091005
 40
0.1761903835309518
  0
CIRCLE
  8
_1-0_
  6
CONTINUOUS
 62
    7
 10
182.9275842615076
 20
167.37261385531039
 40
0.1761903835309518
  0
CIRCLE
  8
_1-0_
  6
CONTINUOUS
 62
    7
 10
181.98204246727198
 20
166.58465411211995
 40
0.1761903835309518
  0
CIRCLE
  8
_1-0_
  6
CONTINUOUS
 62
    7
 10
184.6610857989337
 20
166.19068042652029
 40
0.1761903835309518
  0
CIRCLE
  8
_1-0_
  6
CONTINUOUS
 62
    7
 10
186.00061365076016
 20
165.6391123178843
 40
0.1761903835309518
  0
CIRCLE
  8
_1-0_
  6
CONTINUOUS
 62
    7
 10
186.47338454787797
 20
167.45139869483742
 40
0.1761903835309518
  0
CIRCLE
  8
_1-0_
  6
CONTINUOUS
 62
    7
 10
185.13385669605154
 20
165.00874699773016
 40
0.1761903835309518
  0
CIRCLE
  8
_1-0_
  6
CONTINUOUS
 62
    7
 10
183.40036753061656
 20
164.77235536317568
 40
0.1761903835309518
  0
CIRCLE
  8
_1-0_
  6
CONTINUOUS
 62
    7
 10
186.15819570180534
 20
165.16634142076649
 40
0.1761903835309518
  0
CIRCLE
  8
_1-0_
  6
CONTINUOUS
 62
    7
 10
189.54640156513938
 20
165.00874699773016
 40
0.1761903835309518
  0
CIRCLE
  8
_1-0_
  6
CONTINUOUS
 62
    7
 10
193.01340463999156
 20
165.08754420924831
 40
0.1761903835309518
  0
CIRCLE
  8
_1-0_
  6
CONTINUOUS
 62
    7
 10
191.43749752560177
 20
166.19068042652029
 40
0.1761903835309518
  0
CIRCLE
  8
_1-0_
  6
CONTINUOUS
 62
    7
 10
189.54640156513938
 20
166.50585690060177
 40
0.1761903835309518
  0
CIRCLE
  8
_1-0_
  6
CONTINUOUS
 62
    7
 10
187.89169723923143
 20
166.97862779771961
 40
0.1761903835309518
  0
CIRCLE
  8
_1-0_
  6
CONTINUOUS
 62
    7
 10
190.88592941696581
 20
167.76658754091005
 40
0.1761903835309518
  0
CIRCLE
  8
_1-0_
  6
CONTINUOUS
 62
    7
 10
191.98906563423776
 20
164.37838167757602
 40
0.1761903835309518
  0
CIRCLE
  8
_1-0_
  6
CONTINUOUS
 62
    7
 10
180.40613535288219
 20
166.74224853515625
 40
0.1761903835309518
  0
CIRCLE
  8
_1-0_
  6
CONTINUOUS
 62
    7
 10
178.43625455289273
 20
167.45139869483742
 40
0.1761903835309518
  0
CIRCLE
  8
_1-0_
  6
CONTINUOUS
 62
    7
 10
166.01582707585516
 20
165.00874699773016
 40
0.1761903835309518
  0
CIRCLE
  8
_1-0_
  6
CONTINUOUS
 62
    7
 10
169.48283015070734
 20
165.08754420924831
 40
0.1761903835309518
  0
CIRCLE
  8
_1-0_
  6
CONTINUOUS
 62
    7
 10
167.90692303631758
 20
166.19068042652029
 40
0.1761903835309518
  0
CIRCLE
  8
_1-0_
  6
CONTINUOUS
 62
    7
 10
166.01582707585516
 20
166.50585690060177
 40
0.1761903835309518
  0
CIRCLE
  8
_1-0_
  6
CONTINUOUS
 62
    7
 10
167.35535492768159
 20
167.76658754091005
 40
0.1761903835309518
  0
CIRCLE
  8
_1-0_
  6
CONTINUOUS
 62
    7
 10
168.45849114495357
 20
164.37838167757602
 40
0.1761903835309518
  0
CIRCLE
  8
_1-0_
  6
CONTINUOUS
 62
    7
 10
169.08883172112544
 20
165.40272068332982
 40
0.1761903835309518
  0
CIRCLE
  8
_1-0_
  6
CONTINUOUS
 62
    7
 10
169.48281777871622
 20
166.26947763803844
 40
0.1761903835309518
  0
CIRCLE
  8
_1-0_
  6
CONTINUOUS
 62
    7
 10
172.63463200749578
 20
166.19068042652029
 40
0.1761903835309518
  0
CIRCLE
  8
_1-0_
  6
CONTINUOUS
 62
    7
 10
170.1919679383974
 20
164.85115257469386
 40
0.1761903835309518
  0
CIRCLE
  8
_1-0_
  6
CONTINUOUS
 62
    7
 10
171.84667226430534
 20
164.6147733121305
 40
0.1761903835309518
  0
CIRCLE
  8
_1-0_
  6
CONTINUOUS
 62
    7
 10
170.03438588735222
 20
166.11188321500211
 40
0.1761903835309518
  0
CIRCLE
  8
_1-0_
  6
CONTINUOUS
 62
    7
 10
169.40402056719807
 20
168.16056122650971
 40
0.1761903835309518
  0
CIRCLE
  8
_1-0_
  6
CONTINUOUS
 62
    7
 10
173.81655306429477
 20
167.76658754091005
 40
0.1761903835309518
  0
CIRCLE
  8
_1-0_
  6
CONTINUOUS
 62
    7
 10
175.62885181323904
 20
167.37261385531039
 40
0.1761903835309518
  0
CIRCLE
  8
_1-0_
  6
CONTINUOUS
 62
    7
 10
174.68331001900339
 20
166.58465411211995
 40
0.1761903835309518
  0
CIRCLE
  8
_1-0_
  6
CONTINUOUS
 62
    7
 10
177.36235335066513
 20
166.19068042652029
 40
0.1761903835309518
  0
CIRCLE
  8
_1-0_
  6
CONTINUOUS
 62
    7
 10
178.70188120249156
 20
165.6391123178843
 40
0.1761903835309518
  0
CIRCLE
  8
_1-0_
  6
CONTINUOUS
 62
    7
 10
179.17465209960937
 20
167.45139869483742
 40
0.1761903835309518
  0
CIRCLE
  8
_1-0_
  6
CONTINUOUS
 62
    7
 10
177.83512424778294
 20
165.00874699773016
 40
0.1761903835309518
  0
CIRCLE
  8
_1-0_
  6
CONTINUOUS
 62
    7
 10
176.101635082348
 20
164.77235536317568
 40
0.1761903835309518
  0
CIRCLE
  8
_1-0_
  6
CONTINUOUS
 62
    7
 10
178.85946325353675
 20
165.16634142076649
 40
0.1761903835309518
  0
CIRCLE
  8
_1-0_
  6
CONTINUOUS
 62
    7
 10
182.24766911687078
 20
165.00874699773016
 40
0.1761903835309518
  0
CIRCLE
  8
_1-0_
  6
CONTINUOUS
 62
    7
 10
185.714672191723
 20
165.08754420924831
 40
0.1761903835309518
  0
CIRCLE
  8
_1-0_
  6
CONTINUOUS
 62
    7
 10
184.1387650773332
 20
166.19068042652029
 40
0.1761903835309518
  0
CIRCLE
  8
_1-0_
  6
CONTINUOUS
 62
    7
 10
182.24766911687078
 20
166.50585690060177
 40
0.1761903835309518
  0
CIRCLE
  8
_1-0_
  6
CONTINUOUS
 62
    7
 10
180.59296479096284
 20
166.97862779771961
 40
0.1761903835309518
  0
CIRCLE
  8
_1-0_
  6
CONTINUOUS
 62
    7
 10
183.58719696869721
 20
167.76658754091005
 40
0.1761903835309518
  0
CIRCLE
  8
_1-0_
  6
CONTINUOUS
 62
    7
 10
184.69033318596919
 20
164.37838167757602
 40
0.1761903835309518
  0
CIRCLE
  8
_1-0_
  6
CONTINUOUS
 62
    7
 10
173.10740290461362
 20
166.74224853515625
 40
0.1761903835309518
  0
CIRCLE
  8
_1-0_
  6
CONTINUOUS
 62
    7
 10
171.13752210462417
 20
167.45139869483742
 40
0.1761903835309518
  0
CIRCLE
  8
_1-0_
  6
CONTINUOUS
 62
    7
 10
195.21080635689401
 20
165.00874699773016
 40
0.1761903835309518
  0
CIRCLE
  8
_1-0_
  6
CONTINUOUS
 62
    7
 10
198.6778094317462
 20
165.08754420924831
 40
0.1761903835309518
  0
CIRCLE
  8
_1-0_
  6
CONTINUOUS
 62
    7
 10
197.10190231735643
 20
166.19068042652029
 40
0.1761903835309518
  0
CIRCLE
  8
_1-0_
  6
CONTINUOUS
 62
    7
 10
195.21080635689401
 20
166.50585690060177
 40
0.1761903835309518
  0
CIRCLE
  8
_1-0_
  6
CONTINUOUS
 62
    7
 10
196.55033420872044
 20
167.76658754091005
 40
0.1761903835309518
  0
CIRCLE
  8
_1-0_
  6
CONTINUOUS
 62
    7
 10
197.6534704259924
 20
164.37838167757602
 40
0.1761903835309518
  0
CIRCLE
  8
_1-0_
  6
CONTINUOUS
 62
    7
 10
198.28381100216427
 20
165.40272068332982
 40
0.1761903835309518
  0
CIRCLE
  8
_1-0_
  6
CONTINUOUS
 62
    7
 10
198.67779705975508
 20
166.26947763803844
 40
0.1761903835309518
  0
CIRCLE
  8
_1-0_
  6
CONTINUOUS
 62
    7
 10
201.82961128853464
 20
166.19068042652029
 40
0.1761903835309518
  0
CIRCLE
  8
_1-0_
  6
CONTINUOUS
 62
    7
 10
199.38694721943625
 20
164.85115257469386
 40
0.1761903835309518
  0
CIRCLE
  8
_1-0_
  6
CONTINUOUS
 62
    7
 10
201.04165154534419
 20
164.6147733121305
 40
0.1761903835309518
  0
CIRCLE
  8
_1-0_
  6
CONTINUOUS
 62
    7
 10
199.22936516839107
 20
166.11188321500211
 40
0.1761903835309518
  0
CIRCLE
  8
_1-0_
  6
CONTINUOUS
 62
    7
 10
198.59899984823693
 20
168.16056122650971
 40
0.1761903835309518
  0
CIRCLE
  8
_1-0_
  6
CONTINUOUS
 62
    7
 10
203.01153234533362
 20
167.76658754091005
 40
0.1761903835309518
  0
CIRCLE
  8
_1-0_
  6
CONTINUOUS
 62
    7
 10
204.82383109427789
 20
167.37261385531039
 40
0.1761903835309518
  0
CIRCLE
  8
_1-0_
  6
CONTINUOUS
 62
    7
 10
203.87828930004224
 20
166.58465411211995
 40
0.1761903835309518
  0
CIRCLE
  8
_1-0_
  6
CONTINUOUS
 62
    7
 10
206.55733263170399
 20
166.19068042652029
 40
0.1761903835309518
  0
CIRCLE
  8
_1-0_
  6
CONTINUOUS
 62
    7
 10
207.89686048353042
 20
165.6391123178843
 40
0.1761903835309518
  0
CIRCLE
  8
_1-0_
  6
CONTINUOUS
 62
    7
 10
208.36961900865711
 20
167.45139869483742
 40
0.1761903835309518
  0
CIRCLE
  8
_1-0_
  6
CONTINUOUS
 62
    7
 10
207.0301035288218
 20
165.00874699773016
 40
0.1761903835309518
  0
CIRCLE
  8
_1-0_
  6
CONTINUOUS
 62
    7
 10
205.29661436338682
 20
164.77235536317568
 40
0.1761903835309518
  0
CIRCLE
  8
_1-0_
  6
CONTINUOUS
 62
    7
 10
208.05443016258448
 20
165.16634142076649
 40
0.1761903835309518
  0
CIRCLE
  8
_1-0_
  6
CONTINUOUS
 62
    7
 10
211.44264839790964
 20
165.00874699773016
 40
0.1761903835309518
  0
CIRCLE
  8
_1-0_
  6
CONTINUOUS
 62
    7
 10
214.90965147276182
 20
165.08754420924831
 40
0.1761903835309518
  0
CIRCLE
  8
_1-0_
  6
CONTINUOUS
 62
    7
 10
213.33375673036318
 20
166.19068042652029
 40
0.1761903835309518
  0
CIRCLE
  8
_1-0_
  6
CONTINUOUS
 62
    7
 10
211.44264839790964
 20
166.50585690060177
 40
0.1761903835309518
  0
CIRCLE
  8
_1-0_
  6
CONTINUOUS
 62
    7
 10
209.78794407200169
 20
166.97862779771961
 40
0.1761903835309518
  0
CIRCLE
  8
_1-0_
  6
CONTINUOUS
 62
    7
 10
212.78216387774495
 20
167.76658754091005
 40
0.1761903835309518
  0
CIRCLE
  8
_1-0_
  6
CONTINUOUS
 62
    7
 10
213.8853000950169
 20
164.37838167757602
 40
0.1761903835309518
  0
CIRCLE
  8
_1-0_
  6
CONTINUOUS
 62
    7
 10
202.30238218565245
 20
166.74224853515625
 40
0.1761903835309518
  0
CIRCLE
  8
_1-0_
  6
CONTINUOUS
 62
    7
 10
200.33250138566302
 20
167.45139869483742
 40
0.1761903835309518
  0
CIRCLE
  8
_1-0_
  6
CONTINUOUS
 62
    7
 10
214.28174817884292
 20
165.00874699773016
 40
0.1761903835309518
  0
CIRCLE
  8
_1-0_
  6
CONTINUOUS
 62
    7
 10
217.74872650971284
 20
165.08754420924831
 40
0.1761903835309518
  0
CIRCLE
  8
_1-0_
  6
CONTINUOUS
 62
    7
 10
216.17283176731419
 20
166.19068042652029
 40
0.1761903835309518
  0
CIRCLE
  8
_1-0_
  6
CONTINUOUS
 62
    7
 10
214.28174817884292
 20
166.50585690060177
 40
0.1761903835309518
  0
CIRCLE
  8
_1-0_
  6
CONTINUOUS
 62
    7
 10
215.62126365867823
 20
167.76658754091005
 40
0.1761903835309518
  0
CIRCLE
  8
_1-0_
  6
CONTINUOUS
 62
    7
 10
216.72439987595018
 20
164.37838167757602
 40
0.1761903835309518
  0
CIRCLE
  8
_1-0_
  6
CONTINUOUS
 62
    7
 10
217.35475282411318
 20
165.40272068332982
 40
0.1761903835309518
  0
CIRCLE
  8
_1-0_
  6
CONTINUOUS
 62
    7
 10
217.74872650971284
 20
166.26947763803844
 40
0.1761903835309518
  0
CIRCLE
  8
_1-0_
  6
CONTINUOUS
 62
    7
 10
220.90054073849242
 20
166.19068042652029
 40
0.1761903835309518
  0
CIRCLE
  8
_1-0_
  6
CONTINUOUS
 62
    7
 10
218.45788904138516
 20
164.85115257469386
 40
0.1761903835309518
  0
CIRCLE
  8
_1-0_
  6
CONTINUOUS
 62
    7
 10
220.11256862331084
 20
164.6147733121305
 40
0.1761903835309518
  0
CIRCLE
  8
_1-0_
  6
CONTINUOUS
 62
    7
 10
218.30029461834883
 20
166.11188321500211
 40
0.1761903835309518
  0
CIRCLE
  8
_1-0_
  6
CONTINUOUS
 62
    7
 10
217.66994167018584
 20
168.16056122650971
 40
0.1761903835309518
  0
CIRCLE
  8
_1-0_
  6
CONTINUOUS
 62
    7
 10
222.08246179529141
 20
167.76658754091005
 40
0.1761903835309518
  0
CIRCLE
  8
_1-0_
  6
CONTINUOUS
 62
    7
 10
223.89476054423565
 20
167.37261385531039
 40
0.1761903835309518
  0
CIRCLE
  8
_1-0_
  6
CONTINUOUS
 62
    7
 10
222.94921875
 20
166.58465411211995
 40
0.1761903835309518
  0
CIRCLE
  8
_1-0_
  6
CONTINUOUS
 62
    7
 10
225.62824970967063
 20
166.19068042652029
 40
0.1761903835309518
  0
CIRCLE
  8
_1-0_
  6
CONTINUOUS
 62
    7
 10
226.96778993348818
 20
165.6391123178843
 40
0.1761903835309518
  0
CIRCLE
  8
_1-0_
  6
CONTINUOUS
 62
    7
 10
227.44054845861487
 20
167.45139869483742
 40
0.1761903835309518
  0
CIRCLE
  8
_1-0_
  6
CONTINUOUS
 62
    7
 10
226.10103297877959
 20
165.00874699773016
 40
0.1761903835309518
  0
CIRCLE
  8
_1-0_
  6
CONTINUOUS
 62
    7
 10
224.36754381334461
 20
164.77235536317568
 40
0.1761903835309518
  0
CIRCLE
  8
_1-0_
  6
CONTINUOUS
 62
    7
 10
227.12535961254224
 20
165.16634142076649
 40
0.1761903835309518
  0
CIRCLE
  8
_1-0_
  6
CONTINUOUS
 62
    7
 10
230.51357784786742
 20
165.00874699773016
 40
0.1761903835309518
  0
CIRCLE
  8
_1-0_
  6
CONTINUOUS
 62
    7
 10
233.98058092271961
 20
165.08754420924831
 40
0.1761903835309518
  0
CIRCLE
  8
_1-0_
  6
CONTINUOUS
 62
    7
 10
232.40468618032097
 20
166.19068042652029
 40
0.1761903835309518
  0
CIRCLE
  8
_1-0_
  6
CONTINUOUS
 62
    7
 10
230.51357784786742
 20
166.50585690060177
 40
0.1761903835309518
  0
CIRCLE
  8
_1-0_
  6
CONTINUOUS
 62
    7
 10
228.85887352195948
 20
166.97862779771961
 40
0.1761903835309518
  0
CIRCLE
  8
_1-0_
  6
CONTINUOUS
 62
    7
 10
231.85309332770271
 20
167.76658754091005
 40
0.1761903835309518
  0
CIRCLE
  8
_1-0_
  6
CONTINUOUS
 62
    7
 10
232.95622954497466
 20
164.37838167757602
 40
0.1761903835309518
  0
CIRCLE
  8
_1-0_
  6
CONTINUOUS
 62
    7
 10
221.37332400760135
 20
166.74224853515625
 40
0.1761903835309518
  0
CIRCLE
  8
_1-0_
  6
CONTINUOUS
 62
    7
 10
219.40343083562078
 20
167.45139869483742
 40
0.1761903835309518
  0
CIRCLE
  8
_1-0_
  6
CONTINUOUS
 62
    7
 10
236.41340925886826
 20
165.00874699773016
 40
0.1761903835309518
  0
CIRCLE
  8
_1-0_
  6
CONTINUOUS
 62
    7
 10
239.88043707770271
 20
165.08754420924831
 40
0.1761903835309518
  0
CIRCLE
  8
_1-0_
  6
CONTINUOUS
 62
    7
 10
238.3045175913218
 20
166.19068042652029
 40
0.1761903835309518
  0
CIRCLE
  8
_1-0_
  6
CONTINUOUS
 62
    7
 10
236.41340925886826
 20
166.50585690060177
 40
0.1761903835309518
  0
CIRCLE
  8
_1-0_
  6
CONTINUOUS
 62
    7
 10
237.75294948268584
 20
167.76658754091005
 40
0.1761903835309518
  0
CIRCLE
  8
_1-0_
  6
CONTINUOUS
 62
    7
 10
238.85608569995779
 20
164.37838167757602
 40
0.1761903835309518
  0
CIRCLE
  8
_1-0_
  6
CONTINUOUS
 62
    7
 10
239.48641390413852
 20
165.40272068332982
 40
0.1761903835309518
  0
CIRCLE
  8
_1-0_
  6
CONTINUOUS
 62
    7
 10
239.88041233372044
 20
166.26947763803844
 40
0.1761903835309518
  0
CIRCLE
  8
_1-0_
  6
CONTINUOUS
 62
    7
 10
243.0322265625
 20
166.19068042652029
 40
0.1761903835309518
  0
CIRCLE
  8
_1-0_
  6
CONTINUOUS
 62
    7
 10
240.5895501214105
 20
164.85115257469386
 40
0.1761903835309518
  0
CIRCLE
  8
_1-0_
  6
CONTINUOUS
 62
    7
 10
242.24427919130068
 20
164.6147733121305
 40
0.1761903835309518
  0
CIRCLE
  8
_1-0_
  6
CONTINUOUS
 62
    7
 10
240.43198044235643
 20
166.11188321500211
 40
0.1761903835309518
  0
CIRCLE
  8
_1-0_
  6
CONTINUOUS
 62
    7
 10
239.80160275021117
 20
168.16056122650971
 40
0.1761903835309518
  0
CIRCLE
  8
_1-0_
  6
CONTINUOUS
 62
    7
 10
244.21414761929901
 20
167.76658754091005
 40
0.1761903835309518
  0
CIRCLE
  8
_1-0_
  6
CONTINUOUS
 62
    7
 10
246.02644636824326
 20
167.37261385531039
 40
0.1761903835309518
  0
CIRCLE
  8
_1-0_
  6
CONTINUOUS
 62
    7
 10
245.0809045740076
 20
166.58465411211995
 40
0.1761903835309518
  0
CIRCLE
  8
_1-0_
  6
CONTINUOUS
 62
    7
 10
247.7599602776605
 20
166.19068042652029
 40
0.1761903835309518
  0
CIRCLE
  8
_1-0_
  6
CONTINUOUS
 62
    7
 10
249.09947575749578
 20
165.6391123178843
 40
0.1761903835309518
  0
CIRCLE
  8
_1-0_
  6
CONTINUOUS
 62
    7
 10
249.57225902660474
 20
167.45139869483742
 40
0.1761903835309518
  0
CIRCLE
  8
_1-0_
  6
CONTINUOUS
 62
    7
 10
248.23271880278719
 20
165.00874699773016
 40
0.1761903835309518
  0
CIRCLE
  8
_1-0_
  6
CONTINUOUS
 62
    7
 10
246.49922963735222
 20
164.77235536317568
 40
0.1761903835309518
  0
CIRCLE
  8
_1-0_
  6
CONTINUOUS
 62
    7
 10
249.25707018053211
 20
165.16634142076649
 40
0.1761903835309518
  0
CIRCLE
  8
_1-0_
  6
CONTINUOUS
 62
    7
 10
252.645263671875
 20
165.00874699773016
 40
0.1761903835309518
  0
CIRCLE
  8
_1-0_
  6
CONTINUOUS
 62
    7
 10
256.11226674672719
 20
165.08754420924831
 40
0.1761903835309518
  0
CIRCLE
  8
_1-0_
  6
CONTINUOUS
 62
    7
 10
254.5363472603463
 20
166.19068042652029
 40
0.1761903835309518
  0
CIRCLE
  8
_1-0_
  6
CONTINUOUS
 62
    7
 10
252.645263671875
 20
166.50585690060177
 40
0.1761903835309518
  0
CIRCLE
  8
_1-0_
  6
CONTINUOUS
 62
    7
 10
250.99055934596709
 20
166.97862779771961
 40
0.1761903835309518
  0
CIRCLE
  8
_1-0_
  6
CONTINUOUS
 62
    7
 10
253.98480389569258
 20
167.76658754091005
 40
0.1761903835309518
  0
CIRCLE
  8
_1-0_
  6
CONTINUOUS
 62
    7
 10
255.08794011296453
 20
164.37838167757602
 40
0.1761903835309518
  0
CIRCLE
  8
_1-0_
  6
CONTINUOUS
 62
    7
 10
243.50498508762669
 20
166.74224853515625
 40
0.1761903835309518
  0
CIRCLE
  8
_1-0_
  6
CONTINUOUS
 62
    7
 10
241.53511665962839
 20
167.45139869483742
 40
0.1761903835309518
  0
CIRCLE
  8
_1-0_
  6
CONTINUOUS
 62
    7
 10
256.66155840899495
 20
165.00874699773016
 40
0.1761903835309518
  0
CIRCLE
  8
_1-0_
  6
CONTINUOUS
 62
    7
 10
260.1285367398649
 20
165.08754420924831
 40
0.1761903835309518
  0
CIRCLE
  8
_1-0_
  6
CONTINUOUS
 62
    7
 10
258.55264199746625
 20
166.19068042652029
 40
0.1761903835309518
  0
CIRCLE
  8
_1-0_
  6
CONTINUOUS
 62
    7
 10
256.66155840899495
 20
166.50585690060177
 40
0.1761903835309518
  0
CIRCLE
  8
_1-0_
  6
CONTINUOUS
 62
    7
 10
258.00107388883026
 20
167.76658754091005
 40
0.1761903835309518
  0
CIRCLE
  8
_1-0_
  6
CONTINUOUS
 62
    7
 10
259.10421010610219
 20
164.37838167757602
 40
0.1761903835309518
  0
CIRCLE
  8
_1-0_
  6
CONTINUOUS
 62
    7
 10
259.73456305426521
 20
165.40272068332982
 40
0.1761903835309518
  0
CIRCLE
  8
_1-0_
  6
CONTINUOUS
 62
    7
 10
260.1285367398649
 20
166.26947763803844
 40
0.1761903835309518
  0
CIRCLE
  8
_1-0_
  6
CONTINUOUS
 62
    7
 10
263.28035096864443
 20
166.19068042652029
 40
0.1761903835309518
  0
CIRCLE
  8
_1-0_
  6
CONTINUOUS
 62
    7
 10
260.83769927153719
 20
164.85115257469386
 40
0.1761903835309518
  0
CIRCLE
  8
_1-0_
  6
CONTINUOUS
 62
    7
 10
262.49237885346287
 20
164.6147733121305
 40
0.1761903835309518
  0
CIRCLE
  8
_1-0_
  6
CONTINUOUS
 62
    7
 10
260.68010484850083
 20
166.11188321500211
 40
0.1761903835309518
  0
CIRCLE
  8
_1-0_
  6
CONTINUOUS
 62
    7
 10
260.04975190033787
 20
168.16056122650971
 40
0.1761903835309518
  0
CIRCLE
  8
_1-0_
  6
CONTINUOUS
 62
    7
 10
264.46227202544344
 20
167.76658754091005
 40
0.1761903835309518
  0
CIRCLE
  8
_1-0_
  6
CONTINUOUS
 62
    7
 10
266.27457077438771
 20
167.37261385531039
 40
0.1761903835309518
  0
CIRCLE
  8
_1-0_
  6
CONTINUOUS
 62
    7
 10
265.32902898015203
 20
166.58465411211995
 40
0.1761903835309518
  0
CIRCLE
  8
_1-0_
  6
CONTINUOUS
 62
    7
 10
268.00805993982266
 20
166.19068042652029
 40
0.1761903835309518
  0
CIRCLE
  8
_1-0_
  6
CONTINUOUS
 62
    7
 10
269.34760016364021
 20
165.6391123178843
 40
0.1761903835309518
  0
CIRCLE
  8
_1-0_
  6
CONTINUOUS
 62
    7
 10
269.82035868876693
 20
167.45139869483742
 40
0.1761903835309518
  0
CIRCLE
  8
_1-0_
  6
CONTINUOUS
 62
    7
 10
268.48084320893162
 20
165.00874699773016
 40
0.1761903835309518
  0
CIRCLE
  8
_1-0_
  6
CONTINUOUS
 62
    7
 10
266.74735404349661
 20
164.77235536317568
 40
0.1761903835309518
  0
CIRCLE
  8
_1-0_
  6
CONTINUOUS
 62
    7
 10
269.50516984269427
 20
165.16634142076649
 40
0.1761903835309518
  0
CIRCLE
  8
_1-0_
  6
CONTINUOUS
 62
    7
 10
272.89338807801943
 20
165.00874699773016
 40
0.1761903835309518
  0
CIRCLE
  8
_1-0_
  6
CONTINUOUS
 62
    7
 10
276.36039115287161
 20
165.08754420924831
 40
0.1761903835309518
  0
CIRCLE
  8
_1-0_
  6
CONTINUOUS
 62
    7
 10
274.78449641047297
 20
166.19068042652029
 40
0.1761903835309518
  0
CIRCLE
  8
_1-0_
  6
CONTINUOUS
 62
    7
 10
272.89338807801943
 20
166.50585690060177
 40
0.1761903835309518
  0
CIRCLE
  8
_1-0_
  6
CONTINUOUS
 62
    7
 10
271.23868375211151
 20
166.97862779771961
 40
0.1761903835309518
  0
CIRCLE
  8
_1-0_
  6
CONTINUOUS
 62
    7
 10
274.23290355785474
 20
167.76658754091005
 40
0.1761903835309518
  0
CIRCLE
  8
_1-0_
  6
CONTINUOUS
 62
    7
 10
275.33603977512672
 20
164.37838167757602
 40
0.1761903835309518
  0
CIRCLE
  8
_1-0_
  6
CONTINUOUS
 62
    7
 10
263.75313423775339
 20
166.74224853515625
 40
0.1761903835309518
  0
CIRCLE
  8
_1-0_
  6
CONTINUOUS
 62
    7
 10
261.78324106577281
 20
167.45139869483742
 40
0.1761903835309518
  0
CIRCLE
  8
_1-0_
  6
CONTINUOUS
 62
    7
 10
276.43882957664698
 20
165.00874699773016
 40
0.1761903835309518
  0
CIRCLE
  8
_1-0_
  6
CONTINUOUS
 62
    7
 10
279.90580790751693
 20
165.08754420924831
 40
0.1761903835309518
  0
CIRCLE
  8
_1-0_
  6
CONTINUOUS
 62
    7
 10
278.32991316511828
 20
166.19068042652029
 40
0.1761903835309518
  0
CIRCLE
  8
_1-0_
  6
CONTINUOUS
 62
    7
 10
276.43882957664698
 20
166.50585690060177
 40
0.1761903835309518
  0
CIRCLE
  8
_1-0_
  6
CONTINUOUS
 62
    7
 10
277.77834505648229
 20
167.76658754091005
 40
0.1761903835309518
  0
CIRCLE
  8
_1-0_
  6
CONTINUOUS
 62
    7
 10
278.88148127375422
 20
164.37838167757602
 40
0.1761903835309518
  0
CIRCLE
  8
_1-0_
  6
CONTINUOUS
 62
    7
 10
279.51183422191724
 20
165.40272068332982
 40
0.1761903835309518
  0
CIRCLE
  8
_1-0_
  6
CONTINUOUS
 62
    7
 10
279.90580790751693
 20
166.26947763803844
 40
0.1761903835309518
  0
CIRCLE
  8
_1-0_
  6
CONTINUOUS
 62
    7
 10
283.05762213629646
 20
166.19068042652029
 40
0.1761903835309518
  0
CIRCLE
  8
_1-0_
  6
CONTINUOUS
 62
    7
 10
280.61497043918922
 20
164.85115257469386
 40
0.1761903835309518
  0
CIRCLE
  8
_1-0_
  6
CONTINUOUS
 62
    7
 10
282.2696500211149
 20
164.6147733121305
 40
0.1761903835309518
  0
CIRCLE
  8
_1-0_
  6
CONTINUOUS
 62
    7
 10
280.45737601615286
 20
166.11188321500211
 40
0.1761903835309518
  0
CIRCLE
  8
_1-0_
  6
CONTINUOUS
 62
    7
 10
279.8270230679899
 20
168.16056122650971
 40
0.1761903835309518
  0
CIRCLE
  8
_1-0_
  6
CONTINUOUS
 62
    7
 10
284.23954319309547
 20
167.76658754091005
 40
0.1761903835309518
  0
CIRCLE
  8
_1-0_
  6
CONTINUOUS
 62
    7
 10
286.05184194203969
 20
167.37261385531039
 40
0.1761903835309518
  0
CIRCLE
  8
_1-0_
  6
CONTINUOUS
 62
    7
 10
285.10630014780406
 20
166.58465411211995
 40
0.1761903835309518
  0
CIRCLE
  8
_1-0_
  6
CONTINUOUS
 62
    7
 10
287.78533110747469
 20
166.19068042652029
 40
0.1761903835309518
  0
CIRCLE
  8
_1-0_
  6
CONTINUOUS
 62
    7
 10
289.12487133129224
 20
165.6391123178843
 40
0.1761903835309518
  0
CIRCLE
  8
_1-0_
  6
CONTINUOUS
 62
    7
 10
289.59762985641896
 20
167.45139869483742
 40
0.1761903835309518
  0
CIRCLE
  8
_1-0_
  6
CONTINUOUS
 62
    7
 10
288.25811437658365
 20
165.00874699773016
 40
0.1761903835309518
  0
CIRCLE
  8
_1-0_
  6
CONTINUOUS
 62
    7
 10
286.52462521114865
 20
164.77235536317568
 40
0.1761903835309518
  0
CIRCLE
  8
_1-0_
  6
CONTINUOUS
 62
    7
 10
289.2824410103463
 20
165.16634142076649
 40
0.1761903835309518
  0
CIRCLE
  8
_1-0_
  6
CONTINUOUS
 62
    7
 10
292.67065924567146
 20
165.00874699773016
 40
0.1761903835309518
  0
CIRCLE
  8
_1-0_
  6
CONTINUOUS
 62
    7
 10
296.13766232052365
 20
165.08754420924831
 40
0.1761903835309518
  0
CIRCLE
  8
_1-0_
  6
CONTINUOUS
 62
    7
 10
294.561767578125
 20
166.19068042652029
 40
0.1761903835309518
  0
CIRCLE
  8
_1-0_
  6
CONTINUOUS
 62
    7
 10
292.67065924567146
 20
166.50585690060177
 40
0.1761903835309518
  0
CIRCLE
  8
_1-0_
  6
CONTINUOUS
 62
    7
 10
291.01595491976354
 20
166.97862779771961
 40
0.1761903835309518
  0
CIRCLE
  8
_1-0_
  6
CONTINUOUS
 62
    7
 10
294.01017472550677
 20
167.76658754091005
 40
0.1761903835309518
  0
CIRCLE
  8
_1-0_
  6
CONTINUOUS
 62
    7
 10
295.11331094277875
 20
164.37838167757602
 40
0.1761903835309518
  0
CIRCLE
  8
_1-0_
  6
CONTINUOUS
 62
    7
 10
283.53040540540542
 20
166.74224853515625
 40
0.1761903835309518
  0
CIRCLE
  8
_1-0_
  6
CONTINUOUS
 62
    7
 10
281.56051223342484
 20
167.45139869483742
 40
0.1761903835309518
  0
CIRCLE
  8
_1-0_
  6
CONTINUOUS
 62
    7
 10
295.27429529138516
 20
165.00874699773016
 40
0.1761903835309518
  0
CIRCLE
  8
_1-0_
  6
CONTINUOUS
 62
    7
 10
298.74127362225511
 20
165.08754420924831
 40
0.1761903835309518
  0
CIRCLE
  8
_1-0_
  6
CONTINUOUS
 62
    7
 10
297.16537887985646
 20
166.19068042652029
 40
0.1761903835309518
  0
CIRCLE
  8
_1-0_
  6
CONTINUOUS
 62
    7
 10
295.27429529138516
 20
166.50585690060177
 40
0.1761903835309518
  0
CIRCLE
  8
_1-0_
  6
CONTINUOUS
 62
    7
 10
296.61381077122047
 20
167.76658754091005
 40
0.1761903835309518
  0
CIRCLE
  8
_1-0_
  6
CONTINUOUS
 62
    7
 10
297.7169469884924
 20
164.37838167757602
 40
0.1761903835309518
  0
CIRCLE
  8
_1-0_
  6
CONTINUOUS
 62
    7
 10
298.34729993665542
 20
165.40272068332982
 40
0.1761903835309518
  0
CIRCLE
  8
_1-0_
  6
CONTINUOUS
 62
    7
 10
298.74127362225511
 20
166.26947763803844
 40
0.1761903835309518
  0
CIRCLE
  8
_1-0_
  6
CONTINUOUS
 62
    7
 10
301.89308785103464
 20
166.19068042652029
 40
0.1761903835309518
  0
CIRCLE
  8
_1-0_
  6
CONTINUOUS
 62
    7
 10
299.4504361539274
 20
164.85115257469386
 40
0.1761903835309518
  0
CIRCLE
  8
_1-0_
  6
CONTINUOUS
 62
    7
 10
301.10511573585308
 20
164.6147733121305
 40
0.1761903835309518
  0
CIRCLE
  8
_1-0_
  6
CONTINUOUS
 62
    7
 10
299.29284173089104
 20
166.11188321500211
 40
0.1761903835309518
  0
CIRCLE
  8
_1-0_
  6
CONTINUOUS
 62
    7
 10
298.66248878272808
 20
168.16056122650971
 40
0.1761903835309518
  0
CIRCLE
  8
_1-0_
  6
CONTINUOUS
 62
    7
 10
303.07500890783365
 20
167.76658754091005
 40
0.1761903835309518
  0
CIRCLE
  8
_1-0_
  6
CONTINUOUS
 62
    7
 10
304.88730765677786
 20
167.37261385531039
 40
0.1761903835309518
  0
CIRCLE
  8
_1-0_
  6
CONTINUOUS
 62
    7
 10
303.94176586254224
 20
166.58465411211995
 40
0.1761903835309518
  0
CIRCLE
  8
_1-0_
  6
CONTINUOUS
 62
    7
 10
306.62079682221287
 20
166.19068042652029
 40
0.1761903835309518
  0
CIRCLE
  8
_1-0_
  6
CONTINUOUS
 62
    7
 10
307.96033704603042
 20
165.6391123178843
 40
0.1761903835309518
  0
CIRCLE
  8
_1-0_
  6
CONTINUOUS
 62
    7
 10
308.43309557115714
 20
167.45139869483742
 40
0.1761903835309518
  0
CIRCLE
  8
_1-0_
  6
CONTINUOUS
 62
    7
 10
307.09358009132183
 20
165.00874699773016
 40
0.1761903835309518
  0
CIRCLE
  8
_1-0_
  6
CONTINUOUS
 62
    7
 10
305.36009092588682
 20
164.77235536317568
 40
0.1761903835309518
  0
CIRCLE
  8
_1-0_
  6
CONTINUOUS
 62
    7
 10
308.11790672508448
 20
165.16634142076649
 40
0.1761903835309518
  0
CIRCLE
  8
_1-0_
  6
CONTINUOUS
 62
    7
 10
311.50612496040964
 20
165.00874699773016
 40
0.1761903835309518
  0
CIRCLE
  8
_1-0_
  6
CONTINUOUS
 62
    7
 10
314.97312803526182
 20
165.08754420924831
 40
0.1761903835309518
  0
CIRCLE
  8
_1-0_
  6
CONTINUOUS
 62
    7
 10
313.39723329286318
 20
166.19068042652029
 40
0.1761903835309518
  0
CIRCLE
  8
_1-0_
  6
CONTINUOUS
 62
    7
 10
311.50612496040964
 20
166.50585690060177
 40
0.1761903835309518
  0
CIRCLE
  8
_1-0_
  6
CONTINUOUS
 62
    7
 10
309.85142063450172
 20
166.97862779771961
 40
0.1761903835309518
  0
CIRCLE
  8
_1-0_
  6
CONTINUOUS
 62
    7
 10
312.84564044024495
 20
167.76658754091005
 40
0.1761903835309518
  0
CIRCLE
  8
_1-0_
  6
CONTINUOUS
 62
    7
 10
313.94877665751693
 20
164.37838167757602
 40
0.1761903835309518
  0
CIRCLE
  8
_1-0_
  6
CONTINUOUS
 62
    7
 10
302.36587112014359
 20
166.74224853515625
 40
0.1761903835309518
  0
CIRCLE
  8
_1-0_
  6
CONTINUOUS
 62
    7
 10
300.39597794816302
 20
167.45139869483742
 40
0.1761903835309518
  0
CIRCLE
  8
_1-0_
  6
CONTINUOUS
 62
    7
 10
311.04897988809125
 20
165.00874699773016
 40
0.1761903835309518
  0
CIRCLE
  8
_1-0_
  6
CONTINUOUS
 62
    7
 10
314.51600770692568
 20
165.08754420924831
 40
0.1761903835309518
  0
CIRCLE
  8
_1-0_
  6
CONTINUOUS
 62
    7
 10
312.94008822054479
 20
166.19068042652029
 40
0.1761903835309518
  0
CIRCLE
  8
_1-0_
  6
CONTINUOUS
 62
    7
 10
311.04897988809125
 20
166.50585690060177
 40
0.1761903835309518
  0
CIRCLE
  8
_1-0_
  6
CONTINUOUS
 62
    7
 10
312.3885201119088
 20
167.76658754091005
 40
0.1761903835309518
  0
CIRCLE
  8
_1-0_
  6
CONTINUOUS
 62
    7
 10
313.49165632918078
 20
164.37838167757602
 40
0.1761903835309518
  0
CIRCLE
  8
_1-0_
  6
CONTINUOUS
 62
    7
 10
314.12198453336151
 20
165.40272068332982
 40
0.1761903835309518
  0
CIRCLE
  8
_1-0_
  6
CONTINUOUS
 62
    7
 10
314.51598296294344
 20
166.26947763803844
 40
0.1761903835309518
  0
CIRCLE
  8
_1-0_
  6
CONTINUOUS
 62
    7
 10
317.66779719172297
 20
166.19068042652029
 40
0.1761903835309518
  0
CIRCLE
  8
_1-0_
  6
CONTINUOUS
 62
    7
 10
315.22512075063344
 20
164.85115257469386
 40
0.1761903835309518
  0
CIRCLE
  8
_1-0_
  6
CONTINUOUS
 62
    7
 10
316.87984982052365
 20
164.6147733121305
 40
0.1761903835309518
  0
CIRCLE
  8
_1-0_
  6
CONTINUOUS
 62
    7
 10
315.06755107157943
 20
166.11188321500211
 40
0.1761903835309518
  0
CIRCLE
  8
_1-0_
  6
CONTINUOUS
 62
    7
 10
314.43717337943411
 20
168.16056122650971
 40
0.1761903835309518
  0
CIRCLE
  8
_1-0_
  6
CONTINUOUS
 62
    7
 10
318.84971824852198
 20
167.76658754091005
 40
0.1761903835309518
  0
CIRCLE
  8
_1-0_
  6
CONTINUOUS
 62
    7
 10
320.66201699746625
 20
167.37261385531039
 40
0.1761903835309518
  0
CIRCLE
  8
_1-0_
  6
CONTINUOUS
 62
    7
 10
319.71647520323057
 20
166.58465411211995
 40
0.1761903835309518
  0
CIRCLE
  8
_1-0_
  6
CONTINUOUS
 62
    7
 10
322.39553090688344
 20
166.19068042652029
 40
0.1761903835309518
  0
CIRCLE
  8
_1-0_
  6
CONTINUOUS
 62
    7
 10
323.73504638671875
 20
165.6391123178843
 40
0.1761903835309518
  0
CIRCLE
  8
_1-0_
  6
CONTINUOUS
 62
    7
 10
324.20782965582771
 20
167.45139869483742
 40
0.1761903835309518
  0
CIRCLE
  8
_1-0_
  6
CONTINUOUS
 62
    7
 10
322.86828943201016
 20
165.00874699773016
 40
0.1761903835309518
  0
CIRCLE
  8
_1-0_
  6
CONTINUOUS
 62
    7
 10
321.13480026657521
 20
164.77235536317568
 40
0.1761903835309518
  0
CIRCLE
  8
_1-0_
  6
CONTINUOUS
 62
    7
 10
323.89264080975511
 20
165.16634142076649
 40
0.1761903835309518
  0
CIRCLE
  8
_1-0_
  6
CONTINUOUS
 62
    7
 10
327.28083430109797
 20
165.00874699773016
 40
0.1761903835309518
  0
CIRCLE
  8
_1-0_
  6
CONTINUOUS
 62
    7
 10
330.74783737595021
 20
165.08754420924831
 40
0.1761903835309518
  0
CIRCLE
  8
_1-0_
  6
CONTINUOUS
 62
    7
 10
329.17191788956927
 20
166.19068042652029
 40
0.1761903835309518
  0
CIRCLE
  8
_1-0_
  6
CONTINUOUS
 62
    7
 10
327.28083430109797
 20
166.50585690060177
 40
0.1761903835309518
  0
CIRCLE
  8
_1-0_
  6
CONTINUOUS
 62
    7
 10
325.62612997519005
 20
166.97862779771961
 40
0.1761903835309518
  0
CIRCLE
  8
_1-0_
  6
CONTINUOUS
 62
    7
 10
328.62037452491558
 20
167.76658754091005
 40
0.1761903835309518
  0
CIRCLE
  8
_1-0_
  6
CONTINUOUS
 62
    7
 10
329.7235107421875
 20
164.37838167757602
 40
0.1761903835309518
  0
CIRCLE
  8
_1-0_
  6
CONTINUOUS
 62
    7
 10
318.14055571684969
 20
166.74224853515625
 40
0.1761903835309518
  0
CIRCLE
  8
_1-0_
  6
CONTINUOUS
 62
    7
 10
316.17068728885135
 20
167.45139869483742
 40
0.1761903835309518
  0
CIRCLE
  8
_1-0_
  6
CONTINUOUS
 62
    7
 10
342.36298432221287
 20
165.00874699773016
 40
0.1761903835309518
  0
CIRCLE
  8
_1-0_
  6
CONTINUOUS
 62
    7
 10
345.82996265308282
 20
165.08754420924831
 40
0.1761903835309518
  0
CIRCLE
  8
_1-0_
  6
CONTINUOUS
 62
    7
 10
344.25406791068411
 20
166.19068042652029
 40
0.1761903835309518
  0
CIRCLE
  8
_1-0_
  6
CONTINUOUS
 62
    7
 10
342.36298432221287
 20
166.50585690060177
 40
0.1761903835309518
  0
CIRCLE
  8
_1-0_
  6
CONTINUOUS
 62
    7
 10
343.70249980204818
 20
167.76658754091005
 40
0.1761903835309518
  0
CIRCLE
  8
_1-0_
  6
CONTINUOUS
 62
    7
 10
344.8056360193201
 20
164.37838167757602
 40
0.1761903835309518
  0
CIRCLE
  8
_1-0_
  6
CONTINUOUS
 62
    7
 10
345.43598896748313
 20
165.40272068332982
 40
0.1761903835309518
  0
CIRCLE
  8
_1-0_
  6
CONTINUOUS
 62
    7
 10
345.82996265308282
 20
166.26947763803844
 40
0.1761903835309518
  0
CIRCLE
  8
_1-0_
  6
CONTINUOUS
 62
    7
 10
348.98177688186234
 20
166.19068042652029
 40
0.1761903835309518
  0
CIRCLE
  8
_1-0_
  6
CONTINUOUS
 62
    7
 10
346.53912518475511
 20
164.85115257469386
 40
0.1761903835309518
  0
CIRCLE
  8
_1-0_
  6
CONTINUOUS
 62
    7
 10
348.19380476668078
 20
164.6147733121305
 40
0.1761903835309518
  0
CIRCLE
  8
_1-0_
  6
CONTINUOUS
 62
    7
 10
346.38153076171875
 20
166.11188321500211
 40
0.1761903835309518
  0
CIRCLE
  8
_1-0_
  6
CONTINUOUS
 62
    7
 10
345.75117781355578
 20
168.16056122650971
 40
0.1761903835309518
  0
CIRCLE
  8
_1-0_
  6
CONTINUOUS
 62
    7
 10
350.16369793866136
 20
167.76658754091005
 40
0.1761903835309518
  0
CIRCLE
  8
_1-0_
  6
CONTINUOUS
 62
    7
 10
351.97599668760557
 20
167.37261385531039
 40
0.1761903835309518
  0
CIRCLE
  8
_1-0_
  6
CONTINUOUS
 62
    7
 10
351.03045489336995
 20
166.58465411211995
 40
0.1761903835309518
  0
CIRCLE
  8
_1-0_
  6
CONTINUOUS
 62
    7
 10
353.70948585304058
 20
166.19068042652029
 40
0.1761903835309518
  0
CIRCLE
  8
_1-0_
  6
CONTINUOUS
 62
    7
 10
355.04902607685813
 20
165.6391123178843
 40
0.1761903835309518
  0
CIRCLE
  8
_1-0_
  6
CONTINUOUS
 62
    7
 10
355.52178460198479
 20
167.45139869483742
 40
0.1761903835309518
  0
CIRCLE
  8
_1-0_
  6
CONTINUOUS
 62
    7
 10
354.18226912214953
 20
165.00874699773016
 40
0.1761903835309518
  0
CIRCLE
  8
_1-0_
  6
CONTINUOUS
 62
    7
 10
352.44877995671453
 20
164.77235536317568
 40
0.1761903835309518
  0
CIRCLE
  8
_1-0_
  6
CONTINUOUS
 62
    7
 10
355.20659575591219
 20
165.16634142076649
 40
0.1761903835309518
  0
CIRCLE
  8
_1-0_
  6
CONTINUOUS
 62
    7
 10
358.59481399123734
 20
165.00874699773016
 40
0.1761903835309518
  0
CIRCLE
  8
_1-0_
  6
CONTINUOUS
 62
    7
 10
362.06181706608953
 20
165.08754420924831
 40
0.1761903835309518
  0
CIRCLE
  8
_1-0_
  6
CONTINUOUS
 62
    7
 10
360.48592232369089
 20
166.19068042652029
 40
0.1761903835309518
  0
CIRCLE
  8
_1-0_
  6
CONTINUOUS
 62
    7
 10
358.59481399123734
 20
166.50585690060177
 40
0.1761903835309518
  0
CIRCLE
  8
_1-0_
  6
CONTINUOUS
 62
    7
 10
356.94010966532943
 20
166.97862779771961
 40
0.1761903835309518
  0
CIRCLE
  8
_1-0_
  6
CONTINUOUS
 62
    7
 10
359.93432947107266
 20
167.76658754091005
 40
0.1761903835309518
  0
CIRCLE
  8
_1-0_
  6
CONTINUOUS
 62
    7
 10
361.03746568834464
 20
164.37838167757602
 40
0.1761903835309518
  0
CIRCLE
  8
_1-0_
  6
CONTINUOUS
 62
    7
 10
349.4545601509713
 20
166.74224853515625
 40
0.1761903835309518
  0
CIRCLE
  8
_1-0_
  6
CONTINUOUS
 62
    7
 10
347.48466697899073
 20
167.45139869483742
 40
0.1761903835309518
  0
CIRCLE
  8
_1-0_
  6
CONTINUOUS
 62
    7
 10
334.82878813872469
 20
165.00874699773016
 40
0.1761903835309518
  0
CIRCLE
  8
_1-0_
  6
CONTINUOUS
 62
    7
 10
338.29576646959464
 20
165.08754420924831
 40
0.1761903835309518
  0
CIRCLE
  8
_1-0_
  6
CONTINUOUS
 62
    7
 10
336.71987172719594
 20
166.19068042652029
 40
0.1761903835309518
  0
CIRCLE
  8
_1-0_
  6
CONTINUOUS
 62
    7
 10
334.82878813872469
 20
166.50585690060177
 40
0.1761903835309518
  0
CIRCLE
  8
_1-0_
  6
CONTINUOUS
 62
    7
 10
336.16830361856
 20
167.76658754091005
 40
0.1761903835309518
  0
CIRCLE
  8
_1-0_
  6
CONTINUOUS
 62
    7
 10
337.27143983583193
 20
164.37838167757602
 40
0.1761903835309518
  0
CIRCLE
  8
_1-0_
  6
CONTINUOUS
 62
    7
 10
337.90179278399495
 20
165.40272068332982
 40
0.1761903835309518
  0
CIRCLE
  8
_1-0_
  6
CONTINUOUS
 62
    7
 10
338.29576646959464
 20
166.26947763803844
 40
0.1761903835309518
  0
CIRCLE
  8
_1-0_
  6
CONTINUOUS
 62
    7
 10
341.44758069837417
 20
166.19068042652029
 40
0.1761903835309518
  0
CIRCLE
  8
_1-0_
  6
CONTINUOUS
 62
    7
 10
339.00492900126693
 20
164.85115257469386
 40
0.1761903835309518
  0
CIRCLE
  8
_1-0_
  6
CONTINUOUS
 62
    7
 10
340.65960858319261
 20
164.6147733121305
 40
0.1761903835309518
  0
CIRCLE
  8
_1-0_
  6
CONTINUOUS
 62
    7
 10
338.84733457823057
 20
166.11188321500211
 40
0.1761903835309518
  0
CIRCLE
  8
_1-0_
  6
CONTINUOUS
 62
    7
 10
338.21698163006761
 20
168.16056122650971
 40
0.1761903835309518
  0
CIRCLE
  8
_1-0_
  6
CONTINUOUS
 62
    7
 10
342.62950175517318
 20
167.76658754091005
 40
0.1761903835309518
  0
CIRCLE
  8
_1-0_
  6
CONTINUOUS
 62
    7
 10
344.4418005041174
 20
167.37261385531039
 40
0.1761903835309518
  0
CIRCLE
  8
_1-0_
  6
CONTINUOUS
 62
    7
 10
343.49625870988177
 20
166.58465411211995
 40
0.1761903835309518
  0
CIRCLE
  8
_1-0_
  6
CONTINUOUS
 62
    7
 10
346.1752896695524
 20
166.19068042652029
 40
0.1761903835309518
  0
CIRCLE
  8
_1-0_
  6
CONTINUOUS
 62
    7
 10
347.51482989336995
 20
165.6391123178843
 40
0.1761903835309518
  0
CIRCLE
  8
_1-0_
  6
CONTINUOUS
 62
    7
 10
347.98758841849661
 20
167.45139869483742
 40
0.1761903835309518
  0
CIRCLE
  8
_1-0_
  6
CONTINUOUS
 62
    7
 10
346.64807293866136
 20
165.00874699773016
 40
0.1761903835309518
  0
CIRCLE
  8
_1-0_
  6
CONTINUOUS
 62
    7
 10
344.91458377322635
 20
164.77235536317568
 40
0.1761903835309518
  0
CIRCLE
  8
_1-0_
  6
CONTINUOUS
 62
    7
 10
347.67239957242401
 20
165.16634142076649
 40
0.1761903835309518
  0
CIRCLE
  8
_1-0_
  6
CONTINUOUS
 62
    7
 10
351.06061780774917
 20
165.00874699773016
 40
0.1761903835309518
  0
CIRCLE
  8
_1-0_
  6
CONTINUOUS
 62
    7
 10
354.52762088260135
 20
165.08754420924831
 40
0.1761903835309518
  0
CIRCLE
  8
_1-0_
  6
CONTINUOUS
 62
    7
 10
352.95172614020271
 20
166.19068042652029
 40
0.1761903835309518
  0
CIRCLE
  8
_1-0_
  6
CONTINUOUS
 62
    7
 10
351.06061780774917
 20
166.50585690060177
 40
0.1761903835309518
  0
CIRCLE
  8
_1-0_
  6
CONTINUOUS
 62
    7
 10
349.40591348184125
 20
166.97862779771961
 40
0.1761903835309518
  0
CIRCLE
  8
_1-0_
  6
CONTINUOUS
 62
    7
 10
352.40013328758448
 20
167.76658754091005
 40
0.1761903835309518
  0
CIRCLE
  8
_1-0_
  6
CONTINUOUS
 62
    7
 10
353.50326950485646
 20
164.37838167757602
 40
0.1761903835309518
  0
CIRCLE
  8
_1-0_
  6
CONTINUOUS
 62
    7
 10
341.92036396748313
 20
166.74224853515625
 40
0.1761903835309518
  0
CIRCLE
  8
_1-0_
  6
CONTINUOUS
 62
    7
 10
339.95047079550255
 20
167.45139869483742
 40
0.1761903835309518
  0
CIRCLE
  8
_1-0_
  6
CONTINUOUS
 62
    7
 10
380.50479373416385
 20
165.00874699773016
 40
0.1761903835309518
  0
CIRCLE
  8
_1-0_
  6
CONTINUOUS
 62
    7
 10
383.97182155299834
 20
165.08754420924831
 40
0.1761903835309518
  0
CIRCLE
  8
_1-0_
  6
CONTINUOUS
 62
    7
 10
382.3959020666174
 20
166.19068042652029
 40
0.1761903835309518
  0
CIRCLE
  8
_1-0_
  6
CONTINUOUS
 62
    7
 10
380.50479373416385
 20
166.50585690060177
 40
0.1761903835309518
  0
CIRCLE
  8
_1-0_
  6
CONTINUOUS
 62
    7
 10
381.84433395798146
 20
167.76658754091005
 40
0.1761903835309518
  0
CIRCLE
  8
_1-0_
  6
CONTINUOUS
 62
    7
 10
382.94747017525339
 20
164.37838167757602
 40
0.1761903835309518
  0
CIRCLE
  8
_1-0_
  6
CONTINUOUS
 62
    7
 10
383.57779837943417
 20
165.40272068332982
 40
0.1761903835309518
  0
CIRCLE
  8
_1-0_
  6
CONTINUOUS
 62
    7
 10
383.97179680901604
 20
166.26947763803844
 40
0.1761903835309518
  0
CIRCLE
  8
_1-0_
  6
CONTINUOUS
 62
    7
 10
387.12361103779563
 20
166.19068042652029
 40
0.1761903835309518
  0
CIRCLE
  8
_1-0_
  6
CONTINUOUS
 62
    7
 10
384.68093459670609
 20
164.85115257469386
 40
0.1761903835309518
  0
CIRCLE
  8
_1-0_
  6
CONTINUOUS
 62
    7
 10
386.3356636665963
 20
164.6147733121305
 40
0.1761903835309518
  0
CIRCLE
  8
_1-0_
  6
CONTINUOUS
 62
    7
 10
384.52336491765203
 20
166.11188321500211
 40
0.1761903835309518
  0
CIRCLE
  8
_1-0_
  6
CONTINUOUS
 62
    7
 10
383.89298722550677
 20
168.16056122650971
 40
0.1761903835309518
  0
CIRCLE
  8
_1-0_
  6
CONTINUOUS
 62
    7
 10
388.30553209459464
 20
167.76658754091005
 40
0.1761903835309518
  0
CIRCLE
  8
_1-0_
  6
CONTINUOUS
 62
    7
 10
390.11783084353885
 20
167.37261385531039
 40
0.1761903835309518
  0
CIRCLE
  8
_1-0_
  6
CONTINUOUS
 62
    7
 10
389.17228904930323
 20
166.58465411211995
 40
0.1761903835309518
  0
CIRCLE
  8
_1-0_
  6
CONTINUOUS
 62
    7
 10
390.59061411264781
 20
164.77235536317568
 40
0.1761903835309518
  0
CIRCLE
  8
_1-0_
  6
CONTINUOUS
 62
    7
 10
387.59636956292229
 20
166.74224853515625
 40
0.1761903835309518
  0
CIRCLE
  8
_1-0_
  6
CONTINUOUS
 62
    7
 10
385.62650113492401
 20
167.45139869483742
 40
0.1761903835309518
  0
CIRCLE
  8
_1-0_
  6
CONTINUOUS
 62
    7
 10
369.43898793813349
 20
165.00874699773016
 40
0.1761903835309518
  0
CIRCLE
  8
_1-0_
  6
CONTINUOUS
 62
    7
 10
372.90596626900339
 20
165.08754420924831
 40
0.1761903835309518
  0
CIRCLE
  8
_1-0_
  6
CONTINUOUS
 62
    7
 10
371.33007152660474
 20
166.19068042652029
 40
0.1761903835309518
  0
CIRCLE
  8
_1-0_
  6
CONTINUOUS
 62
    7
 10
369.43898793813349
 20
166.50585690060177
 40
0.1761903835309518
  0
CIRCLE
  8
_1-0_
  6
CONTINUOUS
 62
    7
 10
370.77850341796875
 20
167.76658754091005
 40
0.1761903835309518
  0
CIRCLE
  8
_1-0_
  6
CONTINUOUS
 62
    7
 10
371.88163963524073
 20
164.37838167757602
 40
0.1761903835309518
  0
CIRCLE
  8
_1-0_
  6
CONTINUOUS
 62
    7
 10
372.51199258340375
 20
165.40272068332982
 40
0.1761903835309518
  0
CIRCLE
  8
_1-0_
  6
CONTINUOUS
 62
    7
 10
372.90596626900339
 20
166.26947763803844
 40
0.1761903835309518
  0
CIRCLE
  8
_1-0_
  6
CONTINUOUS
 62
    7
 10
376.05778049778297
 20
166.19068042652029
 40
0.1761903835309518
  0
CIRCLE
  8
_1-0_
  6
CONTINUOUS
 62
    7
 10
373.61512880067568
 20
164.85115257469386
 40
0.1761903835309518
  0
CIRCLE
  8
_1-0_
  6
CONTINUOUS
 62
    7
 10
375.26980838260135
 20
164.6147733121305
 40
0.1761903835309518
  0
CIRCLE
  8
_1-0_
  6
CONTINUOUS
 62
    7
 10
373.45753437763938
 20
166.11188321500211
 40
0.1761903835309518
  0
CIRCLE
  8
_1-0_
  6
CONTINUOUS
 62
    7
 10
372.82718142947635
 20
168.16056122650971
 40
0.1761903835309518
  0
CIRCLE
  8
_1-0_
  6
CONTINUOUS
 62
    7
 10
377.23970155458193
 20
167.76658754091005
 40
0.1761903835309518
  0
CIRCLE
  8
_1-0_
  6
CONTINUOUS
 62
    7
 10
379.0520003035262
 20
167.37261385531039
 40
0.1761903835309518
  0
CIRCLE
  8
_1-0_
  6
CONTINUOUS
 62
    7
 10
378.10645850929058
 20
166.58465411211995
 40
0.1761903835309518
  0
CIRCLE
  8
_1-0_
  6
CONTINUOUS
 62
    7
 10
380.78548946896115
 20
166.19068042652029
 40
0.1761903835309518
  0
CIRCLE
  8
_1-0_
  6
CONTINUOUS
 62
    7
 10
382.12502969277875
 20
165.6391123178843
 40
0.1761903835309518
  0
CIRCLE
  8
_1-0_
  6
CONTINUOUS
 62
    7
 10
382.59778821790542
 20
167.45139869483742
 40
0.1761903835309518
  0
CIRCLE
  8
_1-0_
  6
CONTINUOUS
 62
    7
 10
381.2582727380701
 20
165.00874699773016
 40
0.1761903835309518
  0
CIRCLE
  8
_1-0_
  6
CONTINUOUS
 62
    7
 10
379.52478357263516
 20
164.77235536317568
 40
0.1761903835309518
  0
CIRCLE
  8
_1-0_
  6
CONTINUOUS
 62
    7
 10
382.28259937183282
 20
165.16634142076649
 40
0.1761903835309518
  0
CIRCLE
  8
_1-0_
  6
CONTINUOUS
 62
    7
 10
385.67081760715797
 20
165.00874699773016
 40
0.1761903835309518
  0
CIRCLE
  8
_1-0_
  6
CONTINUOUS
 62
    7
 10
389.13782068201016
 20
165.08754420924831
 40
0.1761903835309518
  0
CIRCLE
  8
_1-0_
  6
CONTINUOUS
 62
    7
 10
387.56192593961151
 20
166.19068042652029
 40
0.1761903835309518
  0
CIRCLE
  8
_1-0_
  6
CONTINUOUS
 62
    7
 10
385.67081760715797
 20
166.50585690060177
 40
0.1761903835309518
  0
CIRCLE
  8
_1-0_
  6
CONTINUOUS
 62
    7
 10
384.01611328125
 20
166.97862779771961
 40
0.1761903835309518
  0
CIRCLE
  8
_1-0_
  6
CONTINUOUS
 62
    7
 10
387.01033308699328
 20
167.76658754091005
 40
0.1761903835309518
  0
CIRCLE
  8
_1-0_
  6
CONTINUOUS
 62
    7
 10
388.11346930426521
 20
164.37838167757602
 40
0.1761903835309518
  0
CIRCLE
  8
_1-0_
  6
CONTINUOUS
 62
    7
 10
376.53056376689193
 20
166.74224853515625
 40
0.1761903835309518
  0
CIRCLE
  8
_1-0_
  6
CONTINUOUS
 62
    7
 10
374.56067059491136
 20
167.45139869483742
 40
0.1761903835309518
  0
CIRCLE
  8
_1-0_
  6
CONTINUOUS
 62
    7
 10
361.19845003695104
 20
165.00874699773016
 40
0.1761903835309518
  0
CIRCLE
  8
_1-0_
  6
CONTINUOUS
 62
    7
 10
364.66542836782099
 20
165.08754420924831
 40
0.1761903835309518
  0
CIRCLE
  8
_1-0_
  6
CONTINUOUS
 62
    7
 10
363.08953362542229
 20
166.19068042652029
 40
0.1761903835309518
  0
CIRCLE
  8
_1-0_
  6
CONTINUOUS
 62
    7
 10
361.19845003695104
 20
166.50585690060177
 40
0.1761903835309518
  0
CIRCLE
  8
_1-0_
  6
CONTINUOUS
 62
    7
 10
362.53796551678636
 20
167.76658754091005
 40
0.1761903835309518
  0
CIRCLE
  8
_1-0_
  6
CONTINUOUS
 62
    7
 10
363.64110173405828
 20
164.37838167757602
 40
0.1761903835309518
  0
CIRCLE
  8
_1-0_
  6
CONTINUOUS
 62
    7
 10
364.2714546822213
 20
165.40272068332982
 40
0.1761903835309518
  0
CIRCLE
  8
_1-0_
  6
CONTINUOUS
 62
    7
 10
364.66542836782099
 20
166.26947763803844
 40
0.1761903835309518
  0
CIRCLE
  8
_1-0_
  6
CONTINUOUS
 62
    7
 10
367.81724259660052
 20
166.19068042652029
 40
0.1761903835309518
  0
CIRCLE
  8
_1-0_
  6
CONTINUOUS
 62
    7
 10
365.37459089949328
 20
164.85115257469386
 40
0.1761903835309518
  0
CIRCLE
  8
_1-0_
  6
CONTINUOUS
 62
    7
 10
367.02927048141896
 20
164.6147733121305
 40
0.1761903835309518
  0
CIRCLE
  8
_1-0_
  6
CONTINUOUS
 62
    7
 10
365.21699647645693
 20
166.11188321500211
 40
0.1761903835309518
  0
CIRCLE
  8
_1-0_
  6
CONTINUOUS
 62
    7
 10
364.58664352829396
 20
168.16056122650971
 40
0.1761903835309518
  0
CIRCLE
  8
_1-0_
  6
CONTINUOUS
 62
    7
 10
368.99916365339953
 20
167.76658754091005
 40
0.1761903835309518
  0
CIRCLE
  8
_1-0_
  6
CONTINUOUS
 62
    7
 10
370.81146240234375
 20
167.37261385531039
 40
0.1761903835309518
  0
CIRCLE
  8
_1-0_
  6
CONTINUOUS
 62
    7
 10
369.86592060810813
 20
166.58465411211995
 40
0.1761903835309518
  0
CIRCLE
  8
_1-0_
  6
CONTINUOUS
 62
    7
 10
372.54495156777875
 20
166.19068042652029
 40
0.1761903835309518
  0
CIRCLE
  8
_1-0_
  6
CONTINUOUS
 62
    7
 10
373.8844917915963
 20
165.6391123178843
 40
0.1761903835309518
  0
CIRCLE
  8
_1-0_
  6
CONTINUOUS
 62
    7
 10
374.35725031672297
 20
167.45139869483742
 40
0.1761903835309518
  0
CIRCLE
  8
_1-0_
  6
CONTINUOUS
 62
    7
 10
373.01773483688771
 20
165.00874699773016
 40
0.1761903835309518
  0
CIRCLE
  8
_1-0_
  6
CONTINUOUS
 62
    7
 10
371.28424567145271
 20
164.77235536317568
 40
0.1761903835309518
  0
CIRCLE
  8
_1-0_
  6
CONTINUOUS
 62
    7
 10
374.04206147065037
 20
165.16634142076649
 40
0.1761903835309518
  0
CIRCLE
  8
_1-0_
  6
CONTINUOUS
 62
    7
 10
377.43027970597552
 20
165.00874699773016
 40
0.1761903835309518
  0
CIRCLE
  8
_1-0_
  6
CONTINUOUS
 62
    7
 10
380.89728278082771
 20
165.08754420924831
 40
0.1761903835309518
  0
CIRCLE
  8
_1-0_
  6
CONTINUOUS
 62
    7
 10
379.32138803842906
 20
166.19068042652029
 40
0.1761903835309518
  0
CIRCLE
  8
_1-0_
  6
CONTINUOUS
 62
    7
 10
377.43027970597552
 20
166.50585690060177
 40
0.1761903835309518
  0
CIRCLE
  8
_1-0_
  6
CONTINUOUS
 62
    7
 10
375.77557538006761
 20
166.97862779771961
 40
0.1761903835309518
  0
CIRCLE
  8
_1-0_
  6
CONTINUOUS
 62
    7
 10
378.76979518581084
 20
167.76658754091005
 40
0.1761903835309518
  0
CIRCLE
  8
_1-0_
  6
CONTINUOUS
 62
    7
 10
379.87293140308282
 20
164.37838167757602
 40
0.1761903835309518
  0
CIRCLE
  8
_1-0_
  6
CONTINUOUS
 62
    7
 10
368.29002586570948
 20
166.74224853515625
 40
0.1761903835309518
  0
CIRCLE
  8
_1-0_
  6
CONTINUOUS
 62
    7
 10
366.32013269372891
 20
167.45139869483742
 40
0.1761903835309518
  0
TEXT
  8
_0-0_
 62
    7
 10
147.56756962956609
 20
22.702702702702709
 40
2.5
 41
1
 50
0
  1
図名
  0
TEXT
  8
_0-0_
 62
    7
 10
147.56756962956609
 20
12.972972972972968
 40
2.5
 41
1
 50
0
  1
縮尺
  0
TEXT
  8
_0-0_
 62
    7
 10
382.77784605284
 20
21.243871740392734
 40
2.5
 41
1
 50
0
  1
ＮＯ
  0
TEXT
  8
_0-0_
 62
    7
 10
20.270270012520456
 20
22.702702702702709
 40
2.5
 41
1
 50
0
  1
Ｆ形
  0
TEXT
  8
_0-0_
 62
    7
 10
389.99062615471917
 20
16.178650211643514
 40
2.5
 41
1
 50
0
  1
Ｆ
  0
TEXT
  8
_0-0_
 62
    7
 10
171.37221877639359
 20
12.362518826046511
 40
2.5
 41
1
 50
0
  1
1/5
  0
TEXT
  8
_1-4_
 62
    7
 10
45.397582698512736
 20
13.77361400707349
 40
2.5
 41
1
 50
0
  1
袖
  0
TEXT
  8
_1-4_
 62
    7
 10
49.775644766317839
 20
13.790045557795338
 40
2.5
 41
1
 50
0
  1
1
  0
TEXT
  8
_1-2_
 62
    7
 10
71.145263878074843
 20
113.98630915461361
 40
2.5
 41
1
 50
0
  1
5
  0
TEXT
  8
_1-2_
 62
    7
 10
71.645265527673672
 20
113.98630915461361
 40
2.5
 41
1
 50
0
  1
0
  0
TEXT
  8
_1-2_
 62
    7
 10
75.020272538468646
 20
113.98630915461361
 40
2.5
 41
1
 50
0
  1
40
  0
TEXT
  8
_1-2_
 62
    7
 10
83.520269651670716
 20
212.93243408203125
 40
2.5
 41
1
 50
0
  1
45
  0
TEXT
  8
_1-2_
 62
    7
 10
178.99524585620779
 20
212.93243408203125
 40
2.5
 41
1
 50
0
  1
306
  0
TEXT
  8
_1-2_
 62
    7
 10
240.19523002005914
 20
212.93243408203125
 40
2.5
 41
1
 50
0
  1
306
  0
TEXT
  8
_1-2_
 62
    7
 10
301.395263671875
 20
212.93243408203125
 40
2.5
 41
1
 50
0
  1
306
  0
TEXT
  8
_1-2_
 62
    7
 10
117.89526449667441
 20
212.93243408203125
 40
2.5
 41
1
 50
0
  1
306
  0
TEXT
  8
_1-2_
 62
    7
 10
44.794272345465572
 20
172.70945574786214
 40
2.5
 41
1
 50
90
  1
45
  0
TEXT
  8
_0-1_
 62
    7
 10
48.767611529376069
 20
204.65225632126268
 40
2.5
 41
1
 50
0
  1
左袖瓦
  0
TEXT
  8
_0-1_
 62
    7
 10
108.42644768792231
 20
125.29294813001479
 40
2.5
 41
1
 50
0
  1
捨水切
  0
TEXT
  8
_0-1_
 62
    7
 10
107.95846268937396
 20
87.698166305954402
 40
2.5
 41
1
 50
0
  1
破風板　
  0
TEXT
  8
_0-1_
 62
    7
 10
247.63851268871412
 20
123.33247004328548
 40
2.5
 41
1
 50
0
  1
桟瓦
  0
TEXT
  8
_0-1_
 62
    7
 10
247.63851681271117
 20
108.89752362225508
 40
2.5
 41
1
 50
0
  1
流し桟
  0
TEXT
  8
_1-0_
 62
    7
 10
261.25953055716855
 20
102.17311756030934
 40
2.5
 41
1
 50
0
  1
ゴムアス系ルーフィング
  0
TEXT
  8
_1-0_
 62
    7
 10
247.63852093670823
 20
101.92893775733742
 40
2.5
 41
1
 50
0
  1
下葺き材
  0
TEXT
  8
_1-0_
 62
    7
 10
247.63852093670823
 20
95.126266479492187
 40
2.5
 41
1
 50
0
  1
パーライト系モルタル
  0
TEXT
  8
_0-1_
 62
    7
 10
399.15057620486698
 20
13.248461646002681
 40
2.5
 41
1
 50
0
  1
17
  0
TEXT
  8
_1-0_
 62
    7
 10
247.63852093670823
 20
116.03203026024072
 40
2.5
 41
1
 50
0
  1
瓦桟　　
  0
TEXT
  8
_1-0_
 62
    7
 10
258.31745457004854
 20
116.05020471521327
 40
2.5
 41
1
 50
0
  1
15×21　以上　（防腐処理）
  0
TEXT
  8
_1-0_
 62
    7
 10
291.25819850612334
 20
116.00968644425676
 40
2.5
 41
1
 50
0
  1
※　地域により瓦桟木の大きさは、異なります
  0
POINT
  8
_1-2_
 62
    7
 10
71.270265321473801
 20
113.48630750501479
  0
POINT
  8
_1-2_
 62
    7
 10
72.270268620671459
 20
113.48630750501479
  0
POINT
  8
_1-2_
 62
    7
 10
80.27027027027026
 20
113.48630750501479
  0
POINT
  8
_1-2_
 62
    7
 10
80.27027027027026
 20
212.43243243243245
  0
POINT
  8
_1-2_
 62
    7
 10
89.270269033071159
 20
212.43243243243245
  0
POINT
  8
_1-2_
 62
    7
 10
150.27025377428211
 20
212.43243243243245
  0
POINT
  8
_1-2_
 62
    7
 10
211.47023793813347
 20
212.43243243243245
  0
POINT
  8
_1-2_
 62
    7
 10
272.67024684596709
 20
212.43243243243245
  0
POINT
  8
_1-2_
 62
    7
 10
333.87025575380068
 20
212.43243243243245
  0
POINT
  8
_1-2_
 62
    7
 10
45.294270902066614
 20
169.45945945945948
  0
POINT
  8
_1-2_
 62
    7
 10
45.294270902066614
 20
178.45946440825591
  0
TEXT
  8
_0-1_
 62
    7
 10
31.231869362496042
 20
18.589955922719582
 40
2.5
 41
1
 50
0
  1
ＲＣ
  0
ENDSEC
  0
EOF
