  0
SECTION
  2
HEADER
  9
$ACADVER
  1
AC1009
  9
$INSBASE
 10
0
 20
0
 30
0
  9
$EXTMIN
 10
0
 20
0
  9
$EXTMAX
 10
420
 20
297
  9
$LIMMIN
 10
0
 20
0
  9
$LIMMAX
 10
420
 20
297
  9
$LTSCALE
 40
1
  0
ENDSEC
  0
SECTION
  2
TABLES
  0
TABLE
  2
LTYPE
 70
     9
  0
LTYPE
  2
CONTINUOUS
 70
    64
  3
実線
 72
    65
 73
     0
 40
0.0
  0
LTYPE
  2
DASHED1
 70
    64
  3
--  --  --  --  --  --  --  --  
 72
    65
 73
     2
 40
2.5
 49
1.25
 49
-1.25
  0
LTYPE
  2
DASHED2
 70
    64
  3
----    ----    ----    ----    
 72
    65
 73
     2
 40
5.0
 49
2.5
 49
-2.5
  0
LTYPE
  2
DASHED3
 70
    64
  3
------  ------  ------  ------  
 72
    65
 73
     2
 40
5.0
 49
3.75
 49
-1.25
  0
LTYPE
  2
CENTER1
 70
    64
  3
----- - ----- - ----- - ----- - 
 72
    65
 73
     4
 40
10.0
 49
6.25
 49
-1.25
 49
1.25
 49
-1.25
  0
LTYPE
  2
CENTER2
 70
    64
  3
----------  --  ----------  --  
 72
    65
 73
     4
 40
20.0
 49
12.5
 49
-2.5
 49
2.5
 49
-2.5
  0
LTYPE
  2
PHANTOM1
 70
    64
  3
--- - - --- - - --- - - --- - - 
 72
    65
 73
     6
 40
10.0
 49
3.25
 49
-1.25
 49
1.25
 49
-1.25
 49
1.25
 49
-1.25
  0
LTYPE
  2
PHANTOM2
 70
    64
  3
--------  -  -  --------  -  -  
 72
    65
 73
     6
 40
20.0
 49
10.0
 49
-2.5
 49
1.25
 49
-2.5
 49
1.25
 49
-2.5
  0
LTYPE
  2
DOT
 70
    64
  3
-   -   -   -   -   -   -   -   
 72
    65
 73
     2
 40
2.5
 49
0.625
 49
-1.875
  0
LTYPE
  2
DUMMY
 70
    64
  3
ダミー
 72
    65
 73
     0
 40
0.0
  0
LTYPE
  2
RAND1
 70
    64
  3
ランダム線1
 72
    65
 73
     4
 40
10.0
 49
1.0
 49
-2.0
 49
3.0
 49
-4.0
  0
LTYPE
  2
RAND2
 70
    64
  3
ランダム線2
 72
    65
 73
     4
 40
14.0
 49
2.0
 49
-3.0
 49
4.0
 49
-5.0
  0
LTYPE
  2
RAND3
 70
    64
  3
ランダム線3
 72
    65
 73
     4
 40
18.0
 49
3.0
 49
-4.0
 49
5.0
 49
-6.0
  0
LTYPE
  2
RAND4
 70
    64
  3
ランダム線4
 72
    65
 73
     4
 40
22.0
 49
4.0
 49
-5.0
 49
6.0
 49
-7.0
  0
LTYPE
  2
RAND5
 70
    64
  3
ランダム線5
 72
    65
 73
     4
 40
26.0
 49
5.0
 49
-6.0
 49
7.0
 49
-8.0
  0
LTYPE
  2
LONG1
 70
    64
  3
----------  --  ----------  --  
 72
    65
 73
     4
 40
40.0
 49
32.5
 49
-2.5
 49
2.5
 49
-2.5
  0
LTYPE
  2
LONG2
 70
    64
  3
--------  -  -  --------  -  -  
 72
    65
 73
     6
 40
40.0
 49
30.0
 49
-2.5
 49
1.25
 49
-2.5
 49
1.25
 49
-2.5
  0
LTYPE
  2
LONG3
 70
    64
  3
+++++++++++++++..+++++++++++++++
 72
    65
 73
     2
 40
40.0
 49
37.5
 49
-2.5
  0
LTYPE
  2
LONG4
 70
    64
  3
+++++++++++++++..+++++++++++++++
 72
    65
 73
     2
 40
80.0
 49
75.0
 49
-5.0
  0
LTYPE
  2
LONG5
 70
    64
  3
----------  --  ----------  --  
 72
    65
 73
     4
 40
60.0
 49
37.5
 49
-7.5
 49
7.5
 49
-7.5
  0
LTYPE
  2
dashed
 70
   64
  3
-------   -------------   ------
 72
   65
 73
    2
 40
7.5
 49
6
 49
-1.5
  0
LTYPE
  2
dashed_spaced
 70
   64
  3
----        --------        ----
 72
   65
 73
    2
 40
12
 49
6
 49
-6
  0
LTYPE
  2
long_dashed_dotted
 70
   64
  3
------------- --- --------------
 72
   65
 73
    4
 40
15.25
 49
12
 49
-1.5
 49
0.25
 49
-1.5
  0
LTYPE
  2
long_dashed_double-dotted
 70
   64
  3
----------- --- --- ------------
 72
   65
 73
    6
 40
17
 49
12
 49
-1.5
 49
0.25
 49
-1.5
 49
0.25
 49
-1.5
  0
LTYPE
  2
long_dashed_triplicate-dotted
 70
   64
  3
--------- --- --- --- ----------
 72
   65
 73
    8
 40
18.75
 49
12
 49
-1.5
 49
0.25
 49
-1.5
 49
0.25
 49
-1.5
 49
0.25
 49
-1.5
  0
LTYPE
  2
dotted
 70
   64
  3
   -       -       -       -    
 72
   65
 73
    2
 40
1.75
 49
0.25
 49
-1.5
  0
LTYPE
  2
chain
 70
   64
  3
-------------- -- --------------
 72
   65
 73
    4
 40
18.5
 49
12
 49
-1.5
 49
3.5
 49
-1.5
  0
LTYPE
  2
chain_double_dash
 70
   64
  3
------------ -- -- -------------
 72
   65
 73
    6
 40
23.5
 49
12
 49
-1.5
 49
3.5
 49
-1.5
 49
3.5
 49
-1.5
  0
LTYPE
  2
dashed_dotted
 70
   64
  3
-----------     -     ----------
 72
   65
 73
    4
 40
9.25
 49
6
 49
-1.5
 49
0.25
 49
-1.5
  0
LTYPE
  2
double-dashed_dotted
 70
   64
  3
------   -----------   -   -----
 72
   65
 73
    6
 40
16.75
 49
6
 49
-1.5
 49
6
 49
-1.5
 49
0.25
 49
-1.5
  0
LTYPE
  2
dashed_double-dotted
 70
   64
  3
---------    -    -    ---------
 72
   65
 73
    6
 40
11
 49
6
 49
-1.5
 49
0.25
 49
-1.5
 49
0.25
 49
-1.5
  0
LTYPE
  2
double-dashed_double-dotted
 70
   64
  3
-----   ---------   -   -   ----
 72
   65
 73
    8
 40
18.5
 49
6
 49
-1.5
 49
6
 49
-1.5
 49
0.25
 49
-1.5
 49
0.25
 49
-1.5
  0
LTYPE
  2
dashed_triplicate-dotted
 70
   64
  3
-------    -    -    -    ------
 72
   65
 73
    8
 40
12.75
 49
6
 49
-1.5
 49
0.25
 49
-1.5
 49
0.25
 49
-1.5
 49
0.25
 49
-1.5
  0
LTYPE
  2
double-dashed_triplicate-dotted
 70
   64
  3
-----  ---------  -  -  -  -----
 72
   65
 73
   10
 40
20.25
 49
6
 49
-1.5
 49
6
 49
-1.5
 49
0.25
 49
-1.5
 49
0.25
 49
-1.5
 49
0.25
 49
-1.5
  0
LTYPE
  2
undefined
 70
   64
  3
--------------------------------
 72
   65
 73
    0
 40
0
  0
ENDTAB
  0
TABLE
  2
STYLE
  5
3
100
AcDbSymbolTable
 70
     1
  0
STYLE
  5
10
100
AcDbSymbolTableRecord
100
AcDbTextStyleTableRecord
  2
STANDARD
 70
     0
 40
0.0
 41
1.0
 50
0.0
 71
     0
 42
0.2
  3
txt
  4
bigfont.shx
  0
STYLE
  5
26
100
AcDbSymbolTableRecord
100
AcDbTextStyleTableRecord
  2
TATEGAKI
 70
    68
 40
0.0
 41
1.0
 50
0.0
 71
     0
 42
1.0
  3
txt
  4
bigfont.shx
  0
ENDTAB
  0
TABLE
  2
LAYER
 70
    9
  0
LAYER
  2
_0-0_
 70
   64
 62
    7
  6
CONTINUOUS
  0
LAYER
  2
_0-1_
 70
   64
 62
    7
  6
CONTINUOUS
  0
LAYER
  2
_1-0_
 70
   64
 62
    7
  6
CONTINUOUS
  0
LAYER
  2
_1-1_
 70
   64
 62
    7
  6
CONTINUOUS
  0
LAYER
  2
_1-2_
 70
   64
 62
    7
  6
CONTINUOUS
  0
LAYER
  2
_1-3_
 70
   64
 62
    7
  6
CONTINUOUS
  0
LAYER
  2
_1-4_
 70
   64
 62
    7
  6
CONTINUOUS
  0
LAYER
  2
_1-5_
 70
   64
 62
    7
  6
CONTINUOUS
  0
LAYER
  2
ADD_LINE
 70
   64
 62
    7
  6
CONTINUOUS
  0
ENDTAB
  0
ENDSEC
  0
SECTION
  2
BLOCKS
  0
ENDSEC
  0
SECTION
  2
ENTITIES
  0
LINE
  8
_1-1_
  6
CONTINUOUS
 62
    7
 10
241.79680901604732
 20
121.80944081899283
 11
237.41959855363177
 21
119.8396837389147
  0
LINE
  8
_1-1_
  6
CONTINUOUS
 62
    7
 10
288.48719416437922
 20
142.82011289854307
 11
287.25610681482266
 21
145.55588180954393
  0
LINE
  8
_1-1_
  6
CONTINUOUS
 62
    7
 10
287.25610681482266
 20
145.55588180954393
 11
291.63334202122047
 21
147.52563888962206
  0
LINE
  8
_1-1_
  6
CONTINUOUS
 62
    7
 10
291.63334202122047
 20
147.52563888962206
 11
292.86442937077703
 21
144.7898699786212
  0
LINE
  8
_1-1_
  6
CONTINUOUS
 62
    7
 10
292.86442937077703
 20
144.7898699786212
 11
288.48719416437922
 21
142.82011289854307
  0
LINE
  8
_1-1_
  6
CONTINUOUS
 62
    7
 10
288.48719416437922
 20
142.82011289854307
 11
291.63334202122047
 21
147.52563888962206
  0
LINE
  8
_1-1_
  6
CONTINUOUS
 62
    7
 10
339.55478977512672
 20
165.80052968618034
 11
338.3237024255701
 21
168.53629859718117
  0
LINE
  8
_1-1_
  6
CONTINUOUS
 62
    7
 10
338.3237024255701
 20
168.53629859718117
 11
342.70093763196792
 21
170.5060556772593
  0
LINE
  8
_1-1_
  6
CONTINUOUS
 62
    7
 10
342.70093763196792
 20
170.5060556772593
 11
343.93202498152453
 21
167.77028676625847
  0
LINE
  8
_1-1_
  6
CONTINUOUS
 62
    7
 10
343.93202498152453
 20
167.77028676625847
 11
339.55478977512672
 21
165.80052968618034
  0
LINE
  8
_1-1_
  6
CONTINUOUS
 62
    7
 10
339.55478977512672
 20
165.80052968618034
 11
342.70093763196792
 21
170.5060556772593
  0
LINE
  8
_1-1_
  6
CONTINUOUS
 62
    7
 10
390.62238538587417
 20
188.78097121779984
 11
389.39129803631761
 21
191.51674012880068
  0
LINE
  8
_1-1_
  6
CONTINUOUS
 62
    7
 10
389.39129803631761
 20
191.51674012880068
 11
393.76853324271542
 21
193.48648483688768
  0
LINE
  8
_1-1_
  6
CONTINUOUS
 62
    7
 10
393.76853324271542
 20
193.48648483688768
 11
394.99962059227198
 21
190.75071592588682
  0
LINE
  8
_1-1_
  6
CONTINUOUS
 62
    7
 10
394.99962059227198
 20
190.75071592588682
 11
390.62238538587417
 21
188.78097121779984
  0
LINE
  8
_1-1_
  6
CONTINUOUS
 62
    7
 10
390.62238538587417
 20
188.78097121779984
 11
393.76853324271542
 21
193.48648483688768
  0
LINE
  8
ADD_LINE
  6
DOT
 62
    4
 10
240.46543430637669
 20
130.50348642710094
 11
240.86910763302367
 21
130.65843324403505
  0
LINE
  8
ADD_LINE
  6
DOT
 62
    4
 10
240.61352704022383
 20
130.56033572635135
 11
291.63334202122047
 21
147.52563888962206
  0
LINE
  8
_1-2_
  6
CONTINUOUS
 62
    3
 10
290.68854254645271
 20
152.90219693570523
 11
292.01702221019849
 21
153.34395125105576
  0
LINE
  8
_1-2_
  6
CONTINUOUS
 62
    3
 10
289.3596174910262
 20
151.82798643369932
 11
290.57083542282521
 21
152.23074423300255
  0
LINE
  8
_1-2_
  6
CONTINUOUS
 62
    3
 10
290.68854254645271
 20
152.90219693570523
 11
290.57083542282521
 21
152.23074423300255
  0
LINE
  8
_1-2_
  6
CONTINUOUS
 62
    3
 10
289.3596174910262
 20
151.82798643369932
 11
288.97865914009714
 21
149.80442356418919
  0
LINE
  8
_1-2_
  6
CONTINUOUS
 62
    3
 10
292.26852004592484
 20
151.31989350190034
 11
292.64809273384714
 21
151.44611255542654
  0
LINE
  8
_1-2_
  6
CONTINUOUS
 62
    7
 10
292.01702221019849
 20
153.34395125105576
 11
292.64809273384714
 21
151.44611255542654
  0
LINE
  8
_1-2_
  6
CONTINUOUS
 62
    3
 10
292.26852004592484
 20
151.31989350190034
 11
293.34134488492401
 21
148.0935998865076
  0
LINE
  8
_1-2_
  6
CONTINUOUS
 62
    7
 10
291.63331727723818
 20
147.52563888962206
 11
292.95994114231422
 21
145.43756845835094
  0
LINE
  8
_1-2_
  6
CONTINUOUS
 62
    7
 10
292.95994114231422
 20
145.43756845835094
 11
294.47820715002115
 21
145.94243230046453
  0
LINE
  8
_1-2_
  6
CONTINUOUS
 62
    3
 10
230.14600599134292
 20
130.24115072714318
 11
288.97865914009714
 21
149.80442356418919
  0
LINE
  8
_1-2_
  6
CONTINUOUS
 62
    3
 10
230.57041477512669
 20
127.22076416015625
 11
293.34134488492401
 21
148.0935998865076
  0
LINE
  8
_1-2_
  6
CONTINUOUS
 62
    3
 10
292.01702221019849
 20
153.34395125105576
 11
292.64809273384714
 21
151.44611255542654
  0
LINE
  8
_1-2_
  6
CONTINUOUS
 62
    7
 10
292.64809273384714
 20
151.44611255542654
 11
294.47820715002115
 21
145.94243230046453
  0
LINE
  8
ADD_LINE
  6
DOT
 62
    4
 10
291.52946678367823
 20
153.81413640202703
 11
292.20522493929479
 21
154.03883650496201
  0
LINE
  8
ADD_LINE
  6
DOT
 62
    4
 10
291.82770600190037
 20
153.91329791094807
 11
342.70093763196792
 21
170.5060556772593
  0
LINE
  8
_1-2_
  6
CONTINUOUS
 62
    3
 10
341.78706813502959
 20
175.88795842351141
 11
343.11804694098396
 21
176.3220668483425
  0
LINE
  8
_1-2_
  6
CONTINUOUS
 62
    3
 10
340.45198182801943
 20
174.8213814400338
 11
341.66547620618667
 21
175.21717380832982
  0
LINE
  8
_1-2_
  6
CONTINUOUS
 62
    3
 10
341.78706813502959
 20
175.88795842351141
 11
341.66547620618667
 21
175.21717380832982
  0
LINE
  8
_1-2_
  6
CONTINUOUS
 62
    3
 10
340.45198182801943
 20
174.8213814400338
 11
340.0594185494088
 21
172.80004552892737
  0
LINE
  8
_1-2_
  6
CONTINUOUS
 62
    3
 10
343.35791510504646
 20
174.29661106418919
 11
343.73820536845443
 21
174.42064027528505
  0
LINE
  8
_1-2_
  6
CONTINUOUS
 62
    7
 10
343.11804694098396
 20
176.3220668483425
 11
343.73820536845443
 21
174.42064027528505
  0
LINE
  8
_1-2_
  6
CONTINUOUS
 62
    3
 10
343.35791510504646
 20
174.29661106418919
 11
344.41218195734797
 21
171.06419331318625
  0
LINE
  8
_1-2_
  6
CONTINUOUS
 62
    7
 10
342.70093763196792
 20
170.5060556772593
 11
344.01556066564615
 21
168.41040121542443
  0
LINE
  8
_1-2_
  6
CONTINUOUS
 62
    7
 10
344.01556066564615
 20
168.41040121542443
 11
345.53667223131339
 21
168.90653043179898
  0
LINE
  8
_1-2_
  6
CONTINUOUS
 62
    3
 10
279.17303961676521
 20
146.63032737938136
 11
278.20045264991558
 21
151.57234398094386
  0
LINE
  8
_1-2_
  6
CONTINUOUS
 62
    3
 10
281.11539273648651
 20
153.5749239534945
 11
340.0594185494088
 21
172.80004552892737
  0
LINE
  8
_1-2_
  6
CONTINUOUS
 62
    3
 10
279.17303961676521
 20
146.63032737938136
 11
280.64619734480578
 21
147.27359668628591
  0
LINE
  8
_1-2_
  6
CONTINUOUS
 62
    3
 10
281.5224312447213
 20
150.55214959221919
 11
344.41218195734797
 21
171.06419331318625
  0
LINE
  8
_1-2_
  6
CONTINUOUS
 62
    3
 10
280.83561252903297
 20
149.67991184543919
 11
280.64619734480578
 21
147.27359668628591
  0
LINE
  8
_1-2_
  6
CONTINUOUS
 62
    3
 10
343.11804694098396
 20
176.3220668483425
 11
343.73820536845443
 21
174.42064027528505
  0
LINE
  8
_1-2_
  6
CONTINUOUS
 62
    7
 10
343.73820536845443
 20
174.42064027528505
 11
345.53667223131339
 21
168.90653043179898
  0
LINE
  8
_1-2_
  6
CONTINUOUS
 62
    3
 10
392.85466374577703
 20
198.86837521114865
 11
394.18564255173146
 21
199.30250837996201
  0
LINE
  8
_1-2_
  6
CONTINUOUS
 62
    3
 10
391.51957743876693
 20
197.80181059966216
 11
392.73307181693417
 21
198.19761533994932
  0
LINE
  8
_1-2_
  6
CONTINUOUS
 62
    3
 10
392.85466374577703
 20
198.86837521114865
 11
392.73307181693417
 21
198.19761533994932
  0
LINE
  8
_1-2_
  6
CONTINUOUS
 62
    3
 10
391.51957743876693
 20
197.80181059966216
 11
391.12701416015625
 21
195.78047468855576
  0
LINE
  8
_1-2_
  6
CONTINUOUS
 62
    3
 10
394.42551071579396
 20
197.27704022381758
 11
394.80580097920188
 21
197.40108180690459
  0
LINE
  8
_1-2_
  6
CONTINUOUS
 62
    7
 10
394.18564255173146
 20
199.30250837996201
 11
394.80580097920188
 21
197.40108180690459
  0
LINE
  8
_1-2_
  6
CONTINUOUS
 62
    3
 10
394.42551071579396
 20
197.27704022381758
 11
395.47977756809547
 21
194.04463484480576
  0
LINE
  8
_1-2_
  6
CONTINUOUS
 62
    7
 10
393.76853324271542
 20
193.48648483688768
 11
395.08315627639359
 21
191.39084274704393
  0
LINE
  8
_1-2_
  6
CONTINUOUS
 62
    7
 10
395.08315627639359
 20
191.39084274704393
 11
396.60426784206084
 21
191.88695959142737
  0
LINE
  8
_1-2_
  6
CONTINUOUS
 62
    3
 10
330.24065997149495
 20
169.61075653900971
 11
329.26802351668078
 21
174.55277314057221
  0
LINE
  8
_1-2_
  6
CONTINUOUS
 62
    3
 10
332.18296360325172
 20
176.55535311312289
 11
391.12701416015625
 21
195.78047468855576
  0
LINE
  8
_1-2_
  6
CONTINUOUS
 62
    3
 10
330.24065997149495
 20
169.61075653900971
 11
331.71379295555323
 21
170.25402584591427
  0
LINE
  8
_1-2_
  6
CONTINUOUS
 62
    3
 10
332.59005159945104
 20
173.53257875184755
 11
395.47977756809547
 21
194.04463484480576
  0
LINE
  8
_1-2_
  6
CONTINUOUS
 62
    3
 10
331.90320813978042
 20
172.66034100506758
 11
331.71379295555323
 21
170.25402584591427
  0
LINE
  8
_1-2_
  6
CONTINUOUS
 62
    3
 10
394.18564255173146
 20
199.30250837996201
 11
394.80580097920188
 21
197.40108180690459
  0
LINE
  8
_1-2_
  6
CONTINUOUS
 62
    7
 10
394.80580097920188
 20
197.40108180690459
 11
396.60426784206084
 21
191.88695959142737
  0
LINE
  8
_1-2_
  6
CONTINUOUS
 62
    3
 10
381.30823083826016
 20
192.59117332664698
 11
380.33564387141047
 21
197.53318992820948
  0
LINE
  8
_1-2_
  6
CONTINUOUS
 62
    3
 10
381.30823083826016
 20
192.59117332664698
 11
382.78138856630068
 21
193.2344673775338
  0
LINE
  8
_1-2_
  6
CONTINUOUS
 62
    3
 10
382.97080375052792
 20
195.64077016469597
 11
382.78138856630068
 21
193.2344673775338
  0
LINE
  8
_0-0_
  6
CONTINUOUS
 62
    5
 10
12.432428308435391
 20
278.51351351351354
 11
412.43244892842063
 21
278.51351351351354
  0
LINE
  8
_0-0_
  6
CONTINUOUS
 62
    5
 10
412.43244892842063
 20
8.5135135135135158
 11
12.432428308435391
 21
8.5135135135135158
  0
LINE
  8
_0-0_
  6
CONTINUOUS
 62
    5
 10
412.43244892842063
 20
28.513511451515001
 11
12.432415936444272
 21
28.513511451515001
  0
LINE
  8
_0-0_
  6
CONTINUOUS
 62
    5
 10
377.43248192039698
 20
8.5135135135135158
 11
377.43248192039698
 21
28.513511451515001
  0
LINE
  8
_0-0_
  6
CONTINUOUS
 62
    5
 10
142.70271507469386
 20
28.513511451515001
 11
142.70271507469386
 21
8.5135135135135158
  0
LINE
  8
_0-0_
  6
CONTINUOUS
 62
    5
 10
220.54054054054055
 20
28.513511451515001
 11
220.54054054054055
 21
8.5135135135135158
  0
LINE
  8
_0-0_
  6
CONTINUOUS
 62
    5
 10
142.70271507469386
 20
18.513512482514244
 11
220.54054054054055
 21
18.513512482514244
  0
LINE
  8
_0-0_
  6
CONTINUOUS
 62
    5
 10
402.16218690614443
 20
24.324325870823216
 11
389.59456985061234
 21
11.756758303255651
  0
LINE
  8
_1-1_
  6
CONTINUOUS
 62
    7
 10
137.99998515361065
 20
142.82011289854307
 11
139.23107250316724
 21
145.55588180954393
  0
LINE
  8
_1-1_
  6
CONTINUOUS
 62
    7
 10
139.23107250316724
 20
145.55588180954393
 11
134.85383729676943
 21
147.52563888962206
  0
LINE
  8
_1-1_
  6
CONTINUOUS
 62
    7
 10
134.85383729676943
 20
147.52563888962206
 11
133.62274994721284
 21
144.7898699786212
  0
LINE
  8
_1-1_
  6
CONTINUOUS
 62
    7
 10
133.62274994721284
 20
144.7898699786212
 11
137.99998515361065
 21
142.82011289854307
  0
LINE
  8
_1-1_
  6
CONTINUOUS
 62
    7
 10
137.99998515361065
 20
142.82011289854307
 11
134.85383729676943
 21
147.52563888962206
  0
LINE
  8
_1-1_
  6
CONTINUOUS
 62
    7
 10
86.932389542863177
 20
165.80052968618034
 11
88.163476892419766
 21
168.53629859718117
  0
LINE
  8
_1-1_
  6
CONTINUOUS
 62
    7
 10
88.163476892419766
 20
168.53629859718117
 11
83.786241686021967
 21
170.5060556772593
  0
LINE
  8
_1-1_
  6
CONTINUOUS
 62
    7
 10
83.786241686021967
 20
170.5060556772593
 11
82.555154336465378
 21
167.77028676625847
  0
LINE
  8
_1-1_
  6
CONTINUOUS
 62
    7
 10
82.555154336465378
 20
167.77028676625847
 11
86.932389542863177
 21
165.80052968618034
  0
LINE
  8
_1-1_
  6
CONTINUOUS
 62
    7
 10
86.932389542863177
 20
165.80052968618034
 11
83.786241686021967
 21
170.5060556772593
  0
LINE
  8
_1-1_
  6
CONTINUOUS
 62
    7
 10
35.864793932115703
 20
188.78097121779984
 11
37.095881281672291
 21
191.51674012880068
  0
LINE
  8
_1-1_
  6
CONTINUOUS
 62
    7
 10
37.095881281672291
 20
191.51674012880068
 11
32.718646075274478
 21
193.48648483688768
  0
LINE
  8
_1-1_
  6
CONTINUOUS
 62
    7
 10
32.718646075274478
 20
193.48648483688768
 11
31.487558725717918
 21
190.75071592588682
  0
LINE
  8
_1-1_
  6
CONTINUOUS
 62
    7
 10
31.487558725717918
 20
190.75071592588682
 11
35.864793932115703
 21
188.78097121779984
  0
LINE
  8
_1-1_
  6
CONTINUOUS
 62
    7
 10
35.864793932115703
 20
188.78097121779984
 11
32.718646075274478
 21
193.48648483688768
  0
LINE
  8
ADD_LINE
  6
DOT
 62
    4
 10
186.02174501161318
 20
130.50348642710094
 11
185.61807168496622
 21
130.65843324403505
  0
LINE
  8
ADD_LINE
  6
DOT
 62
    4
 10
185.87365227776607
 20
130.56033572635135
 11
134.85383729676943
 21
147.52563888962206
  0
LINE
  8
_1-2_
  6
CONTINUOUS
 62
    3
 10
135.79863677153716
 20
152.90219693570523
 11
134.47015710779138
 21
153.34395125105576
  0
LINE
  8
_1-2_
  6
CONTINUOUS
 62
    3
 10
137.1275618269637
 20
151.82798643369932
 11
135.91634389516472
 21
152.23074423300255
  0
LINE
  8
_1-2_
  6
CONTINUOUS
 62
    3
 10
135.79863677153716
 20
152.90219693570523
 11
135.91634389516472
 21
152.23074423300255
  0
LINE
  8
_1-2_
  6
CONTINUOUS
 62
    3
 10
137.1275618269637
 20
151.82798643369932
 11
137.50852017789273
 21
149.80442356418919
  0
LINE
  8
_1-2_
  6
CONTINUOUS
 62
    3
 10
134.21865927206505
 20
151.31989350190034
 11
133.83908658414273
 21
151.44611255542654
  0
LINE
  8
_1-2_
  6
CONTINUOUS
 62
    7
 10
134.47015710779138
 20
153.34395125105576
 11
133.83908658414273
 21
151.44611255542654
  0
LINE
  8
_1-2_
  6
CONTINUOUS
 62
    3
 10
134.21865927206505
 20
151.31989350190034
 11
133.14583443306589
 21
148.0935998865076
  0
LINE
  8
_1-2_
  6
CONTINUOUS
 62
    7
 10
134.85386204075169
 20
147.52563888962206
 11
133.52723817567568
 21
145.43756845835094
  0
LINE
  8
_1-2_
  6
CONTINUOUS
 62
    7
 10
133.52723817567568
 20
145.43756845835094
 11
132.00897216796875
 21
145.94243230046453
  0
LINE
  8
_1-2_
  6
CONTINUOUS
 62
    3
 10
134.47015710779138
 20
153.34395125105576
 11
133.83908658414273
 21
151.44611255542654
  0
LINE
  8
_1-2_
  6
CONTINUOUS
 62
    7
 10
133.83908658414273
 20
151.44611255542654
 11
132.00897216796875
 21
145.94243230046453
  0
LINE
  8
ADD_LINE
  6
DOT
 62
    4
 10
134.95771253431167
 20
153.81413640202703
 11
134.2819543786951
 21
154.03883650496201
  0
LINE
  8
ADD_LINE
  6
DOT
 62
    4
 10
134.65947331608953
 20
153.91329791094807
 11
83.786241686021967
 21
170.5060556772593
  0
LINE
  8
_1-2_
  6
CONTINUOUS
 62
    3
 10
84.700111182960313
 20
175.88795842351141
 11
83.369132377005911
 21
176.3220668483425
  0
LINE
  8
_1-2_
  6
CONTINUOUS
 62
    3
 10
86.035197489970443
 20
174.8213814400338
 11
84.821703111803217
 21
175.21717380832982
  0
LINE
  8
_1-2_
  6
CONTINUOUS
 62
    3
 10
84.700111182960313
 20
175.88795842351141
 11
84.821703111803217
 21
175.21717380832982
  0
LINE
  8
_1-2_
  6
CONTINUOUS
 62
    3
 10
86.035197489970443
 20
174.8213814400338
 11
86.427760768581081
 21
172.80004552892737
  0
LINE
  8
_1-2_
  6
CONTINUOUS
 62
    3
 10
83.129264212943411
 20
174.29661106418919
 11
82.748973949535483
 21
174.42064027528505
  0
LINE
  8
_1-2_
  6
CONTINUOUS
 62
    7
 10
83.369132377005911
 20
176.3220668483425
 11
82.748973949535483
 21
174.42064027528505
  0
LINE
  8
_1-2_
  6
CONTINUOUS
 62
    3
 10
83.129264212943411
 20
174.29661106418919
 11
82.074997360641902
 21
171.06419331318625
  0
LINE
  8
_1-2_
  6
CONTINUOUS
 62
    7
 10
83.786241686021967
 20
170.5060556772593
 11
82.47161865234375
 21
168.41040121542443
  0
LINE
  8
_1-2_
  6
CONTINUOUS
 62
    7
 10
82.47161865234375
 20
168.41040121542443
 11
80.95050708667651
 21
168.90653043179898
  0
LINE
  8
_1-2_
  6
CONTINUOUS
 62
    3
 10
147.31413970122466
 20
146.63032737938136
 11
148.28672666807432
 21
151.57234398094386
  0
LINE
  8
_1-2_
  6
CONTINUOUS
 62
    3
 10
145.37178658150339
 20
153.5749239534945
 11
86.427760768581081
 21
172.80004552892737
  0
LINE
  8
_1-2_
  6
CONTINUOUS
 62
    3
 10
147.31413970122466
 20
146.63032737938136
 11
145.84098197318414
 21
147.27359668628591
  0
LINE
  8
_1-2_
  6
CONTINUOUS
 62
    3
 10
144.96474807326859
 20
150.55214959221919
 11
82.074997360641902
 21
171.06419331318625
  0
LINE
  8
_1-2_
  6
CONTINUOUS
 62
    3
 10
145.65156678895693
 20
149.67991184543919
 11
145.84098197318414
 21
147.27359668628591
  0
LINE
  8
_1-2_
  6
CONTINUOUS
 62
    3
 10
83.369132377005911
 20
176.3220668483425
 11
82.748973949535483
 21
174.42064027528505
  0
LINE
  8
_1-2_
  6
CONTINUOUS
 62
    7
 10
82.748973949535483
 20
174.42064027528505
 11
80.95050708667651
 21
168.90653043179898
  0
LINE
  8
_1-2_
  6
CONTINUOUS
 62
    3
 10
33.632515572212839
 20
198.86837521114865
 11
32.301536766258437
 21
199.30250837996201
  0
LINE
  8
_1-2_
  6
CONTINUOUS
 62
    3
 10
34.967601879222968
 20
197.80181059966216
 11
33.754107501055728
 21
198.19761533994932
  0
LINE
  8
_1-2_
  6
CONTINUOUS
 62
    3
 10
33.632515572212839
 20
198.86837521114865
 11
33.754107501055728
 21
198.19761533994932
  0
LINE
  8
_1-2_
  6
CONTINUOUS
 62
    3
 10
34.967601879222968
 20
197.80181059966216
 11
35.36016515783362
 21
195.78047468855576
  0
LINE
  8
_1-2_
  6
CONTINUOUS
 62
    3
 10
32.061668602195937
 20
197.27704022381758
 11
31.681378338788022
 21
197.40108180690459
  0
LINE
  8
_1-2_
  6
CONTINUOUS
 62
    7
 10
32.301536766258437
 20
199.30250837996201
 11
31.681378338788022
 21
197.40108180690459
  0
LINE
  8
_1-2_
  6
CONTINUOUS
 62
    3
 10
32.061668602195937
 20
197.27704022381758
 11
31.007401749894427
 21
194.04463484480576
  0
LINE
  8
_1-2_
  6
CONTINUOUS
 62
    7
 10
32.718646075274478
 20
193.48648483688768
 11
31.404023041596275
 21
191.39084274704393
  0
LINE
  8
_1-2_
  6
CONTINUOUS
 62
    7
 10
31.404023041596275
 20
191.39084274704393
 11
29.882911475929063
 21
191.88695959142737
  0
LINE
  8
_1-2_
  6
CONTINUOUS
 62
    3
 10
96.246519346494935
 20
169.61075653900971
 11
97.219155801309128
 21
174.55277314057221
  0
LINE
  8
_1-2_
  6
CONTINUOUS
 62
    3
 10
94.304215714738177
 20
176.55535311312289
 11
35.36016515783362
 21
195.78047468855576
  0
LINE
  8
_1-2_
  6
CONTINUOUS
 62
    3
 10
96.246519346494935
 20
169.61075653900971
 11
94.773386362436668
 21
170.25402584591427
  0
LINE
  8
_1-2_
  6
CONTINUOUS
 62
    3
 10
93.897127718538854
 20
173.53257875184755
 11
31.007401749894427
 21
194.04463484480576
  0
LINE
  8
_1-2_
  6
CONTINUOUS
 62
    3
 10
94.583971178209467
 20
172.66034100506758
 11
94.773386362436668
 21
170.25402584591427
  0
LINE
  8
_1-2_
  6
CONTINUOUS
 62
    3
 10
32.301536766258437
 20
199.30250837996201
 11
31.681378338788022
 21
197.40108180690459
  0
LINE
  8
_1-2_
  6
CONTINUOUS
 62
    7
 10
31.681378338788022
 20
197.40108180690459
 11
29.882911475929063
 21
191.88695959142737
  0
LINE
  8
_1-2_
  6
CONTINUOUS
 62
    3
 10
45.17894847972974
 20
192.59117332664698
 11
46.151535446579402
 21
197.53318992820948
  0
LINE
  8
_1-2_
  6
CONTINUOUS
 62
    3
 10
45.17894847972974
 20
192.59117332664698
 11
43.705790751689193
 21
193.2344673775338
  0
LINE
  8
_1-2_
  6
CONTINUOUS
 62
    3
 10
43.516375567462006
 20
195.64077016469597
 11
43.705790751689193
 21
193.2344673775338
  0
LINE
  8
_1-0_
  6
CONTINUOUS
 62
    7
 10
213.24358965899495
 20
106.98663247598185
 11
17.027027027027032
 21
195.2840856603674
  0
LINE
  8
_1-0_
  6
CONTINUOUS
 62
    7
 10
213.24358965899495
 20
108.30254219673776
 11
17.027027027027032
 21
196.59998300913219
  0
LINE
  8
_1-0_
  6
CONTINUOUS
 62
    7
 10
213.24358965899495
 20
108.96048468512458
 11
17.027027027027032
 21
197.2579626134924
  0
LINE
  8
_1-2_
  6
CONTINUOUS
 62
    3
 10
42.829556851773646
 20
196.51299553948482
 11
17.027027027027032
 21
204.92872083509292
  0
LINE
  8
_1-2_
  6
CONTINUOUS
 62
    3
 10
43.236595360008437
 20
199.5357946447424
 11
17.027027027027032
 21
208.08427140519427
  0
LINE
  8
_1-0_
  6
CONTINUOUS
 62
    7
 10
213.24358965899495
 20
106.98663247598185
 11
414.32432432432432
 21
197.4729754473712
  0
LINE
  8
_1-0_
  6
CONTINUOUS
 62
    7
 10
213.24358965899495
 20
108.30254219673776
 11
414.32432432432432
 21
198.78887279613599
  0
LINE
  8
_1-0_
  6
CONTINUOUS
 62
    7
 10
213.24358965899495
 20
108.96048468512458
 11
414.32432432432432
 21
199.44684002850508
  0
LINE
  8
_1-2_
  6
CONTINUOUS
 62
    3
 10
383.65762246621625
 20
196.51299553948482
 11
414.32432432432432
 21
206.51521837389149
  0
LINE
  8
_1-2_
  6
CONTINUOUS
 62
    3
 10
383.25058395798146
 20
199.5357946447424
 11
414.32432432432432
 21
209.67075657200169
  0
LINE
  8
_0-1_
  6
CONTINUOUS
 62
    7
 10
67.902460871516041
 20
218.61709182326859
 11
73.571969109612553
 21
218.61709182326859
  0
LINE
  8
_0-1_
  6
CONTINUOUS
 62
    7
 10
65.35467199377112
 20
225.61709017366977
 11
73.571969109612553
 21
225.61709017366977
  0
LINE
  8
_0-1_
  6
CONTINUOUS
 62
    7
 10
62.806876930030626
 20
232.61708852407097
 11
73.571969109612553
 21
232.61708852407097
  0
LINE
  8
_0-1_
  6
CONTINUOUS
 62
    7
 10
60.259088052285676
 20
239.61708687447214
 11
73.571969109612553
 21
239.61708687447214
  0
LINE
  8
_0-1_
  6
CONTINUOUS
 62
    7
 10
57.711299174540756
 20
246.61708522487334
 11
73.571969109612553
 21
246.61708522487334
  0
LINE
  8
_1-4_
  6
CONTINUOUS
 62
    7
 10
93.273164903795404
 20
148.91166068412164
 11
55.409057204787814
 21
252.94243889885982
  0
LINE
  8
_1-4_
  6
CONTINUOUS
 62
    7
 10
55.409057204787814
 20
252.94243889885982
 11
73.095059781461146
 21
252.94243889885982
  0
LINE
  8
_1-3_
  6
CONTINUOUS
 62
    7
 10
240.60122928103885
 20
121.27143241263725
 11
237.37179317989867
 21
128.44799144847974
  0
LINE
  8
_1-3_
  6
CONTINUOUS
 62
    7
 10
237.37179317989867
 20
128.44799144847974
 11
246.12032503695102
 21
130.9384485193201
  0
LINE
  8
_1-3_
  6
CONTINUOUS
 62
    7
 10
246.12032503695102
 20
130.9384485193201
 11
248.80851127005914
 21
124.96470683329815
  0
LINE
  8
_1-3_
  6
CONTINUOUS
 62
    7
 10
237.37176843591641
 20
128.44799144847974
 11
248.80851127005914
 21
124.96470683329815
  0
LINE
  8
_1-1_
  6
CONTINUOUS
 62
    7
 10
184.69037030194258
 20
121.80944081899283
 11
189.06758076435813
 21
119.8396837389147
  0
LINE
  8
ADD_LINE
  6
DOT
 62
    4
 10
186.02174501161318
 20
130.50348642710094
 11
185.61807168496622
 21
130.65843324403505
  0
LINE
  8
_1-3_
  6
CONTINUOUS
 62
    7
 10
185.88595003695102
 20
121.27143241263725
 11
189.11538613809122
 21
128.44799144847974
  0
LINE
  8
_1-3_
  6
CONTINUOUS
 62
    7
 10
189.11538613809122
 20
128.44799144847974
 11
180.36685428103885
 21
130.9384485193201
  0
LINE
  8
_1-3_
  6
CONTINUOUS
 62
    7
 10
180.36685428103885
 20
130.9384485193201
 11
177.67866804793076
 21
124.96470683329815
  0
LINE
  8
_1-3_
  6
CONTINUOUS
 62
    7
 10
189.11541088207349
 20
128.44799144847974
 11
177.67866804793076
 21
124.96470683329815
  0
LINE
  8
_1-3_
  6
CONTINUOUS
 62
    2
 10
180.61796858504013
 20
131.12879160288219
 11
182.90386715450802
 21
131.4869854901288
  0
LINE
  8
_1-3_
  6
CONTINUOUS
 62
    2
 10
189.79398985166807
 20
128.51664362726984
 11
180.61796858504013
 21
131.12879160288219
  0
LINE
  8
_1-3_
  6
CONTINUOUS
 62
    2
 10
186.58064971099029
 20
121.37583964579815
 11
189.79398985166807
 21
128.51664362726984
  0
LINE
  8
_1-3_
  6
CONTINUOUS
 62
    2
 10
239.6811243005701
 20
121.27440169050888
 11
236.39613795924834
 21
128.57438370988177
  0
LINE
  8
_1-3_
  6
CONTINUOUS
 62
    2
 10
236.39613795924834
 20
128.57438370988177
 11
245.42524183118667
 21
131.14471435546875
  0
LINE
  8
_1-3_
  6
CONTINUOUS
 62
    2
 10
245.42524183118667
 20
131.14471435546875
 11
243.22607091955237
 21
131.14471435546875
  0
LINE
  8
_1-3_
  6
CONTINUOUS
 62
    2
 10
186.58064971099029
 20
121.37583964579815
 11
213.24358965899495
 21
109.37750739020271
  0
LINE
  8
_1-3_
  6
CONTINUOUS
 62
    2
 10
213.24358965899495
 20
109.37750739020271
 11
239.6811243005701
 21
121.27440169050888
  0
LINE
  8
_1-4_
  6
CONTINUOUS
 62
    7
 10
194.73945823875636
 20
139.50651014173354
 11
221.16708291543497
 21
127.61406975823481
  0
LINE
  8
_1-4_
  6
CONTINUOUS
 62
    7
 10
192.03852885478253
 20
133.50444896801099
 11
194.73945823875636
 21
139.50651014173354
  0
LINE
  8
_1-4_
  6
CONTINUOUS
 62
    7
 10
218.46615353146117
 20
121.61200858451225
 11
221.16708291543497
 21
127.61406975823481
  0
LINE
  8
_1-4_
  6
CONTINUOUS
 62
    7
 10
221.09740386138091
 20
117.30273272540119
 11
240.1407190271326
 21
64.981668833139778
  0
LINE
  8
_1-4_
  6
CONTINUOUS
 62
    7
 10
221.09740386138091
 20
117.30273272540119
 11
219.9718743401605
 21
112.58843499260981
  0
LINE
  8
_1-4_
  6
CONTINUOUS
 62
    7
 10
240.1407190271326
 20
64.981668833139778
 11
243.13169737119935
 21
64.981668833139778
  0
LINE
  8
_1-4_
  6
CONTINUOUS
 62
    7
 10
213.24358965899495
 20
103.03892805769637
 11
15.549723135458464
 21
192.00116544156461
  0
LINE
  8
_1-4_
  6
CONTINUOUS
 62
    7
 10
213.24358965899495
 20
103.03892805769637
 11
415.80163904138516
 21
194.19005522856841
  0
LINE
  8
_1-4_
  6
CONTINUOUS
 62
    7
 10
213.24358965899495
 20
81.107216912346928
 11
7.3424403731887367
 21
173.76273490287164
  0
LINE
  8
_1-4_
  6
CONTINUOUS
 62
    7
 10
213.24358965899495
 20
81.107216912346928
 11
424.00892103040542
 21
175.95162468987544
  0
LINE
  8
_1-4_
  6
CONTINUOUS
 62
    7
 10
413.9938931851774
 20
193.37657206767315
 11
414.32432432432432
 21
193.70699083482899
  0
LINE
  8
_1-4_
  6
CONTINUOUS
 62
    7
 10
408.85132660736912
 20
191.06241587046031
 11
414.32432432432432
 21
196.53542595940669
  0
LINE
  8
_1-4_
  6
CONTINUOUS
 62
    7
 10
403.7087105415963
 20
188.74823492926521
 11
410.88639542863177
 21
195.92590744430956
  0
LINE
  8
_1-4_
  6
CONTINUOUS
 62
    7
 10
398.56611921980578
 20
186.43406636006125
 11
405.74377936285896
 21
193.61172650311445
  0
LINE
  8
_1-4_
  6
CONTINUOUS
 62
    7
 10
393.42352789801521
 20
184.11989779085727
 11
400.60121278505068
 21
191.29757030590162
  0
LINE
  8
_1-4_
  6
CONTINUOUS
 62
    7
 10
388.28096132020693
 20
181.80574159364443
 11
395.45862146326016
 21
188.98341410868878
  0
LINE
  8
_1-4_
  6
CONTINUOUS
 62
    7
 10
383.13832051045188
 20
179.49156065244932
 11
390.31600539748734
 21
186.66923316749367
  0
LINE
  8
_1-4_
  6
CONTINUOUS
 62
    7
 10
377.99580342060813
 20
177.17742919921875
 11
385.17348830764359
 21
184.3551017142631
  0
LINE
  8
_1-4_
  6
CONTINUOUS
 62
    7
 10
372.85321209881761
 20
174.86324825802365
 11
380.03087224187078
 21
182.040920773068
  0
LINE
  8
_1-4_
  6
CONTINUOUS
 62
    7
 10
367.71067026499156
 20
172.54911680479307
 11
374.88833040804479
 21
179.7267769478463
  0
LINE
  8
_1-4_
  6
CONTINUOUS
 62
    7
 10
362.56812843116558
 20
170.23496060758023
 11
369.74576383023651
 21
177.41262075063347
  0
LINE
  8
_1-4_
  6
CONTINUOUS
 62
    7
 10
357.42548762141047
 20
167.92077966638516
 11
364.60317250844599
 21
175.09845218142948
  0
LINE
  8
_1-4_
  6
CONTINUOUS
 62
    7
 10
352.28289629961995
 20
165.60662346917232
 11
359.46058118665542
 21
172.78428361222552
  0
LINE
  8
_1-4_
  6
CONTINUOUS
 62
    7
 10
347.14035446579396
 20
163.29246727195948
 11
354.31801460884714
 21
170.47012741501268
  0
LINE
  8
_1-4_
  6
CONTINUOUS
 62
    7
 10
341.99776314400339
 20
160.97831107474664
 11
349.17542328705662
 21
168.15597121779984
  0
LINE
  8
_1-4_
  6
CONTINUOUS
 62
    7
 10
336.8552213101774
 20
158.6641548775338
 11
344.03285670924834
 21
165.84181502058701
  0
LINE
  8
_1-4_
  6
CONTINUOUS
 62
    7
 10
331.71262998838682
 20
156.34999868032097
 11
338.89031487542229
 21
163.52765882337417
  0
LINE
  8
_1-4_
  6
CONTINUOUS
 62
    7
 10
326.57001392261407
 20
154.03581773912586
 11
333.74767406566724
 21
161.21347788217906
  0
LINE
  8
_1-4_
  6
CONTINUOUS
 62
    7
 10
321.42744734480578
 20
151.72166154191302
 11
328.60510748785896
 21
158.89932168496622
  0
LINE
  8
_1-4_
  6
CONTINUOUS
 62
    7
 10
316.28485602301521
 20
149.40750534470018
 11
323.46251616606844
 21
156.58516548775339
  0
LINE
  8
_1-4_
  6
CONTINUOUS
 62
    7
 10
311.14226470122469
 20
147.0933367754962
 11
318.31994958826016
 21
154.27099691854943
  0
LINE
  8
_1-4_
  6
CONTINUOUS
 62
    7
 10
305.99972286739865
 20
144.77918057828336
 11
313.17738301045188
 21
151.95684072133659
  0
LINE
  8
_1-4_
  6
CONTINUOUS
 62
    7
 10
300.85715628959036
 20
142.46503675306167
 11
308.03481643264359
 21
149.64268452412375
  0
LINE
  8
_1-4_
  6
CONTINUOUS
 62
    7
 10
295.71454022381761
 20
140.15085581186656
 11
302.89217562288854
 21
147.32850358292865
  0
LINE
  8
_1-4_
  6
CONTINUOUS
 62
    7
 10
290.57197364600933
 20
137.83669961465372
 11
297.74960904508026
 21
145.01434738571581
  0
LINE
  8
_1-4_
  6
CONTINUOUS
 62
    7
 10
285.42940706820104
 20
135.52254341744089
 11
292.60704246727198
 21
142.70020356049409
  0
LINE
  8
_1-4_
  6
CONTINUOUS
 62
    7
 10
280.28681574641047
 20
133.20837484823693
 11
287.46445114548146
 21
140.38602261929898
  0
LINE
  8
_1-4_
  6
CONTINUOUS
 62
    7
 10
275.14419968063771
 20
130.89420627903294
 11
282.32185982369089
 21
138.07186642208615
  0
LINE
  8
_1-4_
  6
CONTINUOUS
 62
    7
 10
270.00163310282943
 20
128.5800500818201
 11
277.1792932458826
 21
135.75771022487331
  0
LINE
  8
_1-4_
  6
CONTINUOUS
 62
    7
 10
264.85901703705662
 20
126.265869140625
 11
272.03667718010979
 21
133.44352928367823
  0
LINE
  8
_1-4_
  6
CONTINUOUS
 62
    7
 10
259.7164009712838
 20
123.95170057142104
 11
266.89406111433703
 21
131.12934834248313
  0
LINE
  8
_1-4_
  6
CONTINUOUS
 62
    7
 10
254.57383439347552
 20
121.6375443742082
 11
261.75149453652875
 21
128.81519214527029
  0
LINE
  8
_1-4_
  6
CONTINUOUS
 62
    7
 10
249.43124307168497
 20
119.32337580500423
 11
256.60887847075594
 21
126.50101120407517
  0
LINE
  8
_1-4_
  6
CONTINUOUS
 62
    7
 10
244.28862700591219
 20
117.00919486380913
 11
251.46628714896539
 21
124.18685500686234
  0
LINE
  8
_1-4_
  6
CONTINUOUS
 62
    7
 10
239.14603568412164
 20
114.69502629460516
 11
246.32367108319258
 21
121.87267406566724
  0
LINE
  8
_1-4_
  6
CONTINUOUS
 62
    7
 10
234.00344436233109
 20
112.38085772540119
 11
241.1811045053843
 21
119.5585178684544
  0
LINE
  8
_1-4_
  6
CONTINUOUS
 62
    7
 10
228.86082829655828
 20
110.06667678420608
 11
236.03846369562925
 21
117.24432455526816
  0
LINE
  8
_1-4_
  6
CONTINUOUS
 62
    7
 10
223.71823697476776
 20
107.75252058699326
 11
230.8958723738387
 21
114.93015598606419
  0
LINE
  8
_1-4_
  6
CONTINUOUS
 62
    7
 10
218.57567039695948
 20
105.43836438978042
 11
225.75333054001268
 21
112.61602453283362
  0
LINE
  8
_1-4_
  6
CONTINUOUS
 62
    7
 10
213.43305433118667
 20
103.12418963458087
 11
220.61071447423987
 21
110.30184359163852
  0
LINE
  8
_1-4_
  6
CONTINUOUS
 62
    7
 10
211.36482857369089
 20
103.88436807168497
 11
215.46812315244932
 21
107.98766265044341
  0
LINE
  8
_1-4_
  6
CONTINUOUS
 62
    7
 10
209.41418621991133
 20
104.76216084248311
 11
212.13674184438347
 21
107.48471646695525
  0
LINE
  8
_1-4_
  6
CONTINUOUS
 62
    7
 10
207.46353149414062
 20
105.63995361328125
 11
210.18609949060391
 21
108.36250923775339
  0
LINE
  8
_1-4_
  6
CONTINUOUS
 62
    7
 10
205.51290151235222
 20
106.5177463840794
 11
208.23543239284209
 21
109.24030200855152
  0
LINE
  8
_1-4_
  6
CONTINUOUS
 62
    7
 10
203.56225915857266
 20
107.39552678288641
 11
206.28481478304477
 21
110.11808240735854
  0
LINE
  8
_1-4_
  6
CONTINUOUS
 62
    7
 10
201.61162917678422
 20
108.27330718169341
 11
204.33418480125636
 21
110.99586280616555
  0
LINE
  8
_1-4_
  6
CONTINUOUS
 62
    7
 10
199.66098682300466
 20
109.15109995249156
 11
202.38353007548565
 21
111.87365557696369
  0
LINE
  8
_1-4_
  6
CONTINUOUS
 62
    7
 10
197.71033209723396
 20
110.0288927232897
 11
200.43288772170609
 21
112.75144834776184
  0
LINE
  8
_1-4_
  6
CONTINUOUS
 62
    7
 10
195.75970211544552
 20
110.90667312209671
 11
198.48225773991766
 21
113.62922874656884
  0
LINE
  8
_1-4_
  6
CONTINUOUS
 62
    7
 10
193.80905976166596
 20
111.78446589289486
 11
196.5316153861381
 21
114.50702151736698
  0
LINE
  8
_1-4_
  6
CONTINUOUS
 62
    7
 10
191.85841740788641
 20
112.66224629170186
 11
194.58097303235854
 21
115.38481428816513
  0
LINE
  8
_1-4_
  6
CONTINUOUS
 62
    7
 10
189.90777505410685
 20
113.5400390625
 11
192.6303430505701
 21
116.26259468697214
  0
LINE
  8
_1-4_
  6
CONTINUOUS
 62
    7
 10
187.95714507231841
 20
114.41783183329815
 11
190.67970069679055
 21
117.14038745777027
  0
LINE
  8
_1-4_
  6
CONTINUOUS
 62
    7
 10
186.00650271853885
 20
115.29562460409629
 11
188.72905834301099
 21
118.01816785657729
  0
LINE
  8
_1-4_
  6
CONTINUOUS
 62
    7
 10
184.0558603647593
 20
116.17341737489443
 11
186.77841598923143
 21
118.89596062737543
  0
LINE
  8
_1-4_
  6
CONTINUOUS
 62
    7
 10
182.10523038297086
 20
117.05118540171031
 11
184.82777363545188
 21
119.77374102618244
  0
LINE
  8
_1-4_
  6
CONTINUOUS
 62
    7
 10
180.15457565720018
 20
117.92897817250845
 11
182.87713128167232
 21
120.65153379698059
  0
LINE
  8
_1-4_
  6
CONTINUOUS
 62
    7
 10
178.20394567541175
 20
118.80677094330659
 11
180.92650129988388
 21
121.52932656777872
  0
LINE
  8
_1-4_
  6
CONTINUOUS
 62
    7
 10
176.25330332163219
 20
119.68456371410474
 11
178.97585894610432
 21
122.40710696658573
  0
LINE
  8
_1-4_
  6
CONTINUOUS
 62
    7
 10
174.30266096785263
 20
120.56234411291175
 11
177.02521659232477
 21
123.28489973738388
  0
LINE
  8
_1-4_
  6
CONTINUOUS
 62
    7
 10
172.35203098606419
 20
121.44012451171875
 11
175.07457423854518
 21
124.16269250818202
  0
LINE
  8
_1-4_
  6
CONTINUOUS
 62
    7
 10
170.40137626029352
 20
122.3179172825169
 11
173.12393188476562
 21
125.04047290698902
  0
LINE
  8
_1-4_
  6
CONTINUOUS
 62
    7
 10
168.45074627850508
 20
123.19571005331504
 11
171.17330190297722
 21
125.91826567778718
  0
LINE
  8
_1-4_
  6
CONTINUOUS
 62
    7
 10
166.50011629671664
 20
124.07349045212204
 11
169.22265954919766
 21
126.79605844858531
  0
LINE
  8
_1-4_
  6
CONTINUOUS
 62
    7
 10
164.54946157094597
 20
124.9512832229202
 11
167.27201719541807
 21
127.67383884739232
  0
LINE
  8
_1-4_
  6
CONTINUOUS
 62
    7
 10
162.59881921716641
 20
125.8290636217272
 11
165.32138721362966
 21
128.55161924619932
  0
LINE
  8
_1-4_
  6
CONTINUOUS
 62
    7
 10
160.64818923537797
 20
126.70685639252534
 11
163.37073248785896
 21
129.42941201699747
  0
LINE
  8
_1-4_
  6
CONTINUOUS
 62
    7
 10
158.69754688159841
 20
127.58464916332349
 11
161.4200901340794
 21
130.30720478779563
  0
LINE
  8
_1-4_
  6
CONTINUOUS
 62
    7
 10
156.74689215582771
 20
128.46244193412164
 11
159.46946015229096
 21
131.18499755859375
  0
LINE
  8
_1-4_
  6
CONTINUOUS
 62
    7
 10
154.79624980204815
 20
129.34023470491977
 11
157.51881779851141
 21
132.06277795740075
  0
LINE
  8
_1-4_
  6
CONTINUOUS
 62
    7
 10
152.84561982025971
 20
130.21801510372677
 11
155.56816307274073
 21
132.94057072819891
  0
LINE
  8
_1-4_
  6
CONTINUOUS
 62
    7
 10
150.8949898384713
 20
131.0957955025338
 11
153.61754546294341
 21
133.81835112700591
  0
LINE
  8
_1-4_
  6
CONTINUOUS
 62
    7
 10
148.94434748469172
 20
131.97358827333193
 11
151.66690310916385
 21
134.69614389780406
  0
LINE
  8
_1-4_
  6
CONTINUOUS
 62
    7
 10
146.99370513091216
 20
132.85138104413008
 11
149.7162607553843
 21
135.57393666860222
  0
LINE
  8
_1-4_
  6
CONTINUOUS
 62
    7
 10
145.04307514912375
 20
133.72916144293708
 11
147.76561840160474
 21
136.45171706740922
  0
LINE
  8
_1-4_
  6
CONTINUOUS
 62
    7
 10
143.09242042335305
 20
134.60695421373524
 11
145.81497604782518
 21
137.32950983820734
  0
LINE
  8
_1-4_
  6
CONTINUOUS
 62
    7
 10
141.14179044156461
 20
135.48473461254224
 11
143.86434606603675
 21
138.20729023701438
  0
LINE
  8
_1-4_
  6
CONTINUOUS
 62
    7
 10
139.1911604597762
 20
136.36252738334039
 11
141.91370371225719
 21
139.0850830078125
  0
LINE
  8
_1-4_
  6
CONTINUOUS
 62
    7
 10
137.24051810599664
 20
137.2403077821474
 11
139.96307373046875
 21
139.9628634066195
  0
LINE
  8
_1-4_
  6
CONTINUOUS
 62
    7
 10
135.28986338022594
 20
138.11810055294552
 11
138.01243137668919
 21
140.84065617741766
  0
LINE
  8
_1-4_
  6
CONTINUOUS
 62
    7
 10
133.33924577042865
 20
138.99588095175255
 11
136.06178902290964
 21
141.71844894821581
  0
LINE
  8
_1-4_
  6
CONTINUOUS
 62
    7
 10
131.38859104465794
 20
139.87367372255068
 11
134.11114666913008
 21
142.59622934702281
  0
LINE
  8
_1-4_
  6
CONTINUOUS
 62
    7
 10
129.4379610628695
 20
140.75146649334883
 11
132.16052905933279
 21
143.47400974582982
  0
LINE
  8
_1-4_
  6
CONTINUOUS
 62
    7
 10
127.48731870908996
 20
141.62924689215583
 11
130.20986196157097
 21
144.35180251662797
  0
LINE
  8
_1-4_
  6
CONTINUOUS
 62
    7
 10
125.53667635531039
 20
142.50703966295399
 11
128.25923197978253
 21
145.22959528742609
  0
LINE
  8
_1-4_
  6
CONTINUOUS
 62
    7
 10
123.58603400153083
 20
143.38483243375211
 11
126.30860199799409
 21
146.10737568623313
  0
LINE
  8
_1-4_
  6
CONTINUOUS
 62
    7
 10
121.63540401974241
 20
144.26261283255914
 11
124.35795964421453
 21
146.98516845703125
  0
LINE
  8
_1-4_
  6
CONTINUOUS
 62
    7
 10
119.68476166596284
 20
145.14040560335727
 11
122.40731729043497
 21
147.8629612278294
  0
LINE
  8
_1-4_
  6
CONTINUOUS
 62
    7
 10
117.73411931218328
 20
146.01819837415542
 11
120.45667493665542
 21
148.74075399862755
  0
LINE
  8
_1-4_
  6
CONTINUOUS
 62
    7
 10
113.83283460462417
 20
147.77375917176943
 11
116.55539022909629
 21
150.49631479624156
  0
LINE
  8
_1-4_
  6
CONTINUOUS
 62
    7
 10
111.8821922508446
 20
148.65155194256758
 11
114.60474787531673
 21
151.37410756703972
  0
LINE
  8
_1-4_
  6
CONTINUOUS
 62
    7
 10
109.93154989706504
 20
149.52934471336573
 11
112.65410552153716
 21
152.25190033783784
  0
LINE
  8
_1-4_
  6
CONTINUOUS
 62
    7
 10
107.98093228726775
 20
150.40712511217274
 11
110.70347553974874
 21
153.12968073664484
  0
LINE
  8
_1-4_
  6
CONTINUOUS
 62
    7
 10
106.03027756149704
 20
151.28491788297086
 11
108.75283318596918
 21
154.007473507443
  0
LINE
  8
_1-4_
  6
CONTINUOUS
 62
    7
 10
104.07964757970862
 20
152.16269828177789
 11
106.80219083218962
 21
154.88525390625
  0
LINE
  8
_1-4_
  6
CONTINUOUS
 62
    7
 10
102.12901141192462
 20
153.04049105257602
 11
104.85156085040119
 21
155.76304667704815
  0
LINE
  8
_1-4_
  6
CONTINUOUS
 62
    7
 10
100.17836287214949
 20
153.91828382337417
 11
102.90091849662163
 21
156.6408394478463
  0
LINE
  8
_1-4_
  6
CONTINUOUS
 62
    7
 10
98.227714332374376
 20
154.79607659417232
 11
100.95027614284207
 21
157.51863221864443
  0
LINE
  8
_1-4_
  6
CONTINUOUS
 62
    7
 10
96.277084350585938
 20
155.67385699297932
 11
98.999646161053633
 21
158.39640024546031
  0
LINE
  8
_1-4_
  6
CONTINUOUS
 62
    7
 10
94.326448182801954
 20
156.55163739178633
 11
97.048991435282943
 21
159.27419301625847
  0
LINE
  8
_1-4_
  6
CONTINUOUS
 62
    7
 10
92.375799643026824
 20
157.42943016258448
 11
95.098361453494519
 21
160.15198578705659
  0
LINE
  8
_1-4_
  6
CONTINUOUS
 62
    7
 10
90.425169661238385
 20
158.3072229333826
 11
93.147719099714948
 21
161.02977855785474
  0
LINE
  8
_1-4_
  6
CONTINUOUS
 62
    7
 10
88.474533493454402
 20
159.18500333218961
 11
91.197064373944258
 21
161.90757132865289
  0
LINE
  8
_1-4_
  6
CONTINUOUS
 62
    7
 10
86.523878767683698
 20
160.06279610298776
 11
89.246446764146967
 21
162.7853517274599
  0
LINE
  8
_1-4_
  6
CONTINUOUS
 62
    7
 10
84.573248785895274
 20
160.94057650179477
 11
87.295792038376277
 21
163.6631321262669
  0
LINE
  8
_1-4_
  6
CONTINUOUS
 62
    7
 10
82.622606432115717
 20
161.81836927259292
 11
85.345162056587839
 21
164.54092489706505
  0
LINE
  8
_1-4_
  6
CONTINUOUS
 62
    7
 10
80.671964078336146
 20
162.69616204339107
 11
83.394519702808282
 21
165.41871766786318
  0
LINE
  8
_1-4_
  6
CONTINUOUS
 62
    7
 10
78.721327910552162
 20
163.57394244219807
 11
81.443877349028725
 21
166.29651043866133
  0
LINE
  8
_1-4_
  6
CONTINUOUS
 62
    7
 10
76.770685556772605
 20
164.4517352129962
 11
79.493234995249168
 21
167.17429083746833
  0
LINE
  8
_1-4_
  6
CONTINUOUS
 62
    7
 10
74.820049388988593
 20
165.32951561180323
 11
77.542592641469582
 21
168.05208360826649
  0
LINE
  8
_1-4_
  6
CONTINUOUS
 62
    7
 10
72.869407035209036
 20
166.20730838260135
 11
75.591962659681172
 21
168.92986400707349
  0
LINE
  8
_1-4_
  6
CONTINUOUS
 62
    7
 10
70.918777053420627
 20
167.08508878140836
 11
73.641320305901615
 21
169.80765677787164
  0
LINE
  8
_1-4_
  6
CONTINUOUS
 62
    7
 10
68.968128513645468
 20
167.96288155220651
 11
71.690690324113177
 21
170.68543717667865
  0
LINE
  8
_1-4_
  6
CONTINUOUS
 62
    7
 10
67.017479973870365
 20
168.84067432300466
 11
69.740035598342502
 21
171.56322994747677
  0
LINE
  8
_1-4_
  6
CONTINUOUS
 62
    7
 10
65.066849992081927
 20
169.71845472181167
 11
67.789405616554063
 21
172.4410103462838
  0
LINE
  8
_1-4_
  6
CONTINUOUS
 62
    7
 10
63.11620763830237
 20
170.59624749260982
 11
65.838763262774478
 21
173.31880311708193
  0
LINE
  8
_1-4_
  6
CONTINUOUS
 62
    7
 10
61.165565284522813
 20
171.47404026340794
 11
63.888108537003802
 21
174.19659588788008
  0
LINE
  8
_1-4_
  6
CONTINUOUS
 62
    7
 10
59.214929116738801
 20
172.35182066221495
 11
61.93750329919763
 21
175.07437628668708
  0
LINE
  8
_1-4_
  6
CONTINUOUS
 62
    7
 10
57.264292948954818
 20
173.2296134330131
 11
59.986860945418073
 21
175.95215668549409
  0
LINE
  8
_1-4_
  6
CONTINUOUS
 62
    7
 10
55.313650595175261
 20
174.10740620381125
 11
58.036206219647397
 21
176.82994945629224
  0
LINE
  8
_1-4_
  6
CONTINUOUS
 62
    7
 10
53.363008241395704
 20
174.98518660261826
 11
56.085563865867812
 21
177.70774222709039
  0
LINE
  8
_1-4_
  6
CONTINUOUS
 62
    7
 10
51.412368980613905
 20
175.86297937341641
 11
54.134921512088255
 21
178.58553499788852
  0
LINE
  8
_1-4_
  6
CONTINUOUS
 62
    7
 10
49.461729719832135
 20
176.74077214421453
 11
52.184279158308698
 21
179.46332776868667
  0
LINE
  8
_1-4_
  6
CONTINUOUS
 62
    7
 10
47.511084273054792
 20
177.61855254302154
 11
50.233636804529141
 21
180.34112053948482
  0
LINE
  8
_1-4_
  6
CONTINUOUS
 62
    7
 10
45.560454291266353
 20
178.49634531381969
 11
48.283006822740703
 21
181.21888856630068
  0
LINE
  8
_1-4_
  6
CONTINUOUS
 62
    7
 10
43.609811937486796
 20
179.37412571262669
 11
46.332364468961146
 21
182.09668133709883
  0
LINE
  8
_1-4_
  6
CONTINUOUS
 62
    7
 10
41.659169583707239
 20
180.25191848342484
 11
44.381734487172707
 21
182.97447410789698
  0
LINE
  8
_1-4_
  6
CONTINUOUS
 62
    7
 10
39.708536508921043
 20
181.12969888223185
 11
42.431079761402032
 21
183.8522668786951
  0
LINE
  8
_1-4_
  6
CONTINUOUS
 62
    7
 10
37.757891062143699
 20
182.00749165303
 11
40.480449779613593
 21
184.73004727750211
  0
LINE
  8
_1-4_
  6
CONTINUOUS
 62
    7
 10
35.807248708364114
 20
182.88528442382812
 11
38.529807425834036
 21
185.60782767630914
  0
LINE
  8
_1-4_
  6
CONTINUOUS
 62
    7
 10
33.85662181957349
 20
183.76306482263516
 11
36.579165072054479
 21
186.48562044710727
  0
LINE
  8
_1-4_
  6
CONTINUOUS
 62
    7
 10
31.905985651789479
 20
184.64084522144216
 11
34.628547462257188
 21
187.36341321790542
  0
LINE
  8
_1-4_
  6
CONTINUOUS
 62
    7
 10
29.955349484005495
 20
185.51863799224029
 11
32.677892736486484
 21
188.24119361671242
  0
LINE
  8
_1-4_
  6
CONTINUOUS
 62
    7
 10
28.004719502217057
 20
186.39641839104732
 11
30.727275126689193
 21
189.11897401551943
  0
LINE
  8
_1-4_
  6
CONTINUOUS
 62
    7
 10
26.05408642743086
 20
187.27419878985432
 11
28.776645144900755
 21
189.99676678631758
  0
LINE
  8
_1-4_
  6
CONTINUOUS
 62
    7
 10
24.103447166649062
 20
188.15199156065245
 11
26.826002791121198
 21
190.87454718512458
  0
LINE
  8
_1-4_
  6
CONTINUOUS
 62
    7
 10
22.152817184860652
 20
189.02977195945948
 11
24.87537280933276
 21
191.75232758393159
  0
LINE
  8
_1-4_
  6
CONTINUOUS
 62
    7
 10
20.202185656573334
 20
189.9075647302576
 11
22.92474282754435
 21
192.63012035472974
  0
LINE
  8
_1-4_
  6
CONTINUOUS
 62
    7
 10
18.604208456503386
 20
191.13800873627534
 11
20.974100473764793
 21
193.50790075353675
  0
LINE
  8
_1-4_
  6
CONTINUOUS
 62
    7
 10
18.604208456503386
 20
193.96641911687078
 11
19.023470491976354
 21
194.38568115234375
  0
LINE
  8
_1-4_
  6
CONTINUOUS
 62
    7
 10
18.604208456503386
 20
190.69933504671664
 11
18.7363691587706
 21
190.56717743744721
  0
LINE
  8
_1-4_
  6
CONTINUOUS
 62
    7
 10
18.604208456503386
 20
193.52775779930323
 11
23.878941922574427
 21
188.25302124023437
  0
LINE
  8
_1-4_
  6
CONTINUOUS
 62
    7
 10
21.843851450327293
 20
193.11651281408362
 11
29.021514686378282
 21
185.93886504302154
  0
LINE
  8
_1-4_
  6
CONTINUOUS
 62
    7
 10
26.986455144108959
 20
190.80233187288852
 11
34.164109101166588
 21
183.62469647381758
  0
LINE
  8
_1-4_
  6
CONTINUOUS
 62
    7
 10
32.129046465899478
 20
188.48817567567568
 11
39.306681864970443
 21
181.31054027660474
  0
LINE
  8
_1-4_
  6
CONTINUOUS
 62
    7
 10
37.27161304370776
 20
186.17401947846284
 11
44.449251535776511
 21
178.9963840793919
  0
LINE
  8
_1-4_
  6
CONTINUOUS
 62
    7
 10
42.414204365498307
 20
183.85986328125
 11
49.591845950564817
 21
176.68221551018794
  0
LINE
  8
_1-4_
  6
CONTINUOUS
 62
    7
 10
47.556770943306589
 20
181.54570708403716
 11
54.734418714368672
 21
174.36804694098396
  0
LINE
  8
_1-4_
  6
CONTINUOUS
 62
    7
 10
52.699374637088255
 20
179.23152614284206
 11
59.87701003615922
 21
172.05389074377112
  0
LINE
  8
_1-4_
  6
CONTINUOUS
 62
    7
 10
57.841904098923152
 20
176.91739468961148
 11
65.019558055980781
 21
169.73974691854943
  0
LINE
  8
_1-4_
  6
CONTINUOUS
 62
    7
 10
62.984520164695937
 20
174.60321374841641
 11
70.162155563766902
 21
167.42557834934544
  0
LINE
  8
_1-4_
  6
CONTINUOUS
 62
    7
 10
68.127099114495365
 20
172.28905755120357
 11
75.304740699561876
 21
165.11140978014149
  0
LINE
  8
_1-4_
  6
CONTINUOUS
 62
    7
 10
73.269665692303647
 20
169.97490135399073
 11
80.447307277370157
 21
162.79725358292865
  0
LINE
  8
_1-4_
  6
CONTINUOUS
 62
    7
 10
78.412257014094166
 20
167.66073278478675
 11
85.589898599160691
 21
160.48308501372466
  0
LINE
  8
_1-4_
  6
CONTINUOUS
 62
    7
 10
83.554848335884714
 20
165.34656421558279
 11
90.732489920951224
 21
158.16892881651182
  0
LINE
  8
_1-4_
  6
CONTINUOUS
 62
    7
 10
88.697390169710729
 20
163.03242039036107
 11
95.87503175477724
 21
155.85477261929898
  0
LINE
  8
_1-4_
  6
CONTINUOUS
 62
    7
 10
93.839981491501277
 20
160.71825182115711
 11
101.01764163455448
 21
153.54060405009503
  0
LINE
  8
_1-4_
  6
CONTINUOUS
 62
    7
 10
98.98257281329181
 20
158.40408325195312
 11
106.16022058435389
 21
151.22643548089107
  0
LINE
  8
_1-4_
  6
CONTINUOUS
 62
    7
 10
104.12513939110009
 20
156.08993942673143
 11
111.30277479017104
 21
148.91229165566935
  0
LINE
  8
_1-4_
  6
CONTINUOUS
 62
    7
 10
109.26771834089951
 20
153.77577085752745
 11
116.44537848395271
 21
146.59812308646539
  0
LINE
  8
_1-4_
  6
CONTINUOUS
 62
    7
 10
114.41033440667231
 20
151.46160228832349
 11
121.58796980574326
 21
144.28396688925255
  0
LINE
  8
_1-4_
  6
CONTINUOUS
 62
    7
 10
119.55287624049832
 20
149.14744609111065
 11
126.73052401156039
 21
141.96981069203972
  0
LINE
  8
_1-4_
  6
CONTINUOUS
 62
    7
 10
124.69546756228885
 20
146.83328989389781
 11
131.87310296135979
 21
139.65565449482688
  0
LINE
  8
_1-4_
  6
CONTINUOUS
 62
    7
 10
129.8380588840794
 20
144.51912132469386
 11
137.01570665514149
 21
137.34147355363177
  0
LINE
  8
_1-4_
  6
CONTINUOUS
 62
    7
 10
134.98060071790542
 20
142.20497749947214
 11
142.1582484889675
 21
135.02732972841005
  0
LINE
  8
_1-4_
  6
CONTINUOUS
 62
    7
 10
140.12321678367823
 20
139.89079655827703
 11
147.30085218274917
 21
132.71316115920609
  0
LINE
  8
_1-4_
  6
CONTINUOUS
 62
    7
 10
145.26578336148648
 20
137.57664036106419
 11
152.44341876055745
 21
130.39900496199326
  0
LINE
  8
_1-4_
  6
CONTINUOUS
 62
    7
 10
150.40836231128591
 20
135.26248416385135
 11
157.58602245433912
 21
128.08483639278927
  0
LINE
  8
_1-4_
  6
CONTINUOUS
 62
    7
 10
155.55096600506758
 20
132.9483155946474
 11
162.72860140413852
 21
125.77066782358531
  0
LINE
  8
_1-4_
  6
CONTINUOUS
 62
    7
 10
160.69353258287586
 20
130.63415939743456
 11
167.87118035393794
 21
123.45651162637247
  0
LINE
  8
_1-4_
  6
CONTINUOUS
 62
    7
 10
165.83617339263091
 20
128.31996608424831
 11
173.013821163693
 21
121.14233068517737
  0
LINE
  8
_1-4_
  6
CONTINUOUS
 62
    7
 10
170.97876471442146
 20
126.00580988703548
 11
178.15642485747466
 21
118.82814974398227
  0
LINE
  8
_1-4_
  6
CONTINUOUS
 62
    7
 10
176.12138078019427
 20
123.69162894584038
 11
183.29902855125636
 21
116.51398117477829
  0
LINE
  8
_1-4_
  6
CONTINUOUS
 62
    7
 10
181.2640092179582
 20
121.37744800464527
 11
188.44164461702914
 21
114.19981260557434
  0
LINE
  8
_1-4_
  6
CONTINUOUS
 62
    7
 10
186.40660053974875
 20
119.0632794354413
 11
193.58424831081084
 21
111.88563166437923
  0
LINE
  8
_1-4_
  6
CONTINUOUS
 62
    7
 10
191.54921660552154
 20
116.74909849424621
 11
198.72687674857477
 21
109.57145072318413
  0
LINE
  8
_1-4_
  6
CONTINUOUS
 62
    7
 10
196.69180792731208
 20
114.43492992504224
 11
203.86948044235643
 21
107.25728215398016
  0
LINE
  8
_1-4_
  6
CONTINUOUS
 62
    7
 10
201.83443636507602
 20
112.12074898384714
 11
209.01207176414698
 21
104.94311358477619
  0
LINE
  8
_1-4_
  6
CONTINUOUS
 62
    7
 10
206.97704005885771
 20
109.80658041464316
 11
213.58918885926943
 21
103.19444398622255
  0
LINE
  8
_1-4_
  6
CONTINUOUS
 62
    7
 10
212.11964375263938
 20
107.49241184543919
 11
215.53983121304901
 21
104.0722367570207
  0
LINE
  8
_1-4_
  6
CONTINUOUS
 62
    7
 10
214.76791794235643
 20
107.67258515229096
 11
217.49047356682857
 21
104.95001715582771
  0
LINE
  8
_1-4_
  6
CONTINUOUS
 62
    7
 10
216.71856029613599
 20
108.55036555109798
 11
219.44111592060813
 21
105.82780992662585
  0
LINE
  8
_1-4_
  6
CONTINUOUS
 62
    7
 10
218.66920264991555
 20
109.42815832189612
 11
221.39175827438768
 21
106.705602697424
  0
LINE
  8
_1-4_
  6
CONTINUOUS
 62
    7
 10
220.6198450036951
 20
110.30595109269426
 11
223.34240062816724
 21
107.58339546822214
  0
LINE
  8
_1-4_
  6
CONTINUOUS
 62
    7
 10
222.57048735747466
 20
111.18373149150128
 11
225.2930429819468
 21
108.46118823902027
  0
LINE
  8
_1-4_
  6
CONTINUOUS
 62
    7
 10
224.52115445523651
 20
112.06153663429055
 11
227.24368533572635
 21
109.33896863782729
  0
LINE
  8
_1-4_
  6
CONTINUOUS
 62
    7
 10
226.4717720650338
 20
112.93931703309755
 11
229.19432768950591
 21
110.21676140862543
  0
LINE
  8
_1-4_
  6
CONTINUOUS
 62
    7
 10
228.42243916279563
 20
113.8171098038957
 11
231.1449700432855
 21
111.09455417942357
  0
LINE
  8
_1-4_
  6
CONTINUOUS
 62
    7
 10
230.37305677259292
 20
114.69490257469384
 11
233.09563714104732
 21
111.97234695022171
  0
LINE
  8
_1-4_
  6
CONTINUOUS
 62
    7
 10
232.32372387035474
 20
115.57268297350085
 11
235.04627949482688
 21
112.85013972101986
  0
LINE
  8
_1-4_
  6
CONTINUOUS
 62
    7
 10
234.2743662241343
 20
116.45048811629013
 11
236.99692184860643
 21
113.72792011982686
  0
LINE
  8
_1-4_
  6
CONTINUOUS
 62
    7
 10
236.22500857791385
 20
117.32826851509714
 11
238.94756420238599
 21
114.605712890625
  0
LINE
  8
_1-4_
  6
CONTINUOUS
 62
    7
 10
238.17567567567568
 20
118.20606128589527
 11
240.89820655616555
 21
115.48350566142315
  0
LINE
  8
_1-4_
  6
CONTINUOUS
 62
    7
 10
240.126293285473
 20
119.08385405669343
 11
242.8488489099451
 21
116.36129843222129
  0
LINE
  8
_1-4_
  6
CONTINUOUS
 62
    7
 10
242.07691089527029
 20
119.96163445550043
 11
244.79949126372469
 21
117.23909120301943
  0
LINE
  8
_1-4_
  6
CONTINUOUS
 62
    7
 10
244.02760273701438
 20
120.8394395982897
 11
246.75015836148651
 21
118.11688397381758
  0
LINE
  8
_1-4_
  6
CONTINUOUS
 62
    7
 10
245.97824509079393
 20
121.71723236908784
 11
248.70080071526607
 21
118.99467674461572
  0
LINE
  8
_1-4_
  6
CONTINUOUS
 62
    7
 10
247.92888744457349
 20
122.59502513988599
 11
250.65144306904563
 21
119.87246951541385
  0
LINE
  8
_1-4_
  6
CONTINUOUS
 62
    7
 10
249.87952979835305
 20
123.472805538693
 11
252.60208542282518
 21
120.75024991422087
  0
LINE
  8
_1-4_
  6
CONTINUOUS
 62
    7
 10
251.83019689611487
 20
124.35061068148227
 11
254.55272777660474
 21
121.62804268501901
  0
LINE
  8
_1-4_
  6
CONTINUOUS
 62
    7
 10
253.78083924989443
 20
125.22840345228042
 11
256.50339487436656
 21
122.50583545581715
  0
LINE
  8
_1-4_
  6
CONTINUOUS
 62
    7
 10
255.73148160367401
 20
126.10618385108742
 11
258.45403722814615
 21
123.3836282266153
  0
LINE
  8
_1-4_
  6
CONTINUOUS
 62
    7
 10
257.68212395745354
 20
126.98397662188556
 11
260.40467958192568
 21
124.26142099741344
  0
LINE
  8
_1-4_
  6
CONTINUOUS
 62
    7
 10
259.63276631123313
 20
127.86175702069258
 11
262.35532193570526
 21
125.13921376821158
  0
LINE
  8
_1-4_
  6
CONTINUOUS
 62
    7
 10
261.58340866501266
 20
128.7395497914907
 11
264.30596428948479
 21
126.01699416701859
  0
LINE
  8
_1-4_
  6
CONTINUOUS
 62
    7
 10
263.53405101879224
 20
129.61734256228885
 11
266.25663138724661
 21
126.89478693781673
  0
LINE
  8
_1-4_
  6
CONTINUOUS
 62
    7
 10
265.48469337257183
 20
130.49513533308701
 11
268.20724899704396
 21
127.77257970861487
  0
LINE
  8
_1-4_
  6
CONTINUOUS
 62
    7
 10
267.43533572635135
 20
131.37292810388513
 11
270.15789135082349
 21
128.65037247941302
  0
LINE
  8
_1-4_
  6
CONTINUOUS
 62
    7
 10
269.38597808013094
 20
132.25072087468328
 11
272.10853370460308
 21
129.52816525021115
  0
LINE
  8
_1-4_
  6
CONTINUOUS
 62
    7
 10
271.33662043391047
 20
133.12851364548143
 11
274.0592008023649
 21
130.40594564901818
  0
LINE
  8
_1-4_
  6
CONTINUOUS
 62
    7
 10
273.28728753167229
 20
134.00630641627956
 11
276.00984315614443
 21
131.2837384198163
  0
LINE
  8
_1-4_
  6
CONTINUOUS
 62
    7
 10
275.23790514146958
 20
134.88408681508659
 11
277.96048550992401
 21
132.16153119061445
  0
LINE
  8
_1-4_
  6
CONTINUOUS
 62
    7
 10
277.18857223923146
 20
135.76187958588471
 11
279.91112786370354
 21
133.03931158942146
  0
LINE
  8
_1-4_
  6
CONTINUOUS
 62
    7
 10
279.13923933699328
 20
136.63967235668287
 11
281.86177021748313
 21
133.91711673221073
  0
LINE
  8
_1-4_
  6
CONTINUOUS
 62
    7
 10
281.08985694679058
 20
137.51746512748102
 11
283.81243731524495
 21
134.79490950300888
  0
LINE
  8
_1-4_
  6
CONTINUOUS
 62
    7
 10
283.0405240445524
 20
138.39524552628802
 11
285.76305492504224
 21
135.67268990181589
  0
LINE
  8
_1-4_
  6
CONTINUOUS
 62
    7
 10
284.99116639833193
 20
139.27303829708615
 11
287.71372202280406
 21
136.55048267261404
  0
LINE
  8
_1-4_
  6
CONTINUOUS
 62
    7
 10
286.94180875211151
 20
140.1508310678843
 11
289.66436437658365
 21
137.42827544341216
  0
LINE
  8
_1-4_
  6
CONTINUOUS
 62
    7
 10
288.89245110589104
 20
141.02862383868245
 11
291.61500673036318
 21
138.30606821421031
  0
LINE
  8
_1-4_
  6
CONTINUOUS
 62
    7
 10
290.84309345967063
 20
141.90641660948057
 11
293.56564908414276
 21
139.18386098500847
  0
LINE
  8
_1-4_
  6
CONTINUOUS
 62
    7
 10
292.79376055743245
 20
142.78420938027872
 11
295.51629143792229
 21
140.06165375580659
  0
LINE
  8
_1-4_
  6
CONTINUOUS
 62
    7
 10
294.74437816722974
 20
143.66200215107688
 11
297.46693379170188
 21
140.93943415461359
  0
LINE
  8
_1-4_
  6
CONTINUOUS
 62
    7
 10
296.69502052100933
 20
144.53978254988388
 11
299.41757614548146
 21
141.81722692541175
  0
LINE
  8
_1-4_
  6
CONTINUOUS
 62
    7
 10
298.64566287478885
 20
145.417575320682
 11
301.36824324324328
 21
142.6950196962099
  0
LINE
  8
_1-4_
  6
CONTINUOUS
 62
    7
 10
300.59632997255068
 20
146.29536809148016
 11
303.31888559702281
 21
143.57281246700802
  0
LINE
  8
_1-4_
  6
CONTINUOUS
 62
    7
 10
302.54694758234797
 20
147.17314849028716
 11
305.2695279508024
 21
144.45059286581505
  0
LINE
  8
_1-4_
  6
CONTINUOUS
 62
    7
 10
304.49761468010979
 20
148.05094126108531
 11
307.22014556059969
 21
145.32838563661318
  0
LINE
  8
_1-4_
  6
CONTINUOUS
 62
    7
 10
306.44825703388938
 20
148.92873403188347
 11
309.17081265836151
 21
146.20617840741133
  0
LINE
  8
_1-4_
  6
CONTINUOUS
 62
    7
 10
308.39889938766896
 20
149.80652680268159
 11
311.12145501214104
 21
147.08397117820948
  0
LINE
  8
_1-4_
  6
CONTINUOUS
 62
    7
 10
310.34951699746625
 20
150.68431957347974
 11
313.07209736592063
 21
147.9617639490076
  0
LINE
  8
_1-4_
  6
CONTINUOUS
 62
    7
 10
312.30018409522808
 20
151.56211234427789
 11
315.02276446368245
 21
148.83955671980576
  0
LINE
  8
_1-4_
  6
CONTINUOUS
 62
    7
 10
314.2508264490076
 20
152.4398927430849
 11
316.97338207347974
 21
149.71733711861276
  0
LINE
  8
_1-4_
  6
CONTINUOUS
 62
    7
 10
316.20149354676943
 20
153.31769788587417
 11
318.92404917124156
 21
150.59512988941091
  0
LINE
  8
_1-4_
  6
CONTINUOUS
 62
    7
 10
318.15213590054901
 20
154.19547828468117
 11
320.87469152502115
 21
151.47292266020904
  0
LINE
  8
_1-4_
  6
CONTINUOUS
 62
    7
 10
320.10277825432854
 20
155.07327105547932
 11
322.82533387880068
 21
152.35071543100719
  0
LINE
  8
_1-4_
  6
CONTINUOUS
 62
    7
 10
322.05344535209036
 20
155.95107619826859
 11
324.7760009765625
 21
153.22852057379646
  0
LINE
  8
_1-4_
  6
CONTINUOUS
 62
    7
 10
324.00408770586995
 20
156.82886896906672
 11
326.72664333034209
 21
154.10630097260346
  0
LINE
  8
_1-4_
  6
CONTINUOUS
 62
    7
 10
325.95475480363177
 20
157.70666173986487
 11
328.67728568412161
 21
154.98409374340162
  0
LINE
  8
_1-4_
  6
CONTINUOUS
 62
    7
 10
327.90537241342906
 20
158.58445451066302
 11
330.62795278188344
 21
155.86188651419977
  0
LINE
  8
_1-4_
  6
CONTINUOUS
 62
    7
 10
329.85601476720865
 20
159.46223490947003
 11
332.57857039168078
 21
156.73966691300677
  0
LINE
  8
_1-4_
  6
CONTINUOUS
 62
    7
 10
331.80668186497047
 20
160.34002768026818
 11
334.52923748944261
 21
157.61747205579604
  0
LINE
  8
_1-4_
  6
CONTINUOUS
 62
    7
 10
333.75732421875
 20
161.2178204510663
 11
336.4798550992399
 21
158.49525245460305
  0
LINE
  8
_1-4_
  6
CONTINUOUS
 62
    7
 10
335.70796657252959
 20
162.09561322186445
 11
338.43052219700172
 21
159.3730452254012
  0
LINE
  8
_1-4_
  6
CONTINUOUS
 62
    7
 10
337.65860892630911
 20
162.97339362067146
 11
340.38118929476354
 21
160.25083799619932
  0
LINE
  8
_1-4_
  6
CONTINUOUS
 62
    7
 10
339.6092512800887
 20
163.85118639146961
 11
342.33180690456084
 21
161.12863076699747
  0
LINE
  8
_1-4_
  6
CONTINUOUS
 62
    7
 10
341.55989363386828
 20
164.72897916226773
 11
344.28247400232266
 21
162.00642353779563
  0
LINE
  8
_1-4_
  6
CONTINUOUS
 62
    7
 10
343.51053598764781
 20
165.60677193306589
 11
346.23309161211995
 21
162.88420393660263
  0
LINE
  8
_1-4_
  6
CONTINUOUS
 62
    7
 10
345.4611783414274
 20
166.48456470386404
 11
348.18375870988177
 21
163.76199670740078
  0
LINE
  8
_1-4_
  6
CONTINUOUS
 62
    7
 10
347.41184543918922
 20
167.36235747466216
 11
350.13440106366136
 21
164.63978947819891
  0
LINE
  8
_1-4_
  6
CONTINUOUS
 62
    7
 10
349.36246304898651
 20
168.24013787346919
 11
352.08504341744089
 21
165.51756987700591
  0
LINE
  8
_1-4_
  6
CONTINUOUS
 62
    7
 10
351.31313014674834
 20
169.11793064426732
 11
354.03568577122047
 21
166.39536264780406
  0
LINE
  8
_1-4_
  6
CONTINUOUS
 62
    7
 10
353.26377250052786
 20
169.99572341506547
 11
355.986328125
 21
167.27315541860222
  0
LINE
  8
_1-4_
  6
CONTINUOUS
 62
    7
 10
355.21441485430745
 20
170.87350381387247
 11
357.93694573479729
 21
168.15094818940034
  0
LINE
  8
_1-4_
  6
CONTINUOUS
 62
    7
 10
357.16505720808703
 20
171.75129658467063
 11
359.88761283255911
 21
169.02874096019849
  0
LINE
  8
_1-4_
  6
CONTINUOUS
 62
    7
 10
359.11569956186656
 20
172.62908935546875
 11
361.83827993032099
 21
169.90653373099664
  0
LINE
  8
_1-4_
  6
CONTINUOUS
 62
    7
 10
361.06634191564615
 20
173.5068821262669
 11
363.78889754011828
 21
170.78432650179477
  0
LINE
  8
_1-4_
  6
CONTINUOUS
 62
    7
 10
363.01698426942568
 20
174.38467489706505
 11
365.73951514991558
 21
171.66209452861065
  0
LINE
  8
_1-4_
  6
CONTINUOUS
 62
    7
 10
364.96762662320526
 20
175.26245529587206
 11
367.6901822476774
 21
172.5398872994088
  0
LINE
  8
_1-4_
  6
CONTINUOUS
 62
    7
 10
366.91826897698479
 20
176.14024806667018
 11
369.64084934543922
 21
173.41769244219807
  0
LINE
  8
_1-4_
  6
CONTINUOUS
 62
    7
 10
368.86893607474661
 20
177.01804083746833
 11
371.59146695523651
 21
174.29547284100508
  0
LINE
  8
_1-4_
  6
CONTINUOUS
 62
    7
 10
370.8195784285262
 20
177.89583360826649
 11
373.54213405299834
 21
175.17326561180323
  0
LINE
  8
_1-4_
  6
CONTINUOUS
 62
    7
 10
372.77022078230578
 20
178.77362637906461
 11
375.49275166279563
 21
176.05105838260135
  0
LINE
  8
_1-4_
  6
CONTINUOUS
 62
    7
 10
374.72086313608531
 20
179.65140677787164
 11
377.44341876055745
 21
176.92885115339951
  0
LINE
  8
_1-4_
  6
CONTINUOUS
 62
    7
 10
376.6715054898649
 20
180.52919954866977
 11
379.39406111433703
 21
177.80664392419766
  0
LINE
  8
_1-4_
  6
CONTINUOUS
 62
    7
 10
378.62214784364443
 20
181.40699231946792
 11
381.34470346811656
 21
178.68443669499578
  0
LINE
  8
_1-4_
  6
CONTINUOUS
 62
    7
 10
380.57279019742401
 20
182.28478509026607
 11
383.29534582189615
 21
179.56221709380279
  0
LINE
  8
_1-4_
  6
CONTINUOUS
 62
    7
 10
382.52343255120354
 20
183.16257786106419
 11
385.24598817567568
 21
180.43999749260982
  0
LINE
  8
_1-4_
  6
CONTINUOUS
 62
    7
 10
384.47407490498313
 20
184.0403582598712
 11
387.19663052945526
 21
181.31779026340794
  0
LINE
  8
_1-4_
  6
CONTINUOUS
 62
    7
 10
386.42474200274495
 20
184.91815103066935
 11
389.14727288323479
 21
182.19558303420609
  0
LINE
  8
_1-4_
  6
CONTINUOUS
 62
    7
 10
388.37538435652453
 20
185.7959438014675
 11
391.09793998099667
 21
183.07337580500425
  0
LINE
  8
_1-4_
  6
CONTINUOUS
 62
    7
 10
390.32600196632183
 20
186.67373657226562
 11
393.04855759079396
 21
183.95116857580237
  0
LINE
  8
_1-4_
  6
CONTINUOUS
 62
    7
 10
392.27666906408365
 20
187.55152934306378
 11
394.99922468855578
 21
184.82896134660052
  0
LINE
  8
_1-4_
  6
CONTINUOUS
 62
    7
 10
394.22731141786318
 20
188.42930974187078
 11
396.94986704233531
 21
185.70675411739865
  0
LINE
  8
_1-4_
  6
CONTINUOUS
 62
    7
 10
396.177978515625
 20
189.30711488466005
 11
398.90053414009714
 21
186.5845468881968
  0
LINE
  8
_1-4_
  6
CONTINUOUS
 62
    7
 10
398.12862086940459
 20
190.1849076554582
 11
400.85117649387672
 21
187.46233965899495
  0
LINE
  8
_1-4_
  6
CONTINUOUS
 62
    7
 10
400.07923847920188
 20
191.06268805426521
 11
402.80181884765625
 21
188.34013242979307
  0
LINE
  8
_1-4_
  6
CONTINUOUS
 62
    7
 10
402.0299055769637
 20
191.94048082506336
 11
404.75246120143584
 21
189.21791282860011
  0
LINE
  8
_1-4_
  6
CONTINUOUS
 62
    7
 10
403.98054793074328
 20
192.81827359586148
 11
406.70312829919766
 21
190.09571797138938
  0
LINE
  8
_1-4_
  6
CONTINUOUS
 62
    7
 10
405.93119028452281
 20
193.69606636665964
 11
408.65377065297724
 21
190.9735107421875
  0
LINE
  8
_1-4_
  6
CONTINUOUS
 62
    7
 10
407.8818326383024
 20
194.57385913745779
 11
410.60441300675677
 21
191.85130351298565
  0
LINE
  8
_1-4_
  6
CONTINUOUS
 62
    7
 10
409.83247499208193
 20
195.45163953626479
 11
412.55503061655406
 21
192.72907153980154
  0
LINE
  8
_1-4_
  6
CONTINUOUS
 62
    7
 10
411.78314208984375
 20
196.32943230706294
 11
414.32432432432432
 21
193.78823770059122
  0
LINE
  8
_1-4_
  6
CONTINUOUS
 62
    7
 10
413.7337596996411
 20
197.20722507786107
 11
414.32432432432432
 21
196.61666045317779
  0
LINE
  8
_1-4_
  6
CONTINUOUS
 62
    3
 10
225.99478231894005
 20
104.39062994879646
 11
226.35955810546875
 21
104.5547815271326
  0
LINE
  8
_1-4_
  6
CONTINUOUS
 62
    3
 10
231.28393224767737
 20
93.611718255120365
 11
230.91915646114867
 21
93.447572862779779
  0
LINE
  8
_1-4_
  6
CONTINUOUS
 62
    3
 10
223.60552813555745
 20
107.26318359375
 11
217.03973718591641
 21
104.30857890361065
  0
LINE
  8
_1-4_
  6
CONTINUOUS
 62
    3
 10
224.92782180373734
 20
106.76162307326858
 11
225.99478231894005
 21
104.39062994879646
  0
LINE
  8
_1-4_
  6
CONTINUOUS
 62
    3
 10
225.12847075591216
 20
107.29053806614232
 11
226.35955810546875
 21
104.5547815271326
  0
LINE
  8
_1-4_
  6
CONTINUOUS
 62
    3
 10
223.80617708773227
 20
107.79209858662374
 11
216.51080982105154
 21
104.50919073981208
  0
LINE
  8
_1-4_
  6
CONTINUOUS
 62
    3
 10
231.98609223236909
 20
91.076573552312084
 11
230.91915646114867
 21
93.447572862779779
  0
LINE
  8
_1-4_
  6
CONTINUOUS
 62
    3
 10
232.51501959723396
 20
90.875949344119519
 11
231.28393224767737
 21
93.611718255120365
  0
LINE
  8
_1-4_
  6
CONTINUOUS
 62
    3
 10
224.91874076224664
 20
86.799675193992826
 11
231.48453171188768
 21
89.754286070127748
  0
LINE
  8
_1-4_
  6
CONTINUOUS
 62
    3
 10
223.59644709406675
 20
87.301229528478686
 11
216.53817666543497
 21
102.98628523543074
  0
LINE
  8
_1-4_
  6
CONTINUOUS
 62
    3
 10
223.39582288587417
 20
86.772314535604949
 11
216.0092493005701
 21
103.18689707163219
  0
LINE
  8
_1-4_
  6
CONTINUOUS
 62
    3
 10
224.71811655405406
 20
86.270760201119089
 11
232.01345907675255
 21
89.553668047930742
  0
LINE
  8
ADD_LINE
  6
DOT
 62
    3
 10
216.51080982105154
 20
104.50919073981208
 11
215.23572767103042
 21
103.93539016311233
  0
LINE
  8
ADD_LINE
  6
DOT
 62
    3
 10
216.0092493005701
 20
103.18689707163219
 11
215.38909087309966
 21
104.56503790778083
  0
LINE
  8
ADD_LINE
  6
DOT
 62
    3
 10
224.71811655405406
 20
86.270760201119089
 11
222.98608728357266
 21
85.491355689796251
  0
LINE
  8
ADD_LINE
  6
DOT
 62
    3
 10
223.39582288587417
 20
86.772314535604949
 11
223.98334400073904
 21
85.46672924144849
  0
LINE
  8
_1-4_
  6
CONTINUOUS
 62
    3
 10
390.14064479518584
 20
178.25626682590794
 11
390.50542058171453
 21
178.42041840424409
  0
LINE
  8
_1-4_
  6
CONTINUOUS
 62
    3
 10
395.42979472392318
 20
167.47735513223185
 11
395.06501893739443
 21
167.3132035538957
  0
LINE
  8
_1-4_
  6
CONTINUOUS
 62
    3
 10
387.75139061180323
 20
181.12882047086148
 11
381.18559966216219
 21
178.17421578072214
  0
LINE
  8
_1-4_
  6
CONTINUOUS
 62
    3
 10
389.07368427998313
 20
180.62725995038008
 11
390.14064479518584
 21
178.25626682590794
  0
LINE
  8
_1-4_
  6
CONTINUOUS
 62
    3
 10
389.27433323215797
 20
181.1561749432538
 11
390.50542058171453
 21
178.42041840424409
  0
LINE
  8
_1-4_
  6
CONTINUOUS
 62
    3
 10
387.95203956397808
 20
181.65773546373524
 11
380.65667229729729
 21
178.37482761692357
  0
LINE
  8
_1-4_
  6
CONTINUOUS
 62
    3
 10
396.1319547086149
 20
164.94221042942357
 11
395.06501893739443
 21
167.3132035538957
  0
LINE
  8
_1-4_
  6
CONTINUOUS
 62
    3
 10
396.66088207347974
 20
164.74158622123102
 11
395.42979472392318
 21
167.47735513223185
  0
LINE
  8
_1-4_
  6
CONTINUOUS
 62
    3
 10
389.0646032384924
 20
160.66531207110432
 11
395.63039418813349
 21
163.61991676124367
  0
LINE
  8
_1-4_
  6
CONTINUOUS
 62
    3
 10
387.7423095703125
 20
161.16687259158573
 11
380.68403914168078
 21
176.85192211254224
  0
LINE
  8
_1-4_
  6
CONTINUOUS
 62
    3
 10
387.54168536211995
 20
160.63794522672086
 11
380.15511177681589
 21
177.05253394874367
  0
LINE
  8
_1-4_
  6
CONTINUOUS
 62
    3
 10
388.86397903029984
 20
160.13639707823057
 11
396.15932155299834
 21
163.41930492504224
  0
LINE
  8
ADD_LINE
  6
DOT
 62
    3
 10
380.65667229729729
 20
178.37482761692357
 11
379.3815901472762
 21
177.80102704022383
  0
LINE
  8
ADD_LINE
  6
DOT
 62
    3
 10
380.15511177681589
 20
177.05253394874367
 11
379.53495334934547
 21
178.43067478489232
  0
LINE
  8
ADD_LINE
  6
DOT
 62
    3
 10
388.86397903029984
 20
160.13639707823057
 11
387.13194975981844
 21
159.35698638091216
  0
LINE
  8
ADD_LINE
  6
DOT
 62
    3
 10
387.54168536211995
 20
160.63794522672086
 11
388.12920647698479
 21
159.33236611855997
  0
LINE
  8
_1-4_
  6
CONTINUOUS
 62
    3
 10
209.93663066142315
 20
100.14071490313556
 11
210.30143119193414
 21
99.976563324799415
  0
LINE
  8
_1-4_
  6
CONTINUOUS
 62
    3
 10
205.37704467773437
 20
89.033506238782735
 11
205.01226889120568
 21
89.197657817118881
  0
LINE
  8
_1-4_
  6
CONTINUOUS
 62
    3
 10
210.50203065614443
 20
103.83400169578759
 11
203.93623970650339
 21
106.78860638592695
  0
LINE
  8
_1-4_
  6
CONTINUOUS
 62
    3
 10
211.00359117662586
 20
102.5117080276077
 11
209.93663066142315
 21
100.14071490313556
  0
LINE
  8
_1-4_
  6
CONTINUOUS
 62
    3
 10
211.53251854149073
 20
102.71232604980469
 11
210.30143119193414
 21
99.976563324799415
  0
LINE
  8
_1-4_
  6
CONTINUOUS
 62
    3
 10
211.0309580210093
 20
104.03461353198902
 11
203.73560312631969
 21
107.31752137880068
  0
LINE
  8
_1-4_
  6
CONTINUOUS
 62
    3
 10
203.94532074799409
 20
86.826658506651185
 11
205.01226889120568
 21
89.197657817118881
  0
LINE
  8
_1-4_
  6
CONTINUOUS
 62
    3
 10
204.14595732817779
 20
86.297737327781888
 11
205.37704467773437
 21
89.033506238782735
  0
LINE
  8
_1-4_
  6
CONTINUOUS
 62
    3
 10
196.05723613017315
 20
89.279708862304688
 11
202.62302707981419
 21
86.325104172165339
  0
LINE
  8
_1-4_
  6
CONTINUOUS
 62
    3
 10
195.55567560969175
 20
90.601996344489024
 11
202.61394603832349
 21
106.28704586544553
  0
LINE
  8
_1-4_
  6
CONTINUOUS
 62
    3
 10
195.02674824482688
 20
90.401378322292018
 11
202.41330945813979
 21
106.81596085831926
  0
LINE
  8
_1-4_
  6
CONTINUOUS
 62
    3
 10
195.52830876530828
 20
89.079090840107696
 11
202.82366365999789
 21
85.796182993296028
  0
LINE
  8
ADD_LINE
  6
DOT
 62
    3
 10
203.73560312631969
 20
107.31752137880068
 11
202.4604962323163
 21
107.89132195550043
  0
LINE
  8
ADD_LINE
  6
DOT
 62
    3
 10
202.41330945813979
 20
106.81596085831926
 11
203.03346788561024
 21
108.19410169446792
  0
LINE
  8
ADD_LINE
  6
DOT
 62
    3
 10
195.52830876530828
 20
89.079090840107696
 11
193.79630423880914
 21
89.858495351430534
  0
LINE
  8
ADD_LINE
  6
DOT
 62
    3
 10
195.02674824482688
 20
90.401378322292018
 11
194.43923950195312
 21
89.09579302813556
  0
LINE
  8
_1-4_
  6
CONTINUOUS
 62
    3
 10
54.624048181482266
 20
170.03137949350719
 11
54.98882396801099
 21
169.86722791517104
  0
LINE
  8
_1-4_
  6
CONTINUOUS
 62
    3
 10
50.064452918800157
 20
158.9241646431588
 11
49.699674039273646
 21
159.08831622149495
  0
LINE
  8
_1-4_
  6
CONTINUOUS
 62
    3
 10
55.189435804212422
 20
173.72466628615922
 11
48.623638668575808
 21
176.67927097629857
  0
LINE
  8
_1-4_
  6
CONTINUOUS
 62
    3
 10
55.690990138698282
 20
172.40237261797932
 11
54.624048181482266
 21
170.03137949350719
  0
LINE
  8
_1-4_
  6
CONTINUOUS
 62
    3
 10
56.219917503563124
 20
172.60298445418076
 11
54.98882396801099
 21
169.86722791517104
  0
LINE
  8
_1-4_
  6
CONTINUOUS
 62
    3
 10
55.718356983081719
 20
173.92527812236065
 11
48.423005181389897
 21
177.20818596917232
  0
LINE
  8
_1-4_
  6
CONTINUOUS
 62
    3
 10
48.632722803064297
 20
156.71732309702281
 11
49.699674039273646
 21
159.08831622149495
  0
LINE
  8
_1-4_
  6
CONTINUOUS
 62
    3
 10
48.833356290250208
 20
156.18840810414909
 11
50.064452918800157
 21
158.9241646431588
  0
LINE
  8
_1-4_
  6
CONTINUOUS
 62
    3
 10
40.744641278241147
 20
159.17036726668076
 11
47.310435320879975
 21
156.21576257654138
  0
LINE
  8
_1-4_
  6
CONTINUOUS
 62
    3
 10
40.243080757759714
 20
160.49266093486065
 11
47.301348093393699
 21
176.17771045581716
  0
LINE
  8
_1-4_
  6
CONTINUOUS
 62
    3
 10
39.71415648589263
 20
160.29203672666807
 11
47.10071460620776
 21
176.70662544869089
  0
LINE
  8
_1-4_
  6
CONTINUOUS
 62
    3
 10
40.215717006374064
 20
158.96975543047932
 11
47.511068808065886
 21
155.68684758366766
  0
LINE
  8
ADD_LINE
  6
DOT
 62
    3
 10
48.423005181389897
 20
177.20818596917232
 11
47.147904473382084
 21
177.78198654587206
  0
LINE
  8
ADD_LINE
  6
DOT
 62
    3
 10
47.10071460620776
 20
176.70662544869089
 11
47.720879219673776
 21
178.08476628483953
  0
LINE
  8
ADD_LINE
  6
DOT
 62
    3
 10
40.215717006374064
 20
158.96975543047932
 11
38.483706293879322
 21
159.74916612779774
  0
LINE
  8
ADD_LINE
  6
DOT
 62
    3
 10
39.71415648589263
 20
160.29203672666807
 11
39.12664465002112
 21
158.98645761850719
  0
LINE
  8
_1-2_
  6
CONTINUOUS
 62
    3
 10
195.88120744035052
 20
127.23259178367822
 11
133.14583443306589
 21
148.0935998865076
  0
LINE
  8
_1-4_
  6
CONTINUOUS
 62
    3
 10
196.34117332664698
 20
130.24115072714318
 11
195.88120744035052
 21
127.23259178367822
  0
LINE
  8
_1-2_
  6
CONTINUOUS
 62
    3
 10
196.34117332664698
 20
130.24115072714318
 11
137.50852017789273
 21
149.80442356418919
  0
LINE
  8
_1-4_
  6
CONTINUOUS
 62
    3
 10
230.14600599134292
 20
130.24115072714318
 11
230.60597187763938
 21
127.23259178367822
  0
LINE
  8
_1-4_
  6
CONTINUOUS
 62
    7
 10
115.78348933039486
 20
146.89597877296242
 11
118.50603258287585
 21
149.61853439743456
  0
ARC
  8
_1-2_
  6
CONTINUOUS
 62
    3
 10
282.91081608952703
 20
147.83871212521115
 40
6.01062568458351
 50
107.38015747070314
 51
141.59829711914062
  0
ARC
  8
_1-2_
  6
CONTINUOUS
 62
    3
 10
281.83252283044766
 20
149.60143630569047
 40
0.9999999162313101
 50
108.06419372558594
 51
175.49896240234378
  0
ARC
  8
_1-2_
  6
CONTINUOUS
 62
    3
 10
333.97841170027453
 20
170.81914128483953
 40
6.01062568458351
 50
107.38015747070314
 51
141.59829711914062
  0
ARC
  8
_1-2_
  6
CONTINUOUS
 62
    3
 10
332.9001184411951
 20
172.58186546531886
 40
0.9999999162313101
 50
108.06419372558594
 51
175.49896240234378
  0
ARC
  8
_1-2_
  6
CONTINUOUS
 62
    3
 10
385.04600731102198
 20
193.79957044446792
 40
6.01062568458351
 50
107.38015747070314
 51
141.59829711914062
  0
ARC
  8
_1-2_
  6
CONTINUOUS
 62
    3
 10
383.96771405194261
 20
195.56228225295609
 40
0.9999999162313101
 50
108.06419372558594
 51
175.49896240234378
  0
ARC
  8
_1-2_
  6
CONTINUOUS
 62
    3
 10
143.57636322846284
 20
147.83871212521115
 40
6.01062568458351
 50
38.401657104492202
 51
72.619796752929702
  0
ARC
  8
_1-2_
  6
CONTINUOUS
 62
    3
 10
144.65465648754224
 20
149.60143630569047
 40
0.9999999162313101
 50
4.5005950927734588
 51
71.935363769531278
  0
ARC
  8
_1-2_
  6
CONTINUOUS
 62
    3
 10
92.508767617715378
 20
170.81914128483953
 40
6.01062568458351
 50
38.401657104492202
 51
72.619796752929702
  0
ARC
  8
_1-2_
  6
CONTINUOUS
 62
    3
 10
93.587060876794766
 20
172.58186546531886
 40
0.9999999162313101
 50
4.5005950927734588
 51
71.935363769531278
  0
ARC
  8
_1-2_
  6
CONTINUOUS
 62
    3
 10
41.441172006967918
 20
193.79957044446792
 40
6.01062568458351
 50
38.401657104492202
 51
72.619796752929702
  0
ARC
  8
_1-2_
  6
CONTINUOUS
 62
    3
 10
42.519465266047291
 20
195.56228225295609
 40
0.9999999162313101
 50
4.5005950927734588
 51
71.935363769531278
  0
ARC
  8
_1-4_
  6
CONTINUOUS
 62
    3
 10
216.9211887668919
 20
103.59726364548142
 40
0.9999999162313101
 50
114.22773742675781
 51
204.22773742675781
  0
ARC
  8
_1-4_
  6
CONTINUOUS
 62
    3
 10
217.45011613175677
 20
103.39664562328443
 40
0.9999999162313101
 50
114.22773742675781
 51
204.22773742675781
  0
ARC
  8
_1-4_
  6
CONTINUOUS
 62
    3
 10
224.01590708139781
 20
106.35125649941935
 40
0.9999999162313101
 50
24.227737426757813
 51
114.22773742675781
  0
ARC
  8
_1-4_
  6
CONTINUOUS
 62
    3
 10
224.21653128959039
 20
106.88017149229309
 40
0.9999999162313101
 50
24.227737426757813
 51
114.22773742675781
  0
ARC
  8
_1-4_
  6
CONTINUOUS
 62
    3
 10
231.07417751002959
 20
90.666206978462839
 40
0.9999999162313101
 50
294.22773742675781
 51
24.227737426757809
  0
ARC
  8
_1-4_
  6
CONTINUOUS
 62
    3
 10
231.60310487489443
 20
90.465588956265847
 40
0.9999999162313101
 50
294.22773742675781
 51
24.227737426757809
  0
ARC
  8
_1-4_
  6
CONTINUOUS
 62
    3
 10
224.50838656038852
 20
87.711596102327917
 40
0.9999999162313101
 50
204.22773742675781
 51
294.22773742675781
  0
ARC
  8
_1-4_
  6
CONTINUOUS
 62
    3
 10
224.3077376082137
 20
87.18268110945418
 40
0.9999999162313101
 50
204.22773742675781
 51
294.22773742675781
  0
ARC
  8
_1-4_
  6
CONTINUOUS
 62
    3
 10
381.06705124313771
 20
177.46290052259292
 40
0.9999999162313101
 50
114.22773742675781
 51
204.22773742675781
  0
ARC
  8
_1-4_
  6
CONTINUOUS
 62
    3
 10
381.59597860800255
 20
177.26228868639149
 40
0.9999999162313101
 50
114.22773742675781
 51
204.22773742675781
  0
ARC
  8
_1-4_
  6
CONTINUOUS
 62
    3
 10
388.16176955764359
 20
180.21689337653083
 40
0.9999999162313101
 50
24.227737426757813
 51
114.22773742675781
  0
ARC
  8
_1-4_
  6
CONTINUOUS
 62
    3
 10
388.36239376583615
 20
180.74580836940456
 40
0.9999999162313101
 50
24.227737426757813
 51
114.22773742675781
  0
ARC
  8
_1-4_
  6
CONTINUOUS
 62
    3
 10
395.22003998627537
 20
164.53184385557432
 40
0.9999999162313101
 50
294.22773742675781
 51
24.227737426757809
  0
ARC
  8
_1-4_
  6
CONTINUOUS
 62
    3
 10
395.74896735114021
 20
164.33121964738177
 40
0.9999999162313101
 50
294.22773742675781
 51
24.227737426757809
  0
ARC
  8
_1-4_
  6
CONTINUOUS
 62
    3
 10
388.65424903663433
 20
161.57723916543497
 40
0.9999999162313101
 50
204.22773742675781
 51
294.22773742675781
  0
ARC
  8
_1-4_
  6
CONTINUOUS
 62
    3
 10
388.45360008445948
 20
161.0483118005701
 40
0.9999999162313101
 50
204.22773742675781
 51
294.22773742675781
  0
ARC
  8
_1-4_
  6
CONTINUOUS
 62
    3
 10
203.32523655247044
 20
106.40559428447003
 40
0.9999999162313101
 50
65.772262573242173
 51
155.77226257324219
  0
ARC
  8
_1-4_
  6
CONTINUOUS
 62
    3
 10
203.52587313265414
 20
105.87667929159629
 40
0.9999999162313101
 50
65.772262573242173
 51
155.77226257324219
  0
ARC
  8
_1-4_
  6
CONTINUOUS
 62
    3
 10
210.09165171030406
 20
102.92207460145693
 40
0.9999999162313101
 50
335.77226257324219
 51
65.772262573242173
  0
ARC
  8
_1-4_
  6
CONTINUOUS
 62
    3
 10
210.62057907516893
 20
103.12269262365393
 40
0.9999999162313101
 50
335.77226257324219
 51
65.772262573242173
  0
ARC
  8
_1-4_
  6
CONTINUOUS
 62
    3
 10
203.03339365366344
 20
87.23702508050043
 40
0.9999999162313101
 50
245.77226257324219
 51
335.77226257324219
  0
ARC
  8
_1-4_
  6
CONTINUOUS
 62
    3
 10
203.23403023384714
 20
86.708103901631134
 40
0.9999999162313101
 50
245.77226257324219
 51
335.77226257324219
  0
ARC
  8
_1-4_
  6
CONTINUOUS
 62
    3
 10
196.4676027040224
 20
90.191629770639778
 40
0.9999999162313101
 50
155.77226257324219
 51
245.77226257324219
  0
ARC
  8
_1-4_
  6
CONTINUOUS
 62
    3
 10
195.93867533915753
 20
89.991011748442787
 40
0.9999999162313101
 50
155.77226257324219
 51
245.77226257324219
  0
ARC
  8
_1-4_
  6
CONTINUOUS
 62
    3
 10
48.012638607540651
 20
176.29625887484164
 40
0.9999999162313101
 50
65.772262573242173
 51
155.77226257324219
  0
ARC
  8
_1-4_
  6
CONTINUOUS
 62
    3
 10
48.213272094726563
 20
175.76734388196792
 40
0.9999999162313101
 50
65.772262573242173
 51
155.77226257324219
  0
ARC
  8
_1-4_
  6
CONTINUOUS
 62
    3
 10
54.779069230363177
 20
172.81273919182857
 40
0.9999999162313101
 50
335.77226257324219
 51
65.772262573242173
  0
ARC
  8
_1-4_
  6
CONTINUOUS
 62
    3
 10
55.307990409232474
 20
173.01335102803
 40
0.9999999162313101
 50
335.77226257324219
 51
65.772262573242173
  0
ARC
  8
_1-4_
  6
CONTINUOUS
 62
    3
 10
47.720798801731405
 20
157.12768967087206
 40
0.9999999162313101
 50
245.77226257324219
 51
335.77226257324219
  0
ARC
  8
_1-4_
  6
CONTINUOUS
 62
    3
 10
47.921432288917345
 20
156.59877467799831
 40
0.9999999162313101
 50
245.77226257324219
 51
335.77226257324219
  0
ARC
  8
_1-4_
  6
CONTINUOUS
 62
    3
 10
41.155004759092606
 20
160.08229436101141
 40
0.9999999162313101
 50
155.77226257324219
 51
245.77226257324219
  0
ARC
  8
_1-4_
  6
CONTINUOUS
 62
    3
 10
40.626080487225522
 20
159.88167015281886
 40
0.9999999162313101
 50
155.77226257324219
 51
245.77226257324219
  0
TEXT
  8
_0-0_
 62
    7
 10
147.56756962956609
 20
22.702702702702709
 40
2.5
 41
1
 50
0
  1
図名
  0
TEXT
  8
_0-0_
 62
    7
 10
147.56756962956609
 20
12.972972972972968
 40
2.5
 41
1
 50
0
  1
縮尺
  0
TEXT
  8
_0-0_
 62
    7
 10
382.77784605284
 20
21.243871740392734
 40
2.5
 41
1
 50
0
  1
ＮＯ
  0
TEXT
  8
_0-0_
 62
    7
 10
20.270270012520456
 20
22.702702702702709
 40
2.5
 41
1
 50
0
  1
Ｆ形
  0
TEXT
  8
_0-0_
 62
    7
 10
389.99062615471917
 20
16.178650211643514
 40
2.5
 41
1
 50
0
  1
Ｆ
  0
TEXT
  8
_0-0_
 62
    7
 10
171.37221877639359
 20
12.362518826046511
 40
2.5
 41
1
 50
0
  1
1/5
  0
TEXT
  8
_0-1_
 62
    7
 10
80.058454565099765
 20
244.72869873046875
 40
2.5
 41
1
 50
0
  1
瓦桟
  0
TEXT
  8
_0-1_
 62
    7
 10
80.058455596099037
 20
237.22478918127112
 40
2.5
 41
1
 50
0
  1
流し桟
  0
TEXT
  8
_0-1_
 62
    7
 10
80.05845662709828
 20
229.94157120988177
 40
2.5
 41
1
 50
0
  1
下葺き材
  0
TEXT
  8
_0-1_
 62
    7
 10
80.058455596099037
 20
223.32047745988177
 40
2.5
 41
1
 50
0
  1
野地板
  0
TEXT
  8
_0-1_
 62
    7
 10
80.058454565099765
 20
216.69935896589951
 40
2.5
 41
1
 50
0
  1
垂木
  0
TEXT
  8
_1-4_
 62
    7
 10
80.058454565099765
 20
251.61979881492823
 40
2.5
 41
1
 50
0
  1
桟瓦
  0
TEXT
  8
_1-4_
 62
    7
 10
45.397582698512736
 20
13.77361400707349
 40
2.5
 41
1
 50
0
  1
谷　1
  0
TEXT
  8
_1-4_
 62
    7
 10
206.44859965286801
 20
134.78567799458477
 40
2.5
 41
1
 50
-24.227641889855281
  1
150
  0
TEXT
  8
_1-4_
 62
    7
 10
31.231869362496042
 20
18.589955922719582
 40
2.5
 41
1
 50
0
  1
Ｓ
  0
TEXT
  8
_1-4_
 62
    7
 10
94.440178742279883
 20
216.69935896589951
 40
2.5
 41
1
 50
0
  1
Ｃ－100ｘ50ｘ20ｘ2.3
  0
TEXT
  8
_1-4_
 62
    7
 10
94.465217590332031
 20
230.42289115287164
 40
2.5
 41
1
 50
0
  1
ゴムアス系ルーフィング
  0
TEXT
  8
_1-4_
 62
    7
 10
94.440178742279883
 20
223.32047745988177
 40
2.5
 41
1
 50
0
  1
硬質木片セメント板　ｔ＝18
  0
TEXT
  8
_1-4_
 62
    7
 10
397.81227318016261
 20
14.391890345392994
 40
2.5
 41
1
 50
0
  1
36
  0
POINT
  8
_1-4_
 62
    7
 10
194.73945823875636
 20
139.50651014173354
  0
POINT
  8
_1-4_
 62
    7
 10
221.16708291543497
 20
127.61406975823481
  0
TEXT
  8
_1-4_
 62
    7
 10
164.67493214645623
 20
43.127102033887283
 40
2.5
 41
1
 50
0
  1
谷部分の下葺き材（ゴムアス系ルーフィング）は、両方向へそれぞれ250ｍｍ以上重ね合わせること。
  0
TEXT
  8
_1-4_
 62
    7
 10
164.67029883577737
 20
34.534729448899938
 40
2.5
 41
1
 50
0
  1
谷巾については専門業者と相談
  0
TEXT
  8
_1-4_
 62
    7
 10
164.95489380977969
 20
38.686754207728583
 40
2.5
 41
1
 50
0
  1
谷底部分には捨て貼りをする
  0
LINE
  8
_1-0_
  6
DASHED1
 62
    7
 10
213.24358965899495
 20
107.64457496436867
 11
17.027027027027032
 21
195.94206526472763
  0
LINE
  8
_1-0_
  6
DASHED1
 62
    7
 10
213.24358965899495
 20
107.64457496436867
 11
258.83966491701761
 21
128.16280883243664
  0
LINE
  8
_1-0_
  6
DASHED1
 62
    7
 10
213.24358963312622
 20
107.31559926973054
 11
258.96277432022606
 21
127.88923238088852
  0
LINE
  8
_1-0_
  6
DASHED1
 62
    7
 10
258.96277432022606
 20
127.88923238088852
 11
414.83265673942395
 21
198.03068327096565
  0
LINE
  8
_1-0_
  6
DASHED1
 62
    7
 10
213.24358963312622
 20
107.31559926973054
 11
167.64751437510353
 21
127.83383313779851
  0
LINE
  8
_1-0_
  6
DASHED1
 62
    6
 10
213.24358965899495
 20
106.98663247598185
 11
167.64751440097226
 21
127.50486634404982
  0
LINE
  8
_1-0_
  6
DASHED1
 62
    6
 10
213.24358965899495
 20
106.98663247598185
 11
258.83966450160915
 21
127.5048672671797
  0
POINT
  8
_1-5_
 62
    7
 10
227.52064910600356
 20
75.25983660810742
  0
POINT
  8
_1-5_
 62
    7
 10
273.11672366212917
 20
95.778072035946593
  0
LINE
  8
_1-5_
  6
CONTINUOUS
 62
    7
 10
227.52064910600356
 20
75.25983660810742
 11
216.82556849431921
 21
99.026680236993954
  0
LINE
  8
_1-5_
  6
CONTINUOUS
 62
    7
 10
273.11672366212917
 20
95.778072035946593
 11
262.4216430504448
 21
119.54491566483311
  0
LINE
  8
_1-5_
  6
CONTINUOUS
 62
    7
 10
227.52064910600356
 20
75.25983660810742
 11
273.11672366212917
 21
95.778072035946593
  0
TEXT
  8
_1-5_
 62
    7
 10
248.40365123393326
 20
85.205481239044289
 40
2.5
 41
1
 50
24.227747279999939
  1
250
  0
POINT
  8
_1-5_
 62
    7
 10
152.11070947739546
 20
92.978633489791733
  0
POINT
  8
_1-5_
 62
    7
 10
197.70678466737709
 20
72.460399470521452
  0
LINE
  8
_1-5_
  6
CONTINUOUS
 62
    7
 10
152.11070947739546
 20
92.978633489791733
 11
163.88557543066833
 21
119.14500204047459
  0
LINE
  8
_1-5_
  6
CONTINUOUS
 62
    7
 10
197.70678466737709
 20
72.460399470521452
 11
209.48165062064999
 21
98.626768021204313
  0
LINE
  8
_1-5_
  6
CONTINUOUS
 62
    7
 10
152.11070947739546
 20
92.978633489791733
 11
197.70678466737709
 21
72.460399470521452
  0
TEXT
  8
_1-5_
 62
    7
 10
173.40407659295468
 20
83.944911007779041
 40
2.5
 41
1
 50
-24.227745509999892
  1
250
  0
TEXT
  8
_1-5_
 62
    7
 10
177.97881358551092
 20
81.809366283770871
 40
2.5
 41
1
 50
-24.227746934022356
  1
谷底部分捨て貼り
  0
TEXT
  8
_1-5_
 62
    7
 10
253.39575815196181
 20
87.237204004757331
 40
2.5
 41
1
 50
24.227777639332174
  1
谷底部分捨て貼り
  0
LINE
  8
_1-5_
  6
CONTINUOUS
 62
    3
 10
324.46586394864312
 20
80.292689112121906
 11
351.5995210432377
 21
68.082535996359653
  0
LINE
  8
_1-5_
  6
CONTINUOUS
 62
    3
 10
351.5995210432377
 20
68.082535996359653
 11
378.84385797049703
 21
80.342486376427232
  0
LINE
  8
_1-5_
  6
CONTINUOUS
 62
    3
 10
376.65495581150208
 20
85.206658409788716
 11
376.60014789078838
 21
85.328448290489732
  0
LINE
  8
_1-5_
  6
CONTINUOUS
 62
    3
 10
322.64495429387119
 20
86.961526375899354
 11
327.05903328985937
 21
86.961526375899354
  0
LINE
  8
_1-5_
  6
CONTINUOUS
 62
    3
 10
381.0937787897538
 20
87.135167271433559
 11
376.30878749963551
 21
87.135167271433559
  0
LINE
  8
_1-5_
  6
CONTINUOUS
 62
    3
 10
326.72810727106713
 20
85.319849756653156
 11
322.64495429387119
 21
86.961526375899354
  0
LINE
  8
_1-5_
  6
CONTINUOUS
 62
    3
 10
324.46586394864312
 20
80.292689112121906
 11
326.72810727106713
 21
85.319849756653156
  0
LINE
  8
_1-5_
  6
CONTINUOUS
 62
    3
 10
378.84385797049703
 20
80.342486376427232
 11
376.60014789078838
 21
85.328448290489732
  0
LINE
  8
_1-5_
  6
CONTINUOUS
 62
    3
 10
376.60014789078838
 20
85.328448290489732
 11
381.0937787897538
 21
87.135167271433559
  0
LINE
  8
_1-5_
  6
CONTINUOUS
 62
    7
 10
332.35399805442859
 20
106.69569971244391
 11
336.19760453933145
 21
106.69569971244391
  0
LINE
  8
_1-5_
  6
CONTINUOUS
 62
    7
 10
328.06782070276051
 20
92.000199158178702
 11
332.35399805442859
 21
106.69569971244391
  0
LINE
  8
_1-5_
  6
CONTINUOUS
 62
    7
 10
328.06782070276051
 20
92.000199158178702
 11
328.06782070276051
 21
95.776545313293781
  0
CIRCLE
  8
_1-5_
  6
CONTINUOUS
 62
    7
 10
326.77959949815749
 20
86.543433493588338
 40
5.6067640716965137
  0
TEXT
  8
_1-5_
 62
    7
 10
336.71677452719041
 20
105.57187134000408
 40
2.5
 41
1
 50
0
  1
ハぜを必ず付けること
  0
TEXT
  8
_1-5_
 62
    7
 10
347.72837285647677
 20
61.970243474650928
 40
3
 41
1
 50
0
  1
谷樋
  0
TEXT
  8
_1-4_
 62
    7
 10
253.11063300026976
 20
63.657272320023807
 40
2.5
 41
1
 50
0
  1
ステンレス　（ＳＵＳ３０４）又は、
  0
TEXT
  8
_1-4_
 62
    7
 10
244.1996105046907
 20
63.543029353913155
 40
2.5
 41
1
 50
0
  1
谷樋
  0
TEXT
  8
_1-4_
 62
    7
 10
253.1106350622683
 20
60.229958592722298
 40
2.5
 41
1
 50
0
  1
銅板ｔ=0.4以上もしくは、耐久性の有する材料を使用すること
  0
TEXT
  8
_1-4_
 62
    7
 10
93.766289461635751
 20
241.48814057232147
 40
2.5
 41
1
 50
0
  1
※　地域により瓦桟木の大きさは、異なります
  0
TEXT
  8
_1-4_
 62
    7
 10
93.535403363134918
 20
244.67528920777329
 40
2.5
 41
1
 50
0
  1
15×30以上　（防腐処理）
  0
ENDSEC
  0
EOF
