  0
SECTION
  2
HEADER
  9
$ACADVER
  1
AC1009
  9
$INSBASE
 10
0
 20
0
 30
0
  9
$EXTMIN
 10
0
 20
0
  9
$EXTMAX
 10
420
 20
297
  9
$LIMMIN
 10
0
 20
0
  9
$LIMMAX
 10
420
 20
297
  9
$LTSCALE
 40
1
  0
ENDSEC
  0
SECTION
  2
TABLES
  0
TABLE
  2
LTYPE
 70
     9
  0
LTYPE
  2
CONTINUOUS
 70
    64
  3
実線
 72
    65
 73
     0
 40
0.0
  0
LTYPE
  2
DASHED1
 70
    64
  3
--  --  --  --  --  --  --  --  
 72
    65
 73
     2
 40
2.5
 49
1.25
 49
-1.25
  0
LTYPE
  2
DASHED2
 70
    64
  3
----    ----    ----    ----    
 72
    65
 73
     2
 40
5.0
 49
2.5
 49
-2.5
  0
LTYPE
  2
DASHED3
 70
    64
  3
------  ------  ------  ------  
 72
    65
 73
     2
 40
5.0
 49
3.75
 49
-1.25
  0
LTYPE
  2
CENTER1
 70
    64
  3
----- - ----- - ----- - ----- - 
 72
    65
 73
     4
 40
10.0
 49
6.25
 49
-1.25
 49
1.25
 49
-1.25
  0
LTYPE
  2
CENTER2
 70
    64
  3
----------  --  ----------  --  
 72
    65
 73
     4
 40
20.0
 49
12.5
 49
-2.5
 49
2.5
 49
-2.5
  0
LTYPE
  2
PHANTOM1
 70
    64
  3
--- - - --- - - --- - - --- - - 
 72
    65
 73
     6
 40
10.0
 49
3.25
 49
-1.25
 49
1.25
 49
-1.25
 49
1.25
 49
-1.25
  0
LTYPE
  2
PHANTOM2
 70
    64
  3
--------  -  -  --------  -  -  
 72
    65
 73
     6
 40
20.0
 49
10.0
 49
-2.5
 49
1.25
 49
-2.5
 49
1.25
 49
-2.5
  0
LTYPE
  2
DOT
 70
    64
  3
-   -   -   -   -   -   -   -   
 72
    65
 73
     2
 40
2.5
 49
0.625
 49
-1.875
  0
LTYPE
  2
DUMMY
 70
    64
  3
ダミー
 72
    65
 73
     0
 40
0.0
  0
LTYPE
  2
RAND1
 70
    64
  3
ランダム線1
 72
    65
 73
     4
 40
10.0
 49
1.0
 49
-2.0
 49
3.0
 49
-4.0
  0
LTYPE
  2
RAND2
 70
    64
  3
ランダム線2
 72
    65
 73
     4
 40
14.0
 49
2.0
 49
-3.0
 49
4.0
 49
-5.0
  0
LTYPE
  2
RAND3
 70
    64
  3
ランダム線3
 72
    65
 73
     4
 40
18.0
 49
3.0
 49
-4.0
 49
5.0
 49
-6.0
  0
LTYPE
  2
RAND4
 70
    64
  3
ランダム線4
 72
    65
 73
     4
 40
22.0
 49
4.0
 49
-5.0
 49
6.0
 49
-7.0
  0
LTYPE
  2
RAND5
 70
    64
  3
ランダム線5
 72
    65
 73
     4
 40
26.0
 49
5.0
 49
-6.0
 49
7.0
 49
-8.0
  0
LTYPE
  2
LONG1
 70
    64
  3
----------  --  ----------  --  
 72
    65
 73
     4
 40
40.0
 49
32.5
 49
-2.5
 49
2.5
 49
-2.5
  0
LTYPE
  2
LONG2
 70
    64
  3
--------  -  -  --------  -  -  
 72
    65
 73
     6
 40
40.0
 49
30.0
 49
-2.5
 49
1.25
 49
-2.5
 49
1.25
 49
-2.5
  0
LTYPE
  2
LONG3
 70
    64
  3
+++++++++++++++..+++++++++++++++
 72
    65
 73
     2
 40
40.0
 49
37.5
 49
-2.5
  0
LTYPE
  2
LONG4
 70
    64
  3
+++++++++++++++..+++++++++++++++
 72
    65
 73
     2
 40
80.0
 49
75.0
 49
-5.0
  0
LTYPE
  2
LONG5
 70
    64
  3
----------  --  ----------  --  
 72
    65
 73
     4
 40
60.0
 49
37.5
 49
-7.5
 49
7.5
 49
-7.5
  0
LTYPE
  2
dashed
 70
   64
  3
-------   -------------   ------
 72
   65
 73
    2
 40
7.5
 49
6
 49
-1.5
  0
LTYPE
  2
dashed_spaced
 70
   64
  3
----        --------        ----
 72
   65
 73
    2
 40
12
 49
6
 49
-6
  0
LTYPE
  2
long_dashed_dotted
 70
   64
  3
------------- --- --------------
 72
   65
 73
    4
 40
15.25
 49
12
 49
-1.5
 49
0.25
 49
-1.5
  0
LTYPE
  2
long_dashed_double-dotted
 70
   64
  3
----------- --- --- ------------
 72
   65
 73
    6
 40
17
 49
12
 49
-1.5
 49
0.25
 49
-1.5
 49
0.25
 49
-1.5
  0
LTYPE
  2
long_dashed_triplicate-dotted
 70
   64
  3
--------- --- --- --- ----------
 72
   65
 73
    8
 40
18.75
 49
12
 49
-1.5
 49
0.25
 49
-1.5
 49
0.25
 49
-1.5
 49
0.25
 49
-1.5
  0
LTYPE
  2
dotted
 70
   64
  3
   -       -       -       -    
 72
   65
 73
    2
 40
1.75
 49
0.25
 49
-1.5
  0
LTYPE
  2
chain
 70
   64
  3
-------------- -- --------------
 72
   65
 73
    4
 40
18.5
 49
12
 49
-1.5
 49
3.5
 49
-1.5
  0
LTYPE
  2
chain_double_dash
 70
   64
  3
------------ -- -- -------------
 72
   65
 73
    6
 40
23.5
 49
12
 49
-1.5
 49
3.5
 49
-1.5
 49
3.5
 49
-1.5
  0
LTYPE
  2
dashed_dotted
 70
   64
  3
-----------     -     ----------
 72
   65
 73
    4
 40
9.25
 49
6
 49
-1.5
 49
0.25
 49
-1.5
  0
LTYPE
  2
double-dashed_dotted
 70
   64
  3
------   -----------   -   -----
 72
   65
 73
    6
 40
16.75
 49
6
 49
-1.5
 49
6
 49
-1.5
 49
0.25
 49
-1.5
  0
LTYPE
  2
dashed_double-dotted
 70
   64
  3
---------    -    -    ---------
 72
   65
 73
    6
 40
11
 49
6
 49
-1.5
 49
0.25
 49
-1.5
 49
0.25
 49
-1.5
  0
LTYPE
  2
double-dashed_double-dotted
 70
   64
  3
-----   ---------   -   -   ----
 72
   65
 73
    8
 40
18.5
 49
6
 49
-1.5
 49
6
 49
-1.5
 49
0.25
 49
-1.5
 49
0.25
 49
-1.5
  0
LTYPE
  2
dashed_triplicate-dotted
 70
   64
  3
-------    -    -    -    ------
 72
   65
 73
    8
 40
12.75
 49
6
 49
-1.5
 49
0.25
 49
-1.5
 49
0.25
 49
-1.5
 49
0.25
 49
-1.5
  0
LTYPE
  2
double-dashed_triplicate-dotted
 70
   64
  3
-----  ---------  -  -  -  -----
 72
   65
 73
   10
 40
20.25
 49
6
 49
-1.5
 49
6
 49
-1.5
 49
0.25
 49
-1.5
 49
0.25
 49
-1.5
 49
0.25
 49
-1.5
  0
LTYPE
  2
undefined
 70
   64
  3
--------------------------------
 72
   65
 73
    0
 40
0
  0
ENDTAB
  0
TABLE
  2
STYLE
  5
3
100
AcDbSymbolTable
 70
     1
  0
STYLE
  5
10
100
AcDbSymbolTableRecord
100
AcDbTextStyleTableRecord
  2
STANDARD
 70
     0
 40
0.0
 41
1.0
 50
0.0
 71
     0
 42
0.2
  3
txt
  4
bigfont.shx
  0
STYLE
  5
26
100
AcDbSymbolTableRecord
100
AcDbTextStyleTableRecord
  2
TATEGAKI
 70
    68
 40
0.0
 41
1.0
 50
0.0
 71
     0
 42
1.0
  3
txt
  4
bigfont.shx
  0
ENDTAB
  0
TABLE
  2
LAYER
 70
    8
  0
LAYER
  2
_0-0_
 70
   64
 62
    7
  6
CONTINUOUS
  0
LAYER
  2
_0-1_
 70
   64
 62
    7
  6
CONTINUOUS
  0
LAYER
  2
_1-0_
 70
   64
 62
    7
  6
CONTINUOUS
  0
LAYER
  2
_1-1_
 70
   64
 62
    7
  6
CONTINUOUS
  0
LAYER
  2
_1-2_
 70
   64
 62
    7
  6
CONTINUOUS
  0
LAYER
  2
_1-3_
 70
   64
 62
    7
  6
CONTINUOUS
  0
LAYER
  2
_1-4_
 70
   64
 62
    7
  6
CONTINUOUS
  0
LAYER
  2
ADD_LINE
 70
   64
 62
    7
  6
CONTINUOUS
  0
ENDTAB
  0
ENDSEC
  0
SECTION
  2
BLOCKS
  0
ENDSEC
  0
SECTION
  2
ENTITIES
  0
LINE
  8
_1-1_
  6
CONTINUOUS
 62
    7
 10
39.020777521906666
 20
107.14443722286741
 11
37.789677800358959
 21
109.88020613386826
  0
LINE
  8
_1-1_
  6
CONTINUOUS
 62
    7
 10
37.789677800358959
 20
109.88020613386826
 11
42.166925378747891
 21
111.84996321394638
  0
LINE
  8
_1-1_
  6
CONTINUOUS
 62
    7
 10
42.166925378747891
 20
111.84996321394638
 11
43.398012728304479
 21
109.11419430294553
  0
LINE
  8
_1-1_
  6
CONTINUOUS
 62
    7
 10
43.398012728304479
 20
109.11419430294553
 11
39.020777521906666
 21
107.14443722286741
  0
LINE
  8
_1-1_
  6
CONTINUOUS
 62
    7
 10
90.088373132654141
 20
130.12485401050466
 11
88.857285783097552
 21
132.8606229215055
  0
LINE
  8
_1-1_
  6
CONTINUOUS
 62
    7
 10
88.857285783097552
 20
132.8606229215055
 11
93.234520989495365
 21
134.83038000158362
  0
LINE
  8
_1-1_
  6
CONTINUOUS
 62
    7
 10
93.234520989495365
 20
134.83038000158362
 11
94.465608339051954
 21
132.09461109058279
  0
LINE
  8
_1-1_
  6
CONTINUOUS
 62
    7
 10
94.465608339051954
 20
132.09461109058279
 11
90.088373132654141
 21
130.12485401050466
  0
LINE
  8
_1-1_
  6
CONTINUOUS
 62
    7
 10
90.088373132654141
 20
130.12485401050466
 11
93.234520989495365
 21
134.83038000158362
  0
LINE
  8
_1-1_
  6
CONTINUOUS
 62
    7
 10
141.15596874340162
 20
153.10529554212417
 11
139.92488139384503
 21
155.841064453125
  0
LINE
  8
_1-1_
  6
CONTINUOUS
 62
    7
 10
139.92488139384503
 20
155.841064453125
 11
144.30211660024284
 21
157.81080916121201
  0
LINE
  8
_1-1_
  6
CONTINUOUS
 62
    7
 10
144.30211660024284
 20
157.81080916121201
 11
145.53320394979943
 21
155.07504025021115
  0
LINE
  8
_1-1_
  6
CONTINUOUS
 62
    7
 10
145.53320394979943
 20
155.07504025021115
 11
141.15596874340162
 21
153.10529554212417
  0
LINE
  8
_1-1_
  6
CONTINUOUS
 62
    7
 10
141.15596874340162
 20
153.10529554212417
 11
144.30211660024284
 21
157.81080916121201
  0
LINE
  8
_1-1_
  6
CONTINUOUS
 62
    7
 10
192.22356435414909
 20
176.08572470175255
 11
190.9924770045925
 21
178.82149361275339
  0
LINE
  8
_1-1_
  6
CONTINUOUS
 62
    7
 10
190.9924770045925
 20
178.82149361275339
 11
195.36971221099029
 21
180.79123832084039
  0
LINE
  8
_1-1_
  6
CONTINUOUS
 62
    7
 10
195.36971221099029
 20
180.79123832084039
 11
196.60079956054687
 21
178.05546940983953
  0
LINE
  8
_1-1_
  6
CONTINUOUS
 62
    7
 10
196.60079956054687
 20
178.05546940983953
 11
192.22356435414909
 21
176.08572470175255
  0
LINE
  8
_1-1_
  6
CONTINUOUS
 62
    7
 10
192.22356435414909
 20
176.08572470175255
 11
195.36971221099029
 21
180.79123832084039
  0
LINE
  8
_1-2_
  6
CONTINUOUS
 62
    3
 10
41.222125903980157
 20
117.22652126002957
 11
42.550605567725938
 21
117.66827557538008
  0
LINE
  8
_1-2_
  6
CONTINUOUS
 62
    3
 10
39.893200848553647
 20
116.15231075802366
 11
41.104418780352603
 21
116.55506855732686
  0
LINE
  8
_1-2_
  6
CONTINUOUS
 62
    3
 10
41.222125903980157
 20
117.22652126002957
 11
41.104418780352603
 21
116.55506855732686
  0
LINE
  8
_1-2_
  6
CONTINUOUS
 62
    3
 10
39.893200848553647
 20
116.15231075802366
 11
39.512242497624584
 21
114.12874788851352
  0
LINE
  8
_1-2_
  6
CONTINUOUS
 62
    3
 10
42.802103403452293
 20
115.64421782622468
 11
43.181676091374584
 21
115.77043687975085
  0
LINE
  8
_1-2_
  6
CONTINUOUS
 62
    7
 10
42.550605567725938
 20
117.66827557538008
 11
43.181676091374584
 21
115.77043687975085
  0
LINE
  8
_1-2_
  6
CONTINUOUS
 62
    3
 10
42.802103403452293
 20
115.64421782622468
 11
43.874928242451432
 21
112.41792421083193
  0
LINE
  8
_1-2_
  6
CONTINUOUS
 62
    7
 10
43.493524499841641
 20
109.76189278267526
 11
45.011790507548568
 21
110.26675662478885
  0
LINE
  8
_1-2_
  6
CONTINUOUS
 62
    3
 10
42.550605567725938
 20
117.66827557538008
 11
43.181676091374584
 21
115.77043687975085
  0
LINE
  8
_1-2_
  6
CONTINUOUS
 62
    7
 10
43.181676091374584
 20
115.77043687975085
 11
45.011790507548568
 21
110.26675662478885
  0
LINE
  8
ADD_LINE
  6
DOT
 62
    4
 10
42.063050141205679
 20
118.13846072635135
 11
42.738808296822214
 21
118.36316082928633
  0
LINE
  8
ADD_LINE
  6
DOT
 62
    4
 10
42.361289359427786
 20
118.23762223527238
 11
93.234520989495365
 21
134.83038000158362
  0
LINE
  8
_1-2_
  6
CONTINUOUS
 62
    3
 10
92.320651492557019
 20
140.21228274783573
 11
93.651630298511407
 21
140.64639117266682
  0
LINE
  8
_1-2_
  6
CONTINUOUS
 62
    3
 10
90.985565185546875
 20
139.14570576435813
 11
92.199059563714115
 21
139.54149813265414
  0
LINE
  8
_1-2_
  6
CONTINUOUS
 62
    3
 10
92.320651492557019
 20
140.21228274783573
 11
92.199059563714115
 21
139.54149813265414
  0
LINE
  8
_1-2_
  6
CONTINUOUS
 62
    3
 10
90.985565185546875
 20
139.14570576435813
 11
90.593001906936237
 21
137.12436985325169
  0
LINE
  8
_1-2_
  6
CONTINUOUS
 62
    3
 10
93.891498462573907
 20
138.62093538851352
 11
94.27178872598185
 21
138.74496459960937
  0
LINE
  8
_1-2_
  6
CONTINUOUS
 62
    7
 10
93.651630298511407
 20
140.64639117266682
 11
94.27178872598185
 21
138.74496459960937
  0
LINE
  8
_1-2_
  6
CONTINUOUS
 62
    3
 10
93.891498462573907
 20
138.62093538851352
 11
94.94576531487543
 21
135.38851763751057
  0
LINE
  8
_1-2_
  6
CONTINUOUS
 62
    7
 10
93.234520989495365
 20
134.83038000158362
 11
94.549144023173568
 21
132.73472553974875
  0
LINE
  8
_1-2_
  6
CONTINUOUS
 62
    7
 10
94.549144023173568
 20
132.73472553974875
 11
96.070255588840794
 21
133.23085475612331
  0
LINE
  8
_1-2_
  6
CONTINUOUS
 62
    3
 10
29.706635346283775
 20
110.95465170370566
 11
28.734023635451848
 21
115.89666830526816
  0
LINE
  8
_1-2_
  6
CONTINUOUS
 62
    3
 10
31.648963722022813
 20
117.89924827781884
 11
90.593001906936237
 21
137.12436985325169
  0
LINE
  8
_1-2_
  6
CONTINUOUS
 62
    3
 10
29.706635346283775
 20
110.95465170370566
 11
31.179780702333204
 21
111.59792101061022
  0
LINE
  8
_1-2_
  6
CONTINUOUS
 62
    3
 10
32.05602697423987
 20
114.8764739165435
 11
94.94576531487543
 21
135.38851763751057
  0
LINE
  8
_1-2_
  6
CONTINUOUS
 62
    3
 10
31.369195886560391
 20
114.00423616976352
 11
31.179780702333204
 21
111.59792101061022
  0
LINE
  8
_1-2_
  6
CONTINUOUS
 62
    3
 10
93.651630298511407
 20
140.64639117266682
 11
94.27178872598185
 21
138.74496459960937
  0
LINE
  8
_1-2_
  6
CONTINUOUS
 62
    7
 10
94.27178872598185
 20
138.74496459960937
 11
96.070255588840794
 21
133.23085475612331
  0
LINE
  8
_1-2_
  6
CONTINUOUS
 62
    3
 10
143.38824710330448
 20
163.19269953547297
 11
144.71922590925888
 21
163.62683270428633
  0
LINE
  8
_1-2_
  6
CONTINUOUS
 62
    3
 10
142.05316079629435
 20
162.12613492398648
 11
143.26665517446159
 21
162.52193966427365
  0
LINE
  8
_1-2_
  6
CONTINUOUS
 62
    3
 10
143.38824710330448
 20
163.19269953547297
 11
143.26665517446159
 21
162.52193966427365
  0
LINE
  8
_1-2_
  6
CONTINUOUS
 62
    3
 10
142.05316079629435
 20
162.12613492398648
 11
141.6605975176837
 21
160.10479901288008
  0
LINE
  8
_1-2_
  6
CONTINUOUS
 62
    3
 10
144.95909407332138
 20
161.6013645481419
 11
145.33938433672932
 21
161.72540613122891
  0
LINE
  8
_1-2_
  6
CONTINUOUS
 62
    7
 10
144.71922590925888
 20
163.62683270428633
 11
145.33938433672932
 21
161.72540613122891
  0
LINE
  8
_1-2_
  6
CONTINUOUS
 62
    3
 10
144.95909407332138
 20
161.6013645481419
 11
146.01336092562289
 21
158.36895916913008
  0
LINE
  8
_1-2_
  6
CONTINUOUS
 62
    7
 10
144.30211660024284
 20
157.81080916121201
 11
145.61673963392104
 21
155.71516707136826
  0
LINE
  8
_1-2_
  6
CONTINUOUS
 62
    7
 10
145.61673963392104
 20
155.71516707136826
 11
147.13785119958825
 21
156.21128391575169
  0
LINE
  8
_1-2_
  6
CONTINUOUS
 62
    3
 10
80.774243329022397
 20
133.93508086333404
 11
79.801606874208204
 21
138.87709746489654
  0
LINE
  8
_1-2_
  6
CONTINUOUS
 62
    3
 10
82.716546960779141
 20
140.87967743744721
 11
141.6605975176837
 21
160.10479901288008
  0
LINE
  8
_1-2_
  6
CONTINUOUS
 62
    3
 10
80.774243329022397
 20
133.93508086333404
 11
82.247376313080665
 21
134.57835017023859
  0
LINE
  8
_1-2_
  6
CONTINUOUS
 62
    3
 10
82.436791497307865
 20
136.9846653293919
 11
82.247376313080665
 21
134.57835017023859
  0
LINE
  8
_1-2_
  6
CONTINUOUS
 62
    3
 10
144.71922590925888
 20
163.62683270428633
 11
145.33938433672932
 21
161.72540613122891
  0
LINE
  8
_1-2_
  6
CONTINUOUS
 62
    7
 10
145.33938433672932
 20
161.72540613122891
 11
147.13785119958825
 21
156.21128391575169
  0
LINE
  8
_1-2_
  6
CONTINUOUS
 62
    3
 10
194.45584271405195
 20
186.17312869510135
 11
195.78682152000636
 21
186.60726186391472
  0
LINE
  8
_1-2_
  6
CONTINUOUS
 62
    3
 10
193.12075640704182
 20
185.10656408361487
 11
194.33425078520904
 21
185.50236882390203
  0
LINE
  8
_1-2_
  6
CONTINUOUS
 62
    3
 10
194.45584271405195
 20
186.17312869510135
 11
194.33425078520904
 21
185.50236882390203
  0
LINE
  8
_1-2_
  6
CONTINUOUS
 62
    3
 10
193.12075640704182
 20
185.10656408361487
 11
192.72819312843117
 21
183.08522817250847
  0
LINE
  8
_1-2_
  6
CONTINUOUS
 62
    3
 10
196.02668968406886
 20
184.58179370777029
 11
196.40697994747677
 21
184.70583529085727
  0
LINE
  8
_1-2_
  6
CONTINUOUS
 62
    7
 10
195.78682152000636
 20
186.60726186391472
 11
196.40697994747677
 21
184.70583529085727
  0
LINE
  8
_1-2_
  6
CONTINUOUS
 62
    3
 10
196.02668968406886
 20
184.58179370777029
 11
197.08095653637037
 21
181.34938832875847
  0
LINE
  8
_1-2_
  6
CONTINUOUS
 62
    7
 10
195.36971221099029
 20
180.79123832084039
 11
196.68433524466852
 21
178.69559623099664
  0
LINE
  8
_1-2_
  6
CONTINUOUS
 62
    7
 10
196.68433524466852
 20
178.69559623099664
 11
198.20544681033573
 21
179.19171307538008
  0
LINE
  8
_1-2_
  6
CONTINUOUS
 62
    3
 10
131.84181419578761
 20
156.9154976509713
 11
130.86922722893792
 21
161.8575142525338
  0
LINE
  8
_1-2_
  6
CONTINUOUS
 62
    3
 10
133.78416731550888
 20
163.86011896906672
 11
192.72819312843117
 21
183.08522817250847
  0
LINE
  8
_1-2_
  6
CONTINUOUS
 62
    3
 10
131.84181419578761
 20
156.9154976509713
 11
133.31497192382812
 21
157.55879170185813
  0
LINE
  8
_1-2_
  6
CONTINUOUS
 62
    3
 10
134.19120582374367
 20
160.83731986380914
 11
197.08095653637037
 21
181.34938832875847
  0
LINE
  8
_1-2_
  6
CONTINUOUS
 62
    3
 10
133.50438710805534
 20
159.96509448902029
 11
133.31497192382812
 21
157.55879170185813
  0
LINE
  8
_1-2_
  6
CONTINUOUS
 62
    3
 10
195.78682152000636
 20
186.60726186391472
 11
196.40697994747677
 21
184.70583529085727
  0
LINE
  8
_1-2_
  6
CONTINUOUS
 62
    7
 10
196.40697994747677
 20
184.70583529085727
 11
198.20544681033573
 21
179.19171307538008
  0
LINE
  8
_0-0_
  6
CONTINUOUS
 62
    5
 10
12.432428308435391
 20
278.51351351351354
 11
412.43244892842063
 21
278.51351351351354
  0
LINE
  8
_0-0_
  6
CONTINUOUS
 62
    5
 10
412.43244892842063
 20
8.5135135135135158
 11
12.432428308435391
 21
8.5135135135135158
  0
LINE
  8
_0-0_
  6
CONTINUOUS
 62
    5
 10
412.43244892842063
 20
28.513511451515001
 11
12.432415936444272
 21
28.513511451515001
  0
LINE
  8
_0-0_
  6
CONTINUOUS
 62
    5
 10
377.43248192039698
 20
8.5135135135135158
 11
377.43248192039698
 21
28.513511451515001
  0
LINE
  8
_0-0_
  6
CONTINUOUS
 62
    5
 10
142.70271507469386
 20
28.513511451515001
 11
142.70271507469386
 21
8.5135135135135158
  0
LINE
  8
_0-0_
  6
CONTINUOUS
 62
    5
 10
220.54054054054055
 20
28.513511451515001
 11
220.54054054054055
 21
8.5135135135135158
  0
LINE
  8
_0-0_
  6
CONTINUOUS
 62
    5
 10
142.70271507469386
 20
18.513512482514244
 11
220.54054054054055
 21
18.513512482514244
  0
LINE
  8
_0-0_
  6
CONTINUOUS
 62
    5
 10
402.16218690614443
 20
24.324325870823216
 11
389.59456985061234
 21
11.756758303255651
  0
LINE
  8
_0-1_
  6
CONTINUOUS
 62
    7
 10
114.09747149493244
 20
71.818158948743672
 11
120.18553037901184
 21
71.818158948743672
  0
LINE
  8
_0-1_
  6
CONTINUOUS
 62
    7
 10
103.90631598395271
 20
99.818152350348399
 11
120.18553037901184
 21
99.818152350348399
  0
LINE
  8
_0-1_
  6
CONTINUOUS
 62
    7
 10
106.45410486169764
 20
92.818153999947214
 11
120.18553037901184
 21
92.818153999947214
  0
LINE
  8
_0-1_
  6
CONTINUOUS
 62
    7
 10
109.00189373944258
 20
85.818155649546028
 11
120.18553037901184
 21
85.818155649546028
  0
LINE
  8
_0-1_
  6
CONTINUOUS
 62
    7
 10
111.5496826171875
 20
78.818157299144858
 11
120.18553037901184
 21
78.818157299144858
  0
LINE
  8
_0-1_
  6
CONTINUOUS
 62
    7
 10
65.12817795212203
 20
127.29729729729731
 11
57.641985094225078
 21
147.86547274202914
  0
LINE
  8
_1-2_
  6
CONTINUOUS
 62
    3
 10
22.155204979149062
 20
105.19560117979309
 11
43.874928242451432
 21
112.41792421083193
  0
LINE
  8
_1-2_
  6
CONTINUOUS
 62
    3
 10
22.155204979149062
 20
108.35711504961994
 11
39.512242497624584
 21
114.12874788851352
  0
LINE
  8
ADD_LINE
  6
DOT
 62
    4
 10
22.155217351140209
 20
105.19558880780195
 11
42.166925378747891
 21
111.84996321394638
  0
LINE
  8
_1-4_
  6
CONTINUOUS
 62
    7
 10
57.641985094225078
 20
147.86547274202914
 11
54.008492134712839
 21
147.86547274202914
  0
LINE
  8
ADD_LINE
  6
DOT
 62
    7
 10
193.07725648622255
 20
174.17187664959883
 11
215.57140453441724
 21
174.17187664959883
  0
LINE
  8
ADD_LINE
  6
DOT
 62
    7
 10
345.47107593433282
 20
113.40936609216639
 11
338.90526024070948
 21
98.818619186813777
  0
LINE
  8
_1-1_
  6
CONTINUOUS
 62
    7
 10
369.62788349873313
 20
107.14443722286741
 11
370.85897084828974
 21
109.88020613386826
  0
LINE
  8
_1-1_
  6
CONTINUOUS
 62
    7
 10
370.85897084828974
 20
109.88020613386826
 11
366.48173564189193
 21
111.84996321394638
  0
LINE
  8
_1-1_
  6
CONTINUOUS
 62
    7
 10
366.48173564189193
 20
111.84996321394638
 11
365.25062354835308
 21
109.11419430294553
  0
LINE
  8
_1-1_
  6
CONTINUOUS
 62
    7
 10
365.25062354835308
 20
109.11419430294553
 11
369.62788349873313
 21
107.14443722286741
  0
LINE
  8
_1-1_
  6
CONTINUOUS
 62
    7
 10
318.56026314400339
 20
130.12485401050466
 11
319.79137523754224
 21
132.8606229215055
  0
LINE
  8
_1-1_
  6
CONTINUOUS
 62
    7
 10
319.79137523754224
 20
132.8606229215055
 11
315.41411528716219
 21
134.83038000158362
  0
LINE
  8
_1-1_
  6
CONTINUOUS
 62
    7
 10
315.41411528716219
 20
134.83038000158362
 11
314.18305268158787
 21
132.09461109058279
  0
LINE
  8
_1-1_
  6
CONTINUOUS
 62
    7
 10
314.18305268158787
 20
132.09461109058279
 11
318.56026314400339
 21
130.12485401050466
  0
LINE
  8
_1-1_
  6
CONTINUOUS
 62
    7
 10
318.56026314400339
 20
130.12485401050466
 11
315.41411528716219
 21
134.83038000158362
  0
LINE
  8
_1-1_
  6
CONTINUOUS
 62
    7
 10
267.49269227723818
 20
153.10529554212417
 11
268.7237548828125
 21
155.841064453125
  0
LINE
  8
_1-1_
  6
CONTINUOUS
 62
    7
 10
268.7237548828125
 20
155.841064453125
 11
264.34654442039698
 21
157.81080916121201
  0
LINE
  8
_1-1_
  6
CONTINUOUS
 62
    7
 10
264.34654442039698
 20
157.81080916121201
 11
263.11543232685813
 21
155.07504025021115
  0
LINE
  8
_1-1_
  6
CONTINUOUS
 62
    7
 10
263.11543232685813
 20
155.07504025021115
 11
267.49269227723818
 21
153.10529554212417
  0
LINE
  8
_1-1_
  6
CONTINUOUS
 62
    7
 10
267.49269227723818
 20
153.10529554212417
 11
264.34654442039698
 21
157.81080916121201
  0
LINE
  8
_1-1_
  6
CONTINUOUS
 62
    7
 10
216.42507192250847
 20
176.08572470175255
 11
217.65618401604732
 21
178.82149361275339
  0
LINE
  8
_1-1_
  6
CONTINUOUS
 62
    7
 10
217.65618401604732
 20
178.82149361275339
 11
213.27892406566724
 21
180.79123832084039
  0
LINE
  8
_1-1_
  6
CONTINUOUS
 62
    7
 10
213.27892406566724
 20
180.79123832084039
 11
212.04786146009292
 21
178.05546940983953
  0
LINE
  8
_1-1_
  6
CONTINUOUS
 62
    7
 10
212.04786146009292
 20
178.05546940983953
 11
216.42507192250847
 21
176.08572470175255
  0
LINE
  8
_1-1_
  6
CONTINUOUS
 62
    7
 10
216.42507192250847
 20
176.08572470175255
 11
213.27892406566724
 21
180.79123832084039
  0
LINE
  8
_1-2_
  6
CONTINUOUS
 62
    3
 10
367.4265103726774
 20
117.22652126002957
 11
366.09805545291385
 21
117.66827557538008
  0
LINE
  8
_1-2_
  6
CONTINUOUS
 62
    3
 10
368.75546017208615
 20
116.15231075802366
 11
367.54424224028719
 21
116.55506855732686
  0
LINE
  8
_1-2_
  6
CONTINUOUS
 62
    3
 10
367.4265103726774
 20
117.22652126002957
 11
367.54424224028719
 21
116.55506855732686
  0
LINE
  8
_1-2_
  6
CONTINUOUS
 62
    3
 10
368.75546017208615
 20
116.15231075802366
 11
369.13641852301521
 21
114.12874788851352
  0
LINE
  8
_1-2_
  6
CONTINUOUS
 62
    3
 10
365.8465576171875
 20
115.64421782622468
 11
365.46698492926521
 21
115.77043687975085
  0
LINE
  8
_1-2_
  6
CONTINUOUS
 62
    7
 10
366.09805545291385
 20
117.66827557538008
 11
365.46698492926521
 21
115.77043687975085
  0
LINE
  8
_1-2_
  6
CONTINUOUS
 62
    3
 10
365.8465576171875
 20
115.64421782622468
 11
364.77370803420609
 21
112.41792421083193
  0
LINE
  8
_1-2_
  6
CONTINUOUS
 62
    7
 10
365.15511177681589
 20
109.76189278267526
 11
363.63687051309125
 21
110.26675662478885
  0
LINE
  8
_1-2_
  6
CONTINUOUS
 62
    3
 10
366.09805545291385
 20
117.66827557538008
 11
365.46698492926521
 21
115.77043687975085
  0
LINE
  8
_1-2_
  6
CONTINUOUS
 62
    7
 10
365.46698492926521
 20
115.77043687975085
 11
363.63687051309125
 21
110.26675662478885
  0
LINE
  8
ADD_LINE
  6
DOT
 62
    4
 10
366.58561087943411
 20
118.13846072635135
 11
365.90985272381761
 21
118.36316082928633
  0
LINE
  8
ADD_LINE
  6
DOT
 62
    4
 10
366.28734691722974
 20
118.23762223527238
 11
315.41411528716219
 21
134.83038000158362
  0
LINE
  8
_1-2_
  6
CONTINUOUS
 62
    3
 10
316.32800952808276
 20
140.21228274783573
 11
314.99703072212839
 21
140.64639117266682
  0
LINE
  8
_1-2_
  6
CONTINUOUS
 62
    3
 10
317.66309583509292
 20
139.14570576435813
 11
316.44960145692568
 21
139.54149813265414
  0
LINE
  8
_1-2_
  6
CONTINUOUS
 62
    3
 10
316.32800952808276
 20
140.21228274783573
 11
316.44960145692568
 21
139.54149813265414
  0
LINE
  8
_1-2_
  6
CONTINUOUS
 62
    3
 10
317.66309583509292
 20
139.14570576435813
 11
318.0556343697213
 21
137.12436985325169
  0
LINE
  8
_1-2_
  6
CONTINUOUS
 62
    3
 10
314.75716255806589
 20
138.62093538851352
 11
314.37684755067568
 21
138.74496459960937
  0
LINE
  8
_1-2_
  6
CONTINUOUS
 62
    7
 10
314.99703072212839
 20
140.64639117266682
 11
314.37684755067568
 21
138.74496459960937
  0
LINE
  8
_1-2_
  6
CONTINUOUS
 62
    3
 10
314.75716255806589
 20
138.62093538851352
 11
313.70287096178214
 21
135.38851763751057
  0
LINE
  8
_1-2_
  6
CONTINUOUS
 62
    7
 10
315.41411528716219
 20
134.83038000158362
 11
314.09951699746625
 21
132.73472553974875
  0
LINE
  8
_1-2_
  6
CONTINUOUS
 62
    7
 10
314.09951699746625
 20
132.73472553974875
 11
312.57840543179901
 21
133.23085475612331
  0
LINE
  8
_1-2_
  6
CONTINUOUS
 62
    3
 10
378.9420133023649
 20
110.95465170370566
 11
379.91462501319683
 21
115.89666830526816
  0
LINE
  8
_1-2_
  6
CONTINUOUS
 62
    3
 10
376.99968492662589
 20
117.89924827781884
 11
318.0556343697213
 21
137.12436985325169
  0
LINE
  8
_1-2_
  6
CONTINUOUS
 62
    3
 10
378.9420133023649
 20
110.95465170370566
 11
377.46885557432432
 21
111.59792101061022
  0
LINE
  8
_1-2_
  6
CONTINUOUS
 62
    3
 10
376.5926216744088
 20
114.8764739165435
 11
313.70287096178214
 21
135.38851763751057
  0
LINE
  8
_1-2_
  6
CONTINUOUS
 62
    3
 10
377.27946513407943
 20
114.00423616976352
 11
377.46885557432432
 21
111.59792101061022
  0
LINE
  8
_1-2_
  6
CONTINUOUS
 62
    3
 10
314.99703072212839
 20
140.64639117266682
 11
314.37684755067568
 21
138.74496459960937
  0
LINE
  8
_1-2_
  6
CONTINUOUS
 62
    7
 10
314.37684755067568
 20
138.74496459960937
 11
312.57840543179901
 21
133.23085475612331
  0
LINE
  8
_1-2_
  6
CONTINUOUS
 62
    3
 10
265.26038917335308
 20
163.19269953547297
 11
263.92941036739865
 21
163.62683270428633
  0
LINE
  8
_1-2_
  6
CONTINUOUS
 62
    3
 10
266.59547548036318
 20
162.12613492398648
 11
265.38198110219594
 21
162.52193966427365
  0
LINE
  8
_1-2_
  6
CONTINUOUS
 62
    3
 10
265.26038917335308
 20
163.19269953547297
 11
265.38198110219594
 21
162.52193966427365
  0
LINE
  8
_1-2_
  6
CONTINUOUS
 62
    3
 10
266.59547548036318
 20
162.12613492398648
 11
266.98806350295609
 21
160.10479901288008
  0
LINE
  8
_1-2_
  6
CONTINUOUS
 62
    3
 10
263.68954220333615
 20
161.6013645481419
 11
263.30927668391047
 21
161.72540613122891
  0
LINE
  8
_1-2_
  6
CONTINUOUS
 62
    7
 10
263.92941036739865
 20
163.62683270428633
 11
263.30927668391047
 21
161.72540613122891
  0
LINE
  8
_1-2_
  6
CONTINUOUS
 62
    3
 10
263.68954220333615
 20
161.6013645481419
 11
262.63530009501693
 21
158.36895916913008
  0
LINE
  8
_1-2_
  6
CONTINUOUS
 62
    7
 10
264.34654442039698
 20
157.81080916121201
 11
263.03189664273651
 21
155.71516707136826
  0
LINE
  8
_1-2_
  6
CONTINUOUS
 62
    7
 10
263.03189664273651
 20
155.71516707136826
 11
261.51078507706927
 21
156.21128391575169
  0
LINE
  8
_1-2_
  6
CONTINUOUS
 62
    3
 10
327.87439294763516
 20
133.93508086333404
 11
328.84702940244932
 21
138.87709746489654
  0
LINE
  8
_1-2_
  6
CONTINUOUS
 62
    3
 10
325.93208931587839
 20
140.87967743744721
 11
266.98806350295609
 21
160.10479901288008
  0
LINE
  8
_1-2_
  6
CONTINUOUS
 62
    3
 10
327.87439294763516
 20
133.93508086333404
 11
326.40128470755911
 21
134.57835017023859
  0
LINE
  8
_1-2_
  6
CONTINUOUS
 62
    3
 10
325.52500131967906
 20
137.85690307617187
 11
262.63530009501693
 21
158.36895916913008
  0
LINE
  8
_1-2_
  6
CONTINUOUS
 62
    3
 10
326.21184477934969
 20
136.9846653293919
 11
326.40128470755911
 21
134.57835017023859
  0
LINE
  8
_1-2_
  6
CONTINUOUS
 62
    3
 10
263.92941036739865
 20
163.62683270428633
 11
263.30927668391047
 21
161.72540613122891
  0
LINE
  8
_1-2_
  6
CONTINUOUS
 62
    7
 10
263.30927668391047
 20
161.72540613122891
 11
261.51078507706927
 21
156.21128391575169
  0
LINE
  8
_1-2_
  6
CONTINUOUS
 62
    3
 10
214.19281830658784
 20
186.17312869510135
 11
212.86183950063347
 21
186.60726186391472
  0
LINE
  8
_1-2_
  6
CONTINUOUS
 62
    3
 10
215.527904613598
 20
185.10656408361487
 11
214.31441023543076
 21
185.50236882390203
  0
LINE
  8
_1-2_
  6
CONTINUOUS
 62
    3
 10
214.19281830658784
 20
186.17312869510135
 11
214.31441023543076
 21
185.50236882390203
  0
LINE
  8
_1-2_
  6
CONTINUOUS
 62
    3
 10
215.527904613598
 20
185.10656408361487
 11
215.92044314822635
 21
183.08522817250847
  0
LINE
  8
_1-2_
  6
CONTINUOUS
 62
    3
 10
212.62197133657097
 20
184.58179370777029
 11
212.24165632918076
 21
184.70583529085727
  0
LINE
  8
_1-2_
  6
CONTINUOUS
 62
    7
 10
212.86183950063347
 20
186.60726186391472
 11
212.24165632918076
 21
184.70583529085727
  0
LINE
  8
_1-2_
  6
CONTINUOUS
 62
    3
 10
212.62197133657097
 20
184.58179370777029
 11
211.56767974028716
 21
181.34938832875847
  0
LINE
  8
_1-2_
  6
CONTINUOUS
 62
    7
 10
213.27892406566724
 20
180.79123832084039
 11
211.9643257759713
 21
178.69559623099664
  0
LINE
  8
_1-2_
  6
CONTINUOUS
 62
    7
 10
211.9643257759713
 20
178.69559623099664
 11
210.44321421030406
 21
179.19171307538008
  0
LINE
  8
_1-2_
  6
CONTINUOUS
 62
    3
 10
276.80682208086995
 20
156.9154976509713
 11
277.77940904771958
 21
161.8575142525338
  0
LINE
  8
_1-2_
  6
CONTINUOUS
 62
    3
 10
274.86446896114865
 20
163.86011896906672
 11
215.92044314822635
 21
183.08522817250847
  0
LINE
  8
_1-2_
  6
CONTINUOUS
 62
    3
 10
276.80682208086995
 20
156.9154976509713
 11
275.33366435282943
 21
157.55879170185813
  0
LINE
  8
_1-2_
  6
CONTINUOUS
 62
    3
 10
274.45743045291385
 20
160.83731986380914
 11
211.56767974028716
 21
181.34938832875847
  0
LINE
  8
_1-2_
  6
CONTINUOUS
 62
    3
 10
275.14427391258448
 20
159.96509448902029
 11
275.33366435282943
 21
157.55879170185813
  0
LINE
  8
_1-2_
  6
CONTINUOUS
 62
    3
 10
212.86183950063347
 20
186.60726186391472
 11
212.24165632918076
 21
184.70583529085727
  0
LINE
  8
_1-2_
  6
CONTINUOUS
 62
    7
 10
212.24165632918076
 20
184.70583529085727
 11
210.44321421030406
 21
179.19171307538008
  0
LINE
  8
_1-2_
  6
CONTINUOUS
 62
    3
 10
386.49343129750849
 20
105.19560117979309
 11
364.77370803420609
 21
112.41792421083193
  0
LINE
  8
_1-2_
  6
CONTINUOUS
 62
    3
 10
386.49343129750849
 20
108.35711504961994
 11
369.13641852301521
 21
114.12874788851352
  0
LINE
  8
ADD_LINE
  6
DOT
 62
    4
 10
386.49343129750849
 20
105.19558880780195
 11
366.48173564189193
 21
111.84996321394638
  0
LINE
  8
_1-0_
  6
CONTINUOUS
 62
    7
 10
22.155204979149062
 20
97.581073657886407
 11
204.32429958034209
 21
179.55718169341216
  0
LINE
  8
_1-0_
  6
CONTINUOUS
 62
    7
 10
386.49343129750849
 20
97.581073657886407
 11
204.32429958034209
 21
179.55718169341216
  0
LINE
  8
_1-1_
  6
CONTINUOUS
 62
    7
 10
217.65618401604732
 20
178.82149361275339
 11
213.27892406566724
 21
180.79123832084039
  0
LINE
  8
_1-1_
  6
CONTINUOUS
 62
    7
 10
213.27892406566724
 20
180.79123832084039
 11
212.04786146009292
 21
178.05546940983953
  0
LINE
  8
_1-2_
  6
CONTINUOUS
 62
    3
 10
214.19281830658784
 20
186.17312869510135
 11
212.86183950063347
 21
186.60726186391472
  0
LINE
  8
_1-2_
  6
CONTINUOUS
 62
    3
 10
215.527904613598
 20
185.10656408361487
 11
214.31441023543076
 21
185.50236882390203
  0
LINE
  8
_1-2_
  6
CONTINUOUS
 62
    3
 10
214.19281830658784
 20
186.17312869510135
 11
214.31441023543076
 21
185.50236882390203
  0
LINE
  8
_1-2_
  6
CONTINUOUS
 62
    3
 10
215.527904613598
 20
185.10656408361487
 11
215.92044314822635
 21
183.08522817250847
  0
LINE
  8
_1-2_
  6
CONTINUOUS
 62
    3
 10
212.62197133657097
 20
184.58179370777029
 11
212.24165632918076
 21
184.70583529085727
  0
LINE
  8
_1-2_
  6
CONTINUOUS
 62
    7
 10
212.86183950063347
 20
186.60726186391472
 11
212.24165632918076
 21
184.70583529085727
  0
LINE
  8
_1-2_
  6
CONTINUOUS
 62
    3
 10
212.62197133657097
 20
184.58179370777029
 11
211.56767974028716
 21
181.34938832875847
  0
LINE
  8
_1-2_
  6
CONTINUOUS
 62
    7
 10
213.27892406566724
 20
180.79123832084039
 11
211.9643257759713
 21
178.69559623099664
  0
LINE
  8
_1-2_
  6
CONTINUOUS
 62
    7
 10
211.9643257759713
 20
178.69559623099664
 11
210.44321421030406
 21
179.19171307538008
  0
LINE
  8
_1-2_
  6
CONTINUOUS
 62
    3
 10
212.86183950063347
 20
186.60726186391472
 11
212.24165632918076
 21
184.70583529085727
  0
LINE
  8
_1-2_
  6
CONTINUOUS
 62
    7
 10
212.24165632918076
 20
184.70583529085727
 11
210.44321421030406
 21
179.19171307538008
  0
LINE
  8
_1-0_
  6
CONTINUOUS
 62
    3
 10
227.32432597392315
 20
181.87010069151182
 11
226.52432828336151
 21
188.07010135135135
  0
LINE
  8
_1-0_
  6
CONTINUOUS
 62
    3
 10
182.12432036528716
 20
188.07010135135135
 11
181.32432267472552
 21
181.87010069151182
  0
LINE
  8
_1-0_
  6
CONTINUOUS
 62
    3
 10
223.72808507970862
 20
185.87184596706081
 11
204.32432432432432
 21
195.53560824007602
  0
LINE
  8
_1-0_
  6
CONTINUOUS
 62
    3
 10
225.62725995038008
 20
182.4700927734375
 11
223.72808507970862
 21
185.87184596706081
  0
LINE
  8
_1-0_
  6
CONTINUOUS
 62
    3
 10
227.32432597392315
 20
181.87010069151182
 11
225.62725995038008
 21
182.4700927734375
  0
LINE
  8
_1-0_
  6
CONTINUOUS
 62
    3
 10
181.32432267472552
 20
181.87010069151182
 11
182.12432036528716
 21
188.07010135135135
  0
LINE
  8
_1-0_
  6
CONTINUOUS
 62
    3
 10
181.32432267472552
 20
181.87010069151182
 11
183.02138869826859
 21
182.4700927734375
  0
LINE
  8
_1-0_
  6
CONTINUOUS
 62
    3
 10
183.02138869826859
 20
182.4700927734375
 11
184.92056356894005
 21
185.87189545502534
  0
LINE
  8
_1-0_
  6
CONTINUOUS
 62
    3
 10
204.32432432432432
 20
195.53560824007602
 11
184.92056356894005
 21
185.87189545502534
  0
LINE
  8
_1-0_
  6
CONTINUOUS
 62
    3
 10
205.19924679317992
 20
198.66859229835305
 11
226.52432828336151
 21
188.07010135135135
  0
LINE
  8
_1-0_
  6
CONTINUOUS
 62
    3
 10
203.44940185546875
 20
198.66859229835305
 11
182.12432036528716
 21
188.07010135135135
  0
LINE
  8
_1-1_
  6
CONTINUOUS
 62
    7
 10
201.32431442673143
 20
186.73132819098396
 11
201.32431442673143
 21
192.7313232421875
  0
LINE
  8
_1-1_
  6
CONTINUOUS
 62
    7
 10
201.32431442673143
 20
192.7313232421875
 11
207.32433422191724
 21
192.7313232421875
  0
LINE
  8
_1-1_
  6
CONTINUOUS
 62
    7
 10
207.32433422191724
 20
192.7313232421875
 11
207.32433422191724
 21
186.73132819098396
  0
LINE
  8
_1-1_
  6
CONTINUOUS
 62
    7
 10
207.32433422191724
 20
186.73132819098396
 11
201.32431442673143
 21
186.73132819098396
  0
LINE
  8
_1-1_
  6
CONTINUOUS
 62
    7
 10
201.32431442673143
 20
192.7313232421875
 11
207.32433422191724
 21
186.73132819098396
  0
LINE
  8
_1-1_
  6
CONTINUOUS
 62
    7
 10
207.32433422191724
 20
192.7313232421875
 11
201.32431442673143
 21
186.73132819098396
  0
LINE
  8
_1-1_
  6
CONTINUOUS
 62
    7
 10
207.72434543918919
 20
186.33132934570312
 11
200.9243155814506
 21
186.33132934570312
  0
LINE
  8
_1-1_
  6
CONTINUOUS
 62
    7
 10
200.9243155814506
 20
191.0980966928843
 11
200.9243155814506
 21
186.33132934570312
  0
LINE
  8
_1-1_
  6
CONTINUOUS
 62
    7
 10
207.72434543918919
 20
191.0980966928843
 11
207.72434543918919
 21
186.33132934570312
  0
LINE
  8
_1-1_
  6
CONTINUOUS
 62
    7
 10
200.9243155814506
 20
191.0980966928843
 11
201.32431442673143
 21
191.0980966928843
  0
LINE
  8
_1-1_
  6
CONTINUOUS
 62
    7
 10
207.32433422191724
 20
191.0980966928843
 11
207.72434543918919
 21
191.0980966928843
  0
LINE
  8
_1-0_
  6
CONTINUOUS
 62
    7
 10
386.49343129750849
 20
99.554938239020274
 11
218.32432102512669
 21
175.23104281038852
  0
LINE
  8
_1-0_
  6
CONTINUOUS
 62
    7
 10
386.49343129750849
 20
98.896971006651185
 11
218.32432102512669
 21
174.57306320602831
  0
LINE
  8
_1-0_
  6
CONTINUOUS
 62
    7
 10
204.32432432432432
 20
180.87306667018581
 11
204.3243119523332
 21
180.87306667018581
  0
LINE
  8
_1-1_
  6
CONTINUOUS
 62
    2
 10
218.32432102512669
 20
175.23104281038852
 11
204.3243119523332
 21
181.53104627454604
  0
LINE
  8
_1-1_
  6
CONTINUOUS
 62
    2
 10
218.32432102512669
 20
174.57306320602831
 11
204.3243119523332
 21
180.87306667018581
  0
LINE
  8
_1-1_
  6
CONTINUOUS
 62
    2
 10
218.32432102512669
 20
175.23104281038852
 11
218.32432102512669
 21
174.57306320602831
  0
LINE
  8
_1-0_
  6
CONTINUOUS
 62
    7
 10
22.155204979149062
 20
99.554932053024714
 11
190.32431525153083
 21
175.23104281038852
  0
LINE
  8
_1-0_
  6
CONTINUOUS
 62
    7
 10
22.155204979149062
 20
98.896977192646759
 11
190.32431525153083
 21
174.57307557801943
  0
LINE
  8
_1-0_
  6
CONTINUOUS
 62
    7
 10
204.32429958034209
 20
180.87306667018581
 11
204.3243119523332
 21
180.87306667018581
  0
LINE
  8
_1-1_
  6
CONTINUOUS
 62
    2
 10
204.32432432432432
 20
181.53104627454604
 11
190.32432762352198
 21
175.23104281038852
  0
LINE
  8
_1-1_
  6
CONTINUOUS
 62
    2
 10
190.32432762352198
 20
174.57307557801943
 11
204.32432432432432
 21
180.87307904217695
  0
LINE
  8
_1-1_
  6
CONTINUOUS
 62
    2
 10
190.32432762352198
 20
175.23104281038852
 11
190.32432762352198
 21
174.57307557801943
  0
LINE
  8
_1-1_
  6
CONTINUOUS
 62
    7
 10
201.32432679872255
 20
186.98922234612544
 11
201.32432679872255
 21
180.18105171822214
  0
LINE
  8
_1-1_
  6
CONTINUOUS
 62
    7
 10
207.32432184992612
 20
186.98922234612544
 11
207.32432184992612
 21
180.18103934623102
  0
LINE
  8
_1-1_
  6
CONTINUOUS
 62
    7
 10
200.92432795344175
 20
187.38922119140625
 11
200.92432795344175
 21
180.0010516192462
  0
LINE
  8
_1-1_
  6
CONTINUOUS
 62
    7
 10
207.72432069520693
 20
187.38922119140625
 11
207.72432069520693
 21
180.00103924725508
  0
LINE
  8
_1-1_
  6
CONTINUOUS
 62
    7
 10
203.72431987040753
 20
186.33132934570312
 11
203.72431987040753
 21
182.75602186048354
  0
LINE
  8
_1-1_
  6
CONTINUOUS
 62
    7
 10
204.92432877824115
 20
186.33132934570312
 11
204.92432877824115
 21
182.75602186048354
  0
LINE
  8
_1-1_
  6
CONTINUOUS
 62
    7
 10
203.72431987040753
 20
183.4969185494088
 11
204.92432877824115
 21
183.4969185494088
  0
LINE
  8
_1-1_
  6
CONTINUOUS
 62
    7
 10
203.72431987040753
 20
183.19692250844597
 11
204.92432877824115
 21
183.19692250844597
  0
LINE
  8
_1-1_
  6
CONTINUOUS
 62
    7
 10
203.72431987040753
 20
186.08923422323693
 11
204.92432877824115
 21
186.08923422323693
  0
LINE
  8
_1-1_
  6
CONTINUOUS
 62
    7
 10
203.72431987040753
 20
185.78923818227409
 11
204.92432877824115
 21
185.78923818227409
  0
LINE
  8
_1-1_
  6
CONTINUOUS
 62
    7
 10
203.72431987040753
 20
185.48924214131125
 11
204.92432877824115
 21
185.48924214131125
  0
LINE
  8
_1-1_
  6
CONTINUOUS
 62
    7
 10
203.72431987040753
 20
185.18924610034841
 11
204.92432877824115
 21
185.18924610034841
  0
LINE
  8
_1-1_
  6
CONTINUOUS
 62
    7
 10
203.72431987040753
 20
184.88925005938557
 11
204.92432877824115
 21
184.88925005938557
  0
LINE
  8
_1-1_
  6
CONTINUOUS
 62
    7
 10
203.72431987040753
 20
184.58925401842274
 11
204.92432877824115
 21
184.58925401842274
  0
LINE
  8
_1-1_
  6
CONTINUOUS
 62
    7
 10
203.72431987040753
 20
184.2892579774599
 11
204.92432877824115
 21
184.2892579774599
  0
LINE
  8
_1-1_
  6
CONTINUOUS
 62
    7
 10
203.72431987040753
 20
183.98926193649706
 11
204.92432877824115
 21
183.98926193649706
  0
LINE
  8
_1-1_
  6
CONTINUOUS
 62
    7
 10
203.72431987040753
 20
183.68926589553422
 11
204.92432877824115
 21
183.68926589553422
  0
LINE
  8
_1-1_
  6
CONTINUOUS
 62
    7
 10
203.72431987040753
 20
182.7892777726457
 11
204.92432877824115
 21
182.7892777726457
  0
LINE
  8
_1-1_
  6
CONTINUOUS
 62
    7
 10
203.72431987040753
 20
182.48928173168287
 11
204.92432877824115
 21
182.48928173168287
  0
LINE
  8
_1-1_
  6
CONTINUOUS
 62
    7
 10
203.72431987040753
 20
182.18928569072003
 11
204.92432877824115
 21
182.18928569072003
  0
LINE
  8
_1-1_
  6
CONTINUOUS
 62
    7
 10
203.72431987040753
 20
181.88928964975719
 11
204.92432877824115
 21
181.88928964975719
  0
LINE
  8
_1-1_
  6
CONTINUOUS
 62
    7
 10
203.72431987040753
 20
181.58929360879435
 11
204.92432877824115
 21
181.58929360879435
  0
LINE
  8
_1-1_
  6
CONTINUOUS
 62
    7
 10
203.12432778848185
 20
199.32785858979096
 11
205.52432086016682
 21
199.32785858979096
  0
LINE
  8
_1-1_
  6
CONTINUOUS
 62
    7
 10
203.12432778848185
 20
199.32785858979096
 11
203.12432778848185
 21
198.50702646616344
  0
LINE
  8
_1-1_
  6
CONTINUOUS
 62
    7
 10
205.52432086016682
 20
199.32785858979096
 11
205.52432086016682
 21
198.50702646616344
  0
LINE
  8
_1-1_
  6
DASHED1
 62
    7
 10
203.72431987040753
 20
192.7313232421875
 11
203.72431987040753
 21
189.02453860721073
  0
LINE
  8
_1-1_
  6
DASHED1
 62
    7
 10
203.72431987040753
 20
189.02453860721073
 11
204.32432432432432
 21
188.31305014120568
  0
LINE
  8
_1-1_
  6
DASHED1
 62
    7
 10
204.92432877824115
 20
189.13132126266893
 11
204.32432432432432
 21
188.31305014120568
  0
LINE
  8
_1-1_
  6
DASHED1
 62
    7
 10
204.92432877824115
 20
192.7313232421875
 11
204.92432877824115
 21
189.13132126266893
  0
LINE
  8
_1-1_
  6
CONTINUOUS
 62
    7
 10
203.72431987040753
 20
195.2367875382707
 11
203.72431987040753
 21
192.7313232421875
  0
LINE
  8
_1-1_
  6
CONTINUOUS
 62
    7
 10
204.92432877824115
 20
195.2367875382707
 11
204.92432877824115
 21
192.7313232421875
  0
LINE
  8
_1-1_
  6
DASHED1
 62
    7
 10
203.72431987040753
 20
195.2367875382707
 11
203.72431987040753
 21
198.76665270006336
  0
LINE
  8
_1-1_
  6
DASHED1
 62
    7
 10
204.92432877824115
 20
195.2367875382707
 11
204.92432877824115
 21
198.71618734823693
  0
LINE
  8
_1-3_
  6
CONTINUOUS
 62
    7
 10
91.956587095518373
 20
132.64974233266472
 11
114.09747149493244
 21
71.818158948743672
  0
LINE
  8
_1-3_
  6
CONTINUOUS
 62
    7
 10
204.42499521616344
 20
200.10469591295399
 11
186.72713408599029
 21
248.72918206292232
  0
LINE
  8
_1-3_
  6
CONTINUOUS
 62
    7
 10
202.68366220835094
 20
190.7014630291913
 11
187.28613776129646
 21
233.00581648543076
  0
LINE
  8
_1-3_
  6
CONTINUOUS
 62
    7
 10
200.94231682854732
 20
185.23489874762458
 11
187.85460600981841
 21
221.19308884079393
  0
LINE
  8
_1-3_
  6
CONTINUOUS
 62
    7
 10
213.13169737119932
 20
193.48761068808068
 11
226.97246654613599
 21
231.5148430901605
  0
LINE
  8
_1-3_
  6
CONTINUOUS
 62
    7
 10
221.49011560388516
 20
184.78092090503591
 11
230.23226351351352
 21
208.79976839632602
  0
LINE
  8
_1-3_
  6
CONTINUOUS
 62
    7
 10
186.72713408599029
 20
248.72918206292232
 11
182.72713326119089
 21
248.72918206292232
  0
LINE
  8
_1-3_
  6
CONTINUOUS
 62
    7
 10
187.28613776129646
 20
233.00581648543076
 11
183.28613693649706
 21
233.00581648543076
  0
LINE
  8
_1-3_
  6
CONTINUOUS
 62
    7
 10
187.85460600981841
 20
221.19308884079393
 11
183.85460518501901
 21
221.19308884079393
  0
LINE
  8
_1-3_
  6
CONTINUOUS
 62
    7
 10
226.97246654613599
 20
231.5148430901605
 11
230.97245499894427
 21
231.5148430901605
  0
LINE
  8
_1-3_
  6
CONTINUOUS
 62
    7
 10
230.23226351351352
 20
208.79976839632602
 11
234.2322519663218
 21
208.79976839632602
  0
LINE
  8
_1-0_
  6
CONTINUOUS
 62
    7
 10
23.63251814971099
 20
94.29815962507918
 11
204.32429958034209
 21
175.60947727512669
  0
LINE
  8
_1-0_
  6
CONTINUOUS
 62
    7
 10
385.01611658044766
 20
94.29815962507918
 11
204.32429958034209
 21
175.60947727512669
  0
LINE
  8
_1-0_
  6
CONTINUOUS
 62
    7
 10
31.839814057221275
 20
76.059729086386199
 11
204.3243119523332
 21
153.67775994378169
  0
LINE
  8
_1-0_
  6
CONTINUOUS
 62
    7
 10
376.8088345914274
 20
76.059729086386199
 11
204.3243119523332
 21
153.67775994378169
  0
LINE
  8
_1-0_
  6
DASHED1
 62
    7
 10
23.821285350902656
 20
93.878674893765847
 11
204.3243119523332
 21
175.10504645270271
  0
LINE
  8
_1-0_
  6
DASHED1
 62
    7
 10
384.82734473975933
 20
93.878674893765847
 11
204.3243119523332
 21
175.10504645270271
  0
LINE
  8
_1-0_
  6
DASHED1
 62
    7
 10
376.99760643211573
 20
76.479213817699545
 11
204.32432432432432
 21
154.1822031381968
  0
LINE
  8
_1-0_
  6
DASHED1
 62
    7
 10
31.65104530953073
 20
76.479213817699545
 11
204.32432432432432
 21
154.1822031381968
  0
LINE
  8
_1-0_
  6
DASHED2
 62
    7
 10
25.273976712613489
 20
90.650475991738816
 11
204.32429958034209
 21
171.22313628325591
  0
LINE
  8
_1-0_
  6
DASHED2
 62
    7
 10
383.37465028505068
 20
90.650475991738816
 11
204.32429958034209
 21
171.22313628325591
  0
LINE
  8
_1-0_
  6
DASHED2
 62
    7
 10
30.198353947819896
 20
79.707412719726563
 11
204.3243119523332
 21
158.06410093565245
  0
LINE
  8
_1-0_
  6
DASHED2
 62
    7
 10
378.45030088682432
 20
79.707412719726563
 11
204.3243119523332
 21
158.06410093565245
  0
LINE
  8
_1-0_
  6
CONTINUOUS
 62
    7
 10
193.91891067092484
 20
147.87671888196792
 11
213.91892716691302
 21
147.87671888196792
  0
LINE
  8
_1-0_
  6
CONTINUOUS
 62
    7
 10
213.91892716691302
 20
107.87672300596496
 11
193.91891067092484
 21
107.87672300596496
  0
LINE
  8
_1-0_
  6
CONTINUOUS
 62
    7
 10
193.91891067092484
 20
107.87672300596496
 11
193.91891067092484
 21
109.4767307590794
  0
LINE
  8
_1-0_
  6
CONTINUOUS
 62
    7
 10
193.91891067092484
 20
146.27672350084461
 11
193.91891067092484
 21
147.87671888196792
  0
LINE
  8
_1-0_
  6
CONTINUOUS
 62
    7
 10
213.91892716691302
 20
147.87671888196792
 11
213.91892716691302
 21
146.27672350084461
  0
LINE
  8
_1-0_
  6
CONTINUOUS
 62
    7
 10
213.91892716691302
 20
109.4767307590794
 11
213.91892716691302
 21
107.87672300596496
  0
LINE
  8
_1-0_
  6
CONTINUOUS
 62
    7
 10
205.11890308277029
 20
109.4767307590794
 11
213.91892716691302
 21
109.4767307590794
  0
LINE
  8
_1-0_
  6
CONTINUOUS
 62
    7
 10
202.71893475506758
 20
109.4767307590794
 11
193.91891067092484
 21
109.4767307590794
  0
LINE
  8
_1-0_
  6
CONTINUOUS
 62
    7
 10
202.71893475506758
 20
146.27672350084461
 11
193.91891067092484
 21
146.27672350084461
  0
LINE
  8
_1-0_
  6
CONTINUOUS
 62
    7
 10
203.31892683699326
 20
145.67671904692779
 11
203.31892683699326
 21
110.07672284100508
  0
LINE
  8
_1-0_
  6
CONTINUOUS
 62
    7
 10
204.51891100084461
 20
145.67671904692779
 11
204.51891100084461
 21
110.07672284100508
  0
LINE
  8
_1-0_
  6
CONTINUOUS
 62
    7
 10
205.11890308277029
 20
146.27672350084461
 11
213.91892716691302
 21
146.27672350084461
  0
LINE
  8
ADD_LINE
  6
DOT
 62
    7
 10
385.76637886665964
 20
99.484850909258867
 11
382.78205665382183
 21
92.853005898965378
  0
LINE
  8
_1-0_
  6
CONTINUOUS
 62
    7
 10
23.434870951884506
 20
96.77325068293392
 11
25.203167167869765
 21
95.004952920449753
  0
LINE
  8
_1-0_
  6
CONTINUOUS
 62
    7
 10
23.455934266786329
 20
98.166404930320951
 11
26.178486798260678
 21
95.443849305848829
  0
LINE
  8
_1-0_
  6
CONTINUOUS
 62
    7
 10
24.431243071684975
 20
98.605288943728894
 11
27.153798696157082
 21
95.882739505252331
  0
LINE
  8
_1-0_
  6
CONTINUOUS
 62
    7
 10
25.406564248574739
 20
99.044185329127956
 11
28.129116780049088
 21
96.321629704655834
  0
LINE
  8
_1-0_
  6
CONTINUOUS
 62
    7
 10
26.381885425464532
 20
99.483081714527032
 11
29.104437956938881
 21
96.76052609005491
  0
LINE
  8
_1-0_
  6
CONTINUOUS
 62
    7
 10
27.357194230363177
 20
99.921971913930534
 11
30.079749854835313
 21
97.199416289458412
  0
LINE
  8
_1-0_
  6
CONTINUOUS
 62
    7
 10
28.332503035261823
 20
100.36085592733848
 11
31.055064845729532
 21
97.638306488861915
  0
LINE
  8
_1-0_
  6
CONTINUOUS
 62
    7
 10
29.307824212151615
 20
100.79975231273755
 11
32.030386022619297
 21
98.07720287426099
  0
LINE
  8
_1-0_
  6
CONTINUOUS
 62
    7
 10
30.283133017050261
 20
101.23864251214106
 11
33.005701013513516
 21
98.516093073664493
  0
LINE
  8
_1-0_
  6
CONTINUOUS
 62
    7
 10
31.258466565931172
 20
101.67753889754012
 11
33.981016004407735
 21
98.954983273067995
  0
LINE
  8
_1-0_
  6
CONTINUOUS
 62
    7
 10
32.233787742820937
 20
102.11644146893477
 11
34.956337181297499
 21
99.393879658467071
  0
LINE
  8
_1-0_
  6
CONTINUOUS
 62
    7
 10
33.209096547719582
 20
102.5553254823427
 11
35.931649079193932
 21
99.832769857870574
  0
LINE
  8
_1-0_
  6
CONTINUOUS
 62
    7
 10
34.184417724609375
 20
102.99422186774177
 11
36.906967163085937
 21
100.27166624326964
  0
LINE
  8
_1-0_
  6
CONTINUOUS
 62
    7
 10
35.159738901499168
 20
103.43311206714527
 11
37.88228833997573
 21
100.71055644267315
  0
LINE
  8
_1-0_
  6
CONTINUOUS
 62
    7
 10
36.135047706397813
 20
103.87200845254435
 11
38.857597144874376
 21
101.14944664207665
  0
LINE
  8
_1-0_
  6
CONTINUOUS
 62
    7
 10
37.110356511296459
 20
104.31089246595229
 11
39.83291832176414
 21
101.58834302747573
  0
LINE
  8
_1-0_
  6
CONTINUOUS
 62
    7
 10
38.08569006017737
 20
104.74978885135135
 11
40.808239498653933
 21
102.02723941287479
  0
LINE
  8
_1-0_
  6
CONTINUOUS
 62
    7
 10
39.060998865076016
 20
105.1886728647593
 11
41.783548303552578
 21
102.46612342628273
  0
LINE
  8
_1-0_
  6
CONTINUOUS
 62
    7
 10
40.03632004196578
 20
105.62758162214949
 11
42.758866387444584
 21
102.90501981168181
  0
LINE
  8
_1-0_
  6
CONTINUOUS
 62
    7
 10
41.011628846864454
 20
106.06646563555744
 11
43.734187564334349
 21
103.34391001108531
  0
LINE
  8
_1-0_
  6
CONTINUOUS
 62
    7
 10
41.986962395745365
 20
106.50536202095651
 11
44.709511834221928
 21
103.78280639648437
  0
LINE
  8
_1-0_
  6
CONTINUOUS
 62
    7
 10
42.96228357263513
 20
106.94425840635559
 11
45.684833011111692
 21
104.22170278188345
  0
LINE
  8
_1-0_
  6
CONTINUOUS
 62
    7
 10
43.937604749524922
 20
107.38315479175465
 11
46.660157280999272
 21
104.66059916728253
  0
LINE
  8
_1-0_
  6
CONTINUOUS
 62
    7
 10
44.912925926414687
 20
107.82205117715372
 11
47.635481550886823
 21
105.09949555268159
  0
LINE
  8
_1-0_
  6
CONTINUOUS
 62
    7
 10
45.888259475295627
 20
108.26094756255279
 11
48.610802727776615
 21
105.53839193808066
  0
LINE
  8
_1-0_
  6
CONTINUOUS
 62
    7
 10
46.863568280194272
 20
108.69984394795186
 11
49.58612390466638
 21
105.97728832347974
  0
LINE
  8
_1-0_
  6
CONTINUOUS
 62
    7
 10
47.838889457084036
 20
109.13872796135981
 11
50.561441988558386
 21
106.4161847088788
  0
LINE
  8
_1-0_
  6
CONTINUOUS
 62
    7
 10
48.814210633973829
 20
109.57763671875
 11
51.536769351443724
 21
106.85508109427788
  0
LINE
  8
_1-0_
  6
CONTINUOUS
 62
    7
 10
49.78954418285474
 20
110.01652073215794
 11
52.512093621331303
 21
107.29396510768582
  0
LINE
  8
_1-0_
  6
CONTINUOUS
 62
    7
 10
50.764865359744505
 20
110.45542948954815
 11
53.487414798221067
 21
107.73286149308488
  0
LINE
  8
_1-0_
  6
CONTINUOUS
 62
    7
 10
51.740186536634297
 20
110.89431350295608
 11
54.46273597511086
 21
108.17175787848396
  0
LINE
  8
_1-0_
  6
CONTINUOUS
 62
    7
 10
52.715507713524062
 20
111.33320988835516
 11
55.438063337996198
 21
108.61065426388303
  0
LINE
  8
_1-0_
  6
CONTINUOUS
 62
    7
 10
53.690816518422707
 20
111.77210627375423
 11
56.41338451488599
 21
109.0495506492821
  0
LINE
  8
_1-0_
  6
CONTINUOUS
 62
    7
 10
54.666150067303647
 20
112.21100265915329
 11
57.388705691775755
 21
109.48844703468117
  0
LINE
  8
_1-0_
  6
CONTINUOUS
 62
    7
 10
55.64148361618453
 20
112.64989904455237
 11
58.364026868665547
 21
109.92734342008025
  0
LINE
  8
_1-0_
  6
CONTINUOUS
 62
    7
 10
56.616792421083204
 20
113.08879542995145
 11
59.339348045555312
 21
110.36623980547931
  0
LINE
  8
_1-0_
  6
CONTINUOUS
 62
    7
 10
57.592125969964115
 20
113.52769181535051
 11
60.314669222445104
 21
110.80513619087839
  0
LINE
  8
_1-0_
  6
CONTINUOUS
 62
    7
 10
58.56744714685388
 20
113.96657582875845
 11
61.289990399334897
 21
111.24403257627746
  0
LINE
  8
_1-0_
  6
CONTINUOUS
 62
    7
 10
59.542755951752554
 20
114.40548458614866
 11
62.26532394821578
 21
111.68292896167652
  0
LINE
  8
_1-0_
  6
CONTINUOUS
 62
    7
 10
60.518101872624584
 20
114.84438097154772
 11
63.240645125105573
 21
112.12181297508447
  0
LINE
  8
_1-0_
  6
CONTINUOUS
 62
    7
 10
61.493410677523229
 20
115.28326498495566
 11
64.215966301995365
 21
112.56072173247466
  0
LINE
  8
_1-0_
  6
CONTINUOUS
 62
    7
 10
62.468731854413022
 20
115.72216137035474
 11
65.191287478885158
 21
112.9996057458826
  0
LINE
  8
_1-0_
  6
CONTINUOUS
 62
    7
 10
63.444053031302786
 20
116.1610577557538
 11
66.166608655774922
 21
113.43850213128168
  0
LINE
  8
_1-0_
  6
CONTINUOUS
 62
    7
 10
64.419374208192551
 20
116.59995414115288
 11
67.141929832664687
 21
113.87739851668076
  0
LINE
  8
_1-0_
  6
CONTINUOUS
 62
    7
 10
65.394695385082343
 20
117.03885052655195
 11
68.117251009554479
 21
114.31629490207982
  0
LINE
  8
_1-0_
  6
CONTINUOUS
 62
    7
 10
66.370016561972136
 20
117.47774691195102
 11
69.092572186444272
 21
114.75519128747889
  0
LINE
  8
_1-0_
  6
CONTINUOUS
 62
    7
 10
67.345337738861929
 20
117.91663092535896
 11
70.06789954932961
 21
115.19408767287796
  0
LINE
  8
_1-0_
  6
CONTINUOUS
 62
    7
 10
68.320671287742812
 20
118.35553968274917
 11
71.043214540223801
 21
115.63298405827703
  0
LINE
  8
_1-0_
  6
CONTINUOUS
 62
    7
 10
69.295992464632604
 20
118.7944236961571
 11
72.01854808910474
 21
116.07188044367611
  0
LINE
  8
_1-0_
  6
CONTINUOUS
 62
    7
 10
70.27130126953125
 20
119.23333245354731
 11
72.993869265994533
 21
116.51077682907517
  0
LINE
  8
_1-0_
  6
CONTINUOUS
 62
    7
 10
71.246634818412161
 20
119.67221646695525
 11
73.969190442884297
 21
116.94966084248311
  0
LINE
  8
_1-0_
  6
CONTINUOUS
 62
    7
 10
72.221968367293073
 20
120.11112522434544
 11
74.944511619774062
 21
117.38856959987332
  0
LINE
  8
_1-0_
  6
CONTINUOUS
 62
    7
 10
73.197277172191718
 20
120.55000923775339
 11
75.919845168655002
 21
117.82746598527238
  0
LINE
  8
_1-0_
  6
CONTINUOUS
 62
    7
 10
74.172610721072658
 20
120.98891799514358
 11
76.895166345544766
 21
118.26636237067146
  0
LINE
  8
_1-0_
  6
CONTINUOUS
 62
    7
 10
75.147944269953541
 20
121.42780200855152
 11
77.87048752243453
 21
118.7052463840794
  0
LINE
  8
_1-0_
  6
CONTINUOUS
 62
    7
 10
76.123253074852187
 20
121.8666983939506
 11
78.845808699324323
 21
119.14414276947846
  0
LINE
  8
_1-0_
  6
CONTINUOUS
 62
    7
 10
77.098586623733127
 20
122.30559477934968
 11
79.821129876214115
 21
119.58303915487754
  0
LINE
  8
_1-0_
  6
CONTINUOUS
 62
    7
 10
78.073907800622891
 20
122.74450353673987
 11
80.796451053103908
 21
120.02193554027662
  0
LINE
  8
_1-0_
  6
CONTINUOUS
 62
    7
 10
79.049216605521536
 20
123.18338755014781
 11
81.771784601984791
 21
120.46083192567568
  0
LINE
  8
_1-0_
  6
CONTINUOUS
 62
    7
 10
80.024550154402448
 20
123.62228393554687
 11
82.747105778874584
 21
120.89972831107475
  0
LINE
  8
_1-0_
  6
CONTINUOUS
 62
    7
 10
80.99987133129224
 20
124.06118032094595
 11
83.722426955764362
 21
121.33862469647383
  0
LINE
  8
_1-0_
  6
CONTINUOUS
 62
    7
 10
81.975192508182033
 20
124.50006433435389
 11
84.697748132654141
 21
121.77752108187289
  0
LINE
  8
_1-0_
  6
CONTINUOUS
 62
    7
 10
82.95052605706293
 20
124.93897309174409
 11
85.673069309543919
 21
122.21641746727197
  0
LINE
  8
_1-0_
  6
CONTINUOUS
 62
    7
 10
83.925834861961576
 20
125.37785710515203
 11
86.648390486433698
 21
122.65531385267104
  0
LINE
  8
_1-0_
  6
CONTINUOUS
 62
    7
 10
84.901168410842487
 20
125.81676586254224
 11
87.623724035314623
 21
123.0942102380701
  0
LINE
  8
_1-0_
  6
CONTINUOUS
 62
    7
 10
85.876489587732266
 20
126.25564987595017
 11
88.599045212204402
 21
123.53310662346918
  0
LINE
  8
_1-0_
  6
CONTINUOUS
 62
    7
 10
86.851810764622044
 20
126.69455863334038
 11
89.574354017103047
 21
123.97199063687712
  0
LINE
  8
_1-0_
  6
CONTINUOUS
 62
    7
 10
87.827144313502956
 20
127.13344264674832
 11
90.549687565983959
 21
124.41088702227619
  0
LINE
  8
_1-0_
  6
CONTINUOUS
 62
    7
 10
88.802453118401615
 20
127.57233903214738
 11
91.525008742873737
 21
124.84978340767526
  0
LINE
  8
_1-0_
  6
CONTINUOUS
 62
    7
 10
89.777774295291394
 20
128.01123541754646
 11
92.500329919763516
 21
125.28867979307434
  0
LINE
  8
_1-0_
  6
CONTINUOUS
 62
    7
 10
90.753107844172305
 20
128.45013180294552
 11
93.475651096653294
 21
125.7275761784734
  0
LINE
  8
_1-0_
  6
CONTINUOUS
 62
    7
 10
91.728429021062084
 20
128.88902818834461
 11
94.450972273543073
 21
126.16647256387247
  0
LINE
  8
_1-0_
  6
CONTINUOUS
 62
    7
 10
92.703750197951862
 20
129.32792457374367
 11
95.426293450432865
 21
126.60536894927155
  0
LINE
  8
_1-0_
  6
CONTINUOUS
 62
    7
 10
93.679059002850508
 20
129.76682095914273
 11
96.401626999313777
 21
127.04426533467061
  0
LINE
  8
_1-0_
  6
CONTINUOUS
 62
    7
 10
94.654392551731419
 20
130.20570497255068
 11
97.376935804212422
 21
127.48314934807856
  0
LINE
  8
_1-0_
  6
CONTINUOUS
 62
    7
 10
95.629713728621198
 20
130.64461372994089
 11
98.352269353093334
 21
127.92205810546875
  0
LINE
  8
_1-0_
  6
CONTINUOUS
 62
    7
 10
96.60503490551099
 20
131.08349774334883
 11
99.327590529983112
 21
128.36094211887669
  0
LINE
  8
_1-0_
  6
CONTINUOUS
 62
    7
 10
97.580356082400769
 20
131.52240650073904
 11
100.30291170687289
 21
128.79983850427575
  0
LINE
  8
_1-0_
  6
CONTINUOUS
 62
    7
 10
98.555664887299415
 20
131.96129051414698
 11
101.27823288376267
 21
129.23873488967484
  0
LINE
  8
_1-0_
  6
CONTINUOUS
 62
    7
 10
99.530998436180326
 20
132.40018689954604
 11
102.25355406065246
 21
129.67764364706505
  0
LINE
  8
_1-0_
  6
CONTINUOUS
 62
    7
 10
100.5063196130701
 20
132.8390832849451
 11
103.22887523754224
 21
130.11652766047297
  0
LINE
  8
_1-0_
  6
CONTINUOUS
 62
    7
 10
101.48165316195102
 20
133.27797967034417
 11
104.20419641443202
 21
130.55542404587206
  0
LINE
  8
_1-0_
  6
CONTINUOUS
 62
    7
 10
102.45698052483637
 20
133.71687605574326
 11
105.17952996331293
 21
130.99432043127112
  0
LINE
  8
_1-0_
  6
CONTINUOUS
 62
    7
 10
103.43228932973501
 20
134.1557600691512
 11
106.15483876821158
 21
131.43321681667018
  0
LINE
  8
_1-0_
  6
CONTINUOUS
 62
    7
 10
104.40761669262037
 20
134.59466882654138
 11
107.13017231709249
 21
131.87211320206927
  0
LINE
  8
_1-0_
  6
CONTINUOUS
 62
    7
 10
105.38293786951014
 20
135.03356521194047
 11
108.10549349398227
 21
132.31100958746833
  0
LINE
  8
_1-0_
  6
CONTINUOUS
 62
    7
 10
106.35825904639992
 20
135.47246159733953
 11
109.08081467087204
 21
132.7499059728674
  0
LINE
  8
_1-0_
  6
CONTINUOUS
 62
    7
 10
107.3335802232897
 20
135.91134561074747
 11
110.05613584776184
 21
133.18878998627534
  0
LINE
  8
_1-0_
  6
CONTINUOUS
 62
    7
 10
108.30888902818835
 20
136.35024199614654
 11
111.03145702465162
 21
133.62768637167443
  0
LINE
  8
_1-0_
  6
CONTINUOUS
 62
    7
 10
109.28422257706926
 20
136.78913838154563
 11
112.00677820154139
 21
134.06658275707349
  0
LINE
  8
_1-0_
  6
CONTINUOUS
 62
    7
 10
110.25955612595017
 20
137.22803476694469
 11
112.98211175042231
 21
134.50547914247255
  0
LINE
  8
_1-0_
  6
CONTINUOUS
 62
    7
 10
111.23488967483108
 20
137.66693115234375
 11
113.95743292731208
 21
134.94437552787164
  0
LINE
  8
_1-0_
  6
CONTINUOUS
 62
    7
 10
112.21019847972974
 20
138.10582753774284
 11
114.93275410420186
 21
135.3832719132707
  0
LINE
  8
_1-0_
  6
CONTINUOUS
 62
    7
 10
113.18551965661952
 20
138.5447239231419
 11
115.90807528109164
 21
135.82216829866977
  0
LINE
  8
_1-0_
  6
CONTINUOUS
 62
    7
 10
114.1608408335093
 20
138.98362030854096
 11
116.88339645798142
 21
136.26106468406886
  0
LINE
  8
_1-0_
  6
CONTINUOUS
 62
    7
 10
115.13617438239021
 20
139.42251669394005
 11
117.85871763487121
 21
136.69996106946792
  0
LINE
  8
_1-0_
  6
CONTINUOUS
 62
    7
 10
116.11148318728885
 20
139.86140070734797
 11
118.83403881176099
 21
137.13885745486698
  0
LINE
  8
_1-0_
  6
CONTINUOUS
 62
    7
 10
117.08681673616977
 20
140.30030946473818
 11
119.80935998865077
 21
137.57775384026604
  0
LINE
  8
_1-0_
  6
CONTINUOUS
 62
    7
 10
118.06213791305954
 20
140.73920585013727
 11
120.78468116554055
 21
138.01663785367398
  0
LINE
  8
_1-0_
  6
CONTINUOUS
 62
    7
 10
119.03745908994934
 20
141.17808986354518
 11
121.76001471442146
 21
138.45554661106419
  0
LINE
  8
_1-0_
  6
CONTINUOUS
 62
    7
 10
120.01279263883025
 20
141.61698624894427
 11
122.73533589131124
 21
138.89443062447214
  0
LINE
  8
_1-0_
  6
CONTINUOUS
 62
    7
 10
120.98810144372889
 20
142.05589500633448
 11
123.71066944019215
 21
139.33333938186234
  0
LINE
  8
_1-0_
  6
CONTINUOUS
 62
    7
 10
121.96343499260981
 20
142.4947790197424
 11
124.68599061708193
 21
139.77222339527029
  0
LINE
  8
_1-0_
  6
CONTINUOUS
 62
    7
 10
122.93875616949958
 20
142.9336877771326
 11
125.66131179397172
 21
140.21113215266047
  0
LINE
  8
_1-0_
  6
CONTINUOUS
 62
    7
 10
123.91407734638936
 20
143.37257179054055
 11
126.6366329708615
 21
140.65001616606841
  0
LINE
  8
_1-0_
  6
CONTINUOUS
 62
    7
 10
124.88939852327914
 20
143.81146817593961
 11
127.61195414775128
 21
141.0889125514675
  0
LINE
  8
_1-0_
  6
CONTINUOUS
 62
    7
 10
125.86471970016892
 20
144.2503645613387
 11
128.58727532464104
 21
141.52780893686656
  0
LINE
  8
_1-0_
  6
CONTINUOUS
 62
    7
 10
126.84005324904984
 20
144.68926094673776
 11
129.56259650153083
 21
141.96670532226562
  0
LINE
  8
_1-0_
  6
CONTINUOUS
 62
    7
 10
127.81536205394849
 20
145.12815733213682
 11
130.53791767842063
 21
142.40560170766472
  0
LINE
  8
_1-0_
  6
CONTINUOUS
 62
    7
 10
128.79068323083825
 20
145.56704134554477
 11
131.51323885531039
 21
142.84449809306378
  0
LINE
  8
_1-0_
  6
CONTINUOUS
 62
    7
 10
129.76600440772805
 20
146.00595010293497
 11
132.48856003220018
 21
143.28339447846284
  0
LINE
  8
_1-0_
  6
CONTINUOUS
 62
    7
 10
130.74133795660896
 20
146.44484648833404
 11
133.46388120908995
 21
143.72227849187078
  0
LINE
  8
_1-0_
  6
CONTINUOUS
 62
    7
 10
131.7166467615076
 20
146.88373050174198
 11
134.43920238597974
 21
144.16117487726984
  0
LINE
  8
_1-0_
  6
CONTINUOUS
 62
    7
 10
132.69198031038852
 20
147.32262688714107
 11
135.4145235628695
 21
144.60007126266893
  0
LINE
  8
_1-0_
  6
CONTINUOUS
 62
    7
 10
133.66728911528716
 20
147.76152327254013
 11
136.38985711175042
 21
145.038967648068
  0
LINE
  8
_1-0_
  6
CONTINUOUS
 62
    7
 10
134.64262266416807
 20
148.20041965793919
 11
137.36517828864021
 21
145.47786403346706
  0
LINE
  8
_1-0_
  6
CONTINUOUS
 62
    7
 10
135.61794384105787
 20
148.63931604333825
 11
138.34049946553
 21
145.91676041886615
  0
LINE
  8
_1-0_
  6
CONTINUOUS
 62
    7
 10
136.59326501794763
 20
149.07821242873734
 11
139.31582064241977
 21
146.35565680426521
  0
LINE
  8
_1-0_
  6
CONTINUOUS
 62
    7
 10
137.56859856682854
 20
149.51710881413641
 11
140.29115419130068
 21
146.79455318966427
  0
LINE
  8
_1-0_
  6
CONTINUOUS
 62
    7
 10
138.54390737172722
 20
149.95600519953547
 11
141.26647536819047
 21
147.23344957506336
  0
LINE
  8
_1-0_
  6
CONTINUOUS
 62
    7
 10
139.51924092060813
 20
150.39490158493456
 11
142.24179654508023
 21
147.67234596046242
  0
LINE
  8
_1-0_
  6
CONTINUOUS
 62
    7
 10
140.49456209749789
 20
150.83379797033362
 11
143.21713009396115
 21
148.11124234586148
  0
LINE
  8
_1-0_
  6
CONTINUOUS
 62
    7
 10
141.46988327438768
 20
151.27268198374156
 11
144.19243889885979
 21
148.55012635926943
  0
LINE
  8
_1-0_
  6
CONTINUOUS
 62
    7
 10
142.44519207928633
 20
151.71157836914062
 11
145.16776007574958
 21
148.98903511665964
  0
LINE
  8
_1-0_
  6
CONTINUOUS
 62
    7
 10
143.42052562816724
 20
152.15047475453972
 11
146.14308125263938
 21
149.42791913006758
  0
LINE
  8
_1-0_
  6
CONTINUOUS
 62
    7
 10
144.39583443306589
 20
152.58937113993878
 11
147.11839005753802
 21
149.86681551546664
  0
LINE
  8
_1-0_
  6
CONTINUOUS
 62
    7
 10
145.3711679819468
 20
153.02826752533784
 11
148.09372360641893
 21
150.30571190086573
  0
LINE
  8
_1-0_
  6
CONTINUOUS
 62
    7
 10
146.34650153082771
 20
153.46716391073693
 11
149.0690447833087
 21
150.74460828626479
  0
LINE
  8
_1-0_
  6
CONTINUOUS
 62
    7
 10
147.32181033572635
 20
153.90606029613599
 11
150.04436596019849
 21
151.18350467166385
  0
LINE
  8
_1-0_
  6
CONTINUOUS
 62
    7
 10
148.29714388460727
 20
154.34495668153505
 11
151.01971188107052
 21
151.62241342905406
  0
LINE
  8
_1-0_
  6
CONTINUOUS
 62
    7
 10
149.27247743348818
 20
154.78385306693414
 11
151.99502068596919
 21
152.06129744246201
  0
LINE
  8
_1-0_
  6
CONTINUOUS
 62
    7
 10
150.24778623838682
 20
155.2227494523332
 11
152.97035423485011
 21
152.50020619985222
  0
LINE
  8
_1-0_
  6
CONTINUOUS
 62
    7
 10
151.22311978726773
 20
155.66164583773227
 11
153.94566303974875
 21
152.93909021326013
  0
LINE
  8
_1-0_
  6
CONTINUOUS
 62
    7
 10
152.19844096415753
 20
156.10054222313136
 11
154.92098421663852
 21
153.37797422666807
  0
LINE
  8
_1-0_
  6
CONTINUOUS
 62
    7
 10
153.17376214104732
 20
156.53943860853042
 11
155.89633013751057
 21
153.81688298405828
  0
LINE
  8
_1-0_
  6
CONTINUOUS
 62
    7
 10
154.14909568992823
 20
156.97833499392948
 11
156.87163894240922
 21
154.25577936945734
  0
LINE
  8
_1-0_
  6
CONTINUOUS
 62
    7
 10
155.12440449482688
 20
157.41723137932857
 11
157.84696011929898
 21
154.69467575485643
  0
LINE
  8
_1-0_
  6
CONTINUOUS
 62
    7
 10
156.09972567171664
 20
157.85611539273648
 11
158.8222936681799
 21
155.1335721402555
  0
LINE
  8
_1-0_
  6
CONTINUOUS
 62
    7
 10
157.07504684860643
 20
158.29501177813557
 11
159.79761484506969
 21
155.57246852565456
  0
LINE
  8
_1-0_
  6
CONTINUOUS
 62
    7
 10
158.05038039748734
 20
158.73390816353464
 11
160.77293602195948
 21
156.0113525390625
  0
LINE
  8
_1-0_
  6
CONTINUOUS
 62
    7
 10
159.02570157437711
 20
159.1728045489337
 11
161.74825719884925
 21
156.45026129645271
  0
LINE
  8
_1-0_
  6
CONTINUOUS
 62
    7
 10
160.0010227512669
 20
159.61170093433279
 11
162.72359074773016
 21
156.88914530986065
  0
LINE
  8
_1-0_
  6
CONTINUOUS
 62
    7
 10
160.97634392815669
 20
160.05059731973185
 11
163.69891192461995
 21
157.32805406725086
  0
LINE
  8
_1-0_
  6
CONTINUOUS
 62
    7
 10
161.95166510504646
 20
160.48949370513091
 11
164.67423310150971
 21
157.7669380806588
  0
LINE
  8
_1-0_
  6
CONTINUOUS
 62
    7
 10
162.92698628193625
 20
160.92839009053
 11
165.64955427839951
 21
158.20583446605787
  0
LINE
  8
_1-0_
  6
CONTINUOUS
 62
    7
 10
163.90230745882602
 20
161.36728647592906
 11
166.62486308329815
 21
158.64473085145693
  0
LINE
  8
_1-0_
  6
CONTINUOUS
 62
    7
 10
164.87764100770693
 20
161.80618286132812
 11
167.60019663217906
 21
159.08362723685602
  0
LINE
  8
_1-0_
  6
CONTINUOUS
 62
    7
 10
165.85294981260557
 20
162.24507924672722
 11
168.57551780906886
 21
159.52252362225508
  0
LINE
  8
_1-0_
  6
CONTINUOUS
 62
    7
 10
166.82828336148648
 20
162.68396326013516
 11
169.55083898595862
 21
159.96140763566302
  0
LINE
  8
_1-0_
  6
CONTINUOUS
 62
    7
 10
167.80360453837628
 20
163.12287201752534
 11
170.52614779085727
 21
160.40030402106208
  0
LINE
  8
_1-0_
  6
CONTINUOUS
 62
    7
 10
168.77892571526607
 20
163.56175603093328
 11
171.50146896774706
 21
160.83920040646115
  0
LINE
  8
_1-0_
  6
CONTINUOUS
 62
    7
 10
169.75424689215583
 20
164.00065241633234
 11
172.47680251662797
 21
161.27810916385135
  0
LINE
  8
_1-0_
  6
CONTINUOUS
 62
    7
 10
170.72956806904563
 20
164.43954880173143
 11
173.45212369351773
 21
161.7169931772593
  0
LINE
  8
_1-0_
  6
CONTINUOUS
 62
    7
 10
171.70488924593539
 20
164.8784451871305
 11
174.42744487040753
 21
162.15588956265836
  0
LINE
  8
_1-0_
  6
CONTINUOUS
 62
    7
 10
172.68021042282518
 20
165.31734157252956
 11
175.40276604729732
 21
162.59478594805745
  0
LINE
  8
_1-0_
  6
CONTINUOUS
 62
    7
 10
173.65553159971495
 20
165.75623795792865
 11
176.37807485219597
 21
163.03366996146539
  0
LINE
  8
_1-0_
  6
CONTINUOUS
 62
    7
 10
174.63085277660474
 20
166.19513434332771
 11
177.35340840107688
 21
163.47257871885557
  0
LINE
  8
_1-0_
  6
CONTINUOUS
 62
    7
 10
175.60618632548565
 20
166.63403072872677
 11
178.32872957796664
 21
163.91146273226352
  0
LINE
  8
_1-0_
  6
CONTINUOUS
 62
    7
 10
176.5814951303843
 20
167.07291474213471
 11
179.30406312684755
 21
164.35037148965372
  0
LINE
  8
_1-0_
  6
CONTINUOUS
 62
    7
 10
177.55682867926521
 20
167.5118111275338
 11
180.27938430373734
 21
164.78926787505279
  0
LINE
  8
_1-0_
  6
CONTINUOUS
 62
    7
 10
178.532149856155
 20
167.95070751293287
 11
181.25471785261826
 21
165.22816426045188
  0
LINE
  8
_1-0_
  6
CONTINUOUS
 62
    7
 10
179.50747103304477
 20
168.38960389833193
 11
182.2300266575169
 21
165.66704827385982
  0
LINE
  8
_1-0_
  6
CONTINUOUS
 62
    7
 10
180.48279220993456
 20
168.82850028373102
 11
183.20534783440669
 21
166.10594465925888
  0
LINE
  8
_1-0_
  6
CONTINUOUS
 62
    7
 10
181.45811338682432
 20
169.26739666913008
 11
184.18066901129646
 21
166.54484104465794
  0
LINE
  8
_1-0_
  6
CONTINUOUS
 62
    7
 10
182.43343456371412
 20
169.70629305452914
 11
185.15600256017737
 21
166.98373743005703
  0
LINE
  8
_1-0_
  6
CONTINUOUS
 62
    7
 10
183.40875574060391
 20
170.14518943992823
 11
186.13132373706716
 21
167.42263381545609
  0
LINE
  8
_1-0_
  6
CONTINUOUS
 62
    7
 10
184.38407691749367
 20
170.58408582532729
 11
187.10663254196581
 21
167.86151782886404
  0
LINE
  8
_1-0_
  6
CONTINUOUS
 62
    7
 10
185.35939809438347
 20
171.02298221072635
 11
188.08195371885557
 21
168.30042658625422
  0
LINE
  8
_1-0_
  6
CONTINUOUS
 62
    7
 10
186.33473164326438
 20
171.46187859612544
 11
189.05728726773648
 21
168.73932297165331
  0
LINE
  8
_1-0_
  6
CONTINUOUS
 62
    7
 10
187.31005282015414
 20
171.90077498152451
 11
190.03260844462628
 21
169.17821935705237
  0
LINE
  8
_1-0_
  6
CONTINUOUS
 62
    7
 10
188.28538636903505
 20
172.33967136692357
 11
191.00792962151607
 21
169.61710337046031
  0
LINE
  8
_1-0_
  6
CONTINUOUS
 62
    7
 10
189.26070754592484
 20
172.77856775232266
 11
191.98325079840583
 21
170.05601212785052
  0
LINE
  8
_1-0_
  6
CONTINUOUS
 62
    7
 10
190.23602872281461
 20
173.21745176573057
 11
192.95858434728675
 21
170.49489614125847
  0
LINE
  8
_1-0_
  6
CONTINUOUS
 62
    7
 10
191.2113498997044
 20
173.65634815112966
 11
193.93389315218539
 21
170.93379252665753
  0
LINE
  8
_1-0_
  6
CONTINUOUS
 62
    7
 10
192.18667107659419
 20
174.09524453652872
 11
194.90921432907518
 21
171.37268891205659
  0
LINE
  8
_1-0_
  6
CONTINUOUS
 62
    7
 10
193.16199225348396
 20
174.53414092192779
 11
195.88453550596495
 21
171.81158529745568
  0
LINE
  8
_1-0_
  6
CONTINUOUS
 62
    7
 10
194.13731343037375
 20
174.97303730732688
 11
196.85986905484586
 21
172.25048168285474
  0
LINE
  8
_1-0_
  6
CONTINUOUS
 62
    7
 10
195.11263460726352
 20
175.41193369272594
 11
197.83519023173565
 21
172.6893780682538
  0
LINE
  8
_1-0_
  6
CONTINUOUS
 62
    7
 10
196.08796815614443
 20
175.850830078125
 11
198.81051140862544
 21
173.12827445365289
  0
LINE
  8
_1-0_
  6
CONTINUOUS
 62
    7
 10
197.06327696104307
 20
176.28972646352409
 11
199.78584495750636
 21
173.56718321104307
  0
LINE
  8
_1-0_
  6
CONTINUOUS
 62
    7
 10
198.03861050992398
 20
176.72862284892315
 11
200.761153762405
 21
174.00606722445102
  0
LINE
  8
_1-0_
  6
CONTINUOUS
 62
    7
 10
199.01393168681378
 20
177.16751923432221
 11
201.73648731128591
 21
174.44495123785896
  0
LINE
  8
_1-0_
  6
CONTINUOUS
 62
    7
 10
199.98925286370357
 20
177.60640324773016
 11
202.71180848817568
 21
174.88385999524917
  0
LINE
  8
_1-0_
  6
CONTINUOUS
 62
    7
 10
200.96457404059333
 20
178.04529963312925
 11
203.68712966506547
 21
175.32274400865711
  0
LINE
  8
_1-0_
  6
CONTINUOUS
 62
    7
 10
201.93989521748313
 20
178.48419601852831
 11
205.21577577333193
 21
175.20831546267948
  0
LINE
  8
_1-0_
  6
CONTINUOUS
 62
    7
 10
202.91521639437289
 20
178.92309240392737
 11
207.78709617820948
 21
174.05122499208193
  0
LINE
  8
_1-0_
  6
CONTINUOUS
 62
    7
 10
203.89053757126268
 20
179.36198878932643
 11
210.35841658308701
 21
172.89413452148437
  0
LINE
  8
_1-0_
  6
CONTINUOUS
 62
    7
 10
205.75208921690245
 20
178.91467944995779
 11
212.92973698796453
 21
171.7370316788957
  0
LINE
  8
_1-0_
  6
CONTINUOUS
 62
    7
 10
208.32339724978885
 20
177.75758897936024
 11
215.50103264885982
 21
170.57994120829815
  0
LINE
  8
_1-0_
  6
CONTINUOUS
 62
    7
 10
210.89469291068414
 20
176.60049850876268
 11
218.07232830975508
 21
169.42286310969172
  0
LINE
  8
_1-0_
  6
CONTINUOUS
 62
    7
 10
213.4659885715794
 20
175.44342041015625
 11
220.6436487146326
 21
168.26577263909419
  0
LINE
  8
_1-0_
  6
CONTINUOUS
 62
    7
 10
216.03730897645693
 20
174.2863299395587
 11
223.21494437552789
 21
167.10868216849664
  0
LINE
  8
_1-0_
  6
CONTINUOUS
 62
    7
 10
218.60862938133448
 20
173.12923946896115
 11
225.78626478040542
 21
165.95160406989021
  0
LINE
  8
_1-0_
  6
CONTINUOUS
 62
    7
 10
221.17992504222974
 20
171.97214899836359
 11
228.35756044130068
 21
164.79451359929266
  0
LINE
  8
_1-0_
  6
CONTINUOUS
 62
    7
 10
223.751220703125
 20
170.81507089975719
 11
230.92885610219597
 21
163.6374231286951
  0
LINE
  8
_1-0_
  6
CONTINUOUS
 62
    7
 10
226.32251636402029
 20
169.65798042915964
 11
233.50017650707349
 21
162.48033265809755
  0
LINE
  8
_1-0_
  6
CONTINUOUS
 62
    7
 10
228.89381202491555
 20
168.50090233055323
 11
236.07147216796875
 21
161.3232421875
  0
LINE
  8
_1-0_
  6
CONTINUOUS
 62
    7
 10
231.4651324297931
 20
167.34379948796453
 11
238.6427925728463
 21
160.16616408889359
  0
LINE
  8
_1-0_
  6
CONTINUOUS
 62
    7
 10
234.03645283467063
 20
166.18672138935813
 11
241.21408823374156
 21
159.00907361829604
  0
LINE
  8
_1-0_
  6
CONTINUOUS
 62
    7
 10
236.60774849556589
 20
165.02963091876057
 11
243.78538389463685
 21
157.85198314769849
  0
LINE
  8
_1-0_
  6
CONTINUOUS
 62
    7
 10
239.17904415646117
 20
163.87254044816302
 11
246.35667955553211
 21
156.69490504909206
  0
LINE
  8
_1-0_
  6
CONTINUOUS
 62
    7
 10
241.7503645613387
 20
162.71544997756547
 11
248.92799996040964
 21
155.5378145784945
  0
LINE
  8
_1-0_
  6
CONTINUOUS
 62
    7
 10
244.32163547825169
 20
161.55837187895904
 11
251.49929562130492
 21
154.38072410789698
  0
LINE
  8
_1-0_
  6
CONTINUOUS
 62
    7
 10
246.89298062711151
 20
160.40128140836148
 11
254.07061602618245
 21
153.22363363729943
  0
LINE
  8
_1-0_
  6
CONTINUOUS
 62
    7
 10
249.46425154402451
 20
159.24420330975508
 11
256.64191168707771
 21
152.066555538693
  0
LINE
  8
_1-0_
  6
CONTINUOUS
 62
    7
 10
252.03557194890203
 20
158.08711283915753
 11
259.21320734797297
 21
150.90946506809544
  0
LINE
  8
_1-0_
  6
CONTINUOUS
 62
    7
 10
254.60686760979732
 20
156.93002236855997
 11
261.78450300886828
 21
149.75237459749789
  0
LINE
  8
_1-0_
  6
CONTINUOUS
 62
    7
 10
257.17818801467484
 20
155.77293189796242
 11
264.35582341374578
 21
148.59528412690034
  0
LINE
  8
_1-0_
  6
CONTINUOUS
 62
    7
 10
259.74945893158787
 20
154.61585379935602
 11
266.92714381862334
 21
147.43820602829393
  0
LINE
  8
_1-0_
  6
CONTINUOUS
 62
    7
 10
262.32080408044766
 20
153.45876332875847
 11
269.49843947951859
 21
146.28110318570523
  0
LINE
  8
_1-0_
  6
CONTINUOUS
 62
    7
 10
264.89209974134292
 20
152.30167285816091
 11
272.06975988439615
 21
145.12402508709883
  0
LINE
  8
_1-0_
  6
CONTINUOUS
 62
    7
 10
267.46342014622047
 20
151.14458238756336
 11
274.64108028927365
 21
143.96692224451013
  0
LINE
  8
_1-0_
  6
CONTINUOUS
 62
    7
 10
270.03474055109797
 20
149.98749191696581
 11
277.2124006941512
 21
142.80983177391261
  0
LINE
  8
_1-0_
  6
CONTINUOUS
 62
    7
 10
272.60603621199328
 20
148.83040144636826
 11
279.78369635504646
 21
141.65275367530617
  0
LINE
  8
_1-0_
  6
CONTINUOUS
 62
    7
 10
275.17733187288854
 20
147.67332334776182
 11
282.35499201594172
 21
140.49566320470862
  0
LINE
  8
_1-0_
  6
CONTINUOUS
 62
    7
 10
277.7486275337838
 20
146.51623287716427
 11
284.92631242081927
 21
139.33857273411107
  0
LINE
  8
_1-0_
  6
CONTINUOUS
 62
    7
 10
280.31994793866136
 20
145.35914240656672
 11
287.49760808171453
 21
138.18148226351352
  0
LINE
  8
_1-0_
  6
CONTINUOUS
 62
    7
 10
282.89126834353885
 20
144.20205193596917
 11
290.06890374260979
 21
137.02440416490711
  0
LINE
  8
_1-0_
  6
CONTINUOUS
 62
    7
 10
285.46256400443411
 20
143.04497383736276
 11
292.64022414748734
 21
135.86731369430956
  0
LINE
  8
_1-0_
  6
CONTINUOUS
 62
    7
 10
288.03385966532943
 20
141.88788336676521
 11
295.2115198083826
 21
134.71022322371201
  0
LINE
  8
_1-0_
  6
CONTINUOUS
 62
    7
 10
290.60515532622469
 20
140.7308052681588
 11
297.78284021326016
 21
133.55314512510557
  0
LINE
  8
_1-0_
  6
CONTINUOUS
 62
    7
 10
293.17645098711995
 20
139.57371479756125
 11
300.35413587415542
 21
132.39605465450802
  0
LINE
  8
_1-0_
  6
CONTINUOUS
 62
    7
 10
295.7477713919975
 20
138.4166243269637
 11
302.92543153505068
 21
131.23896418391047
  0
LINE
  8
_1-0_
  6
CONTINUOUS
 62
    7
 10
298.319091796875
 20
137.25953385636615
 11
305.49675193992823
 21
130.08187371331292
  0
LINE
  8
_1-0_
  6
CONTINUOUS
 62
    7
 10
300.89038745777026
 20
136.10244338576859
 11
308.06804760082349
 21
128.92479561470651
  0
LINE
  8
_1-0_
  6
CONTINUOUS
 62
    7
 10
303.46168311866558
 20
134.94536528716216
 11
310.63936800570104
 21
127.76770514410896
  0
LINE
  8
_1-0_
  6
CONTINUOUS
 62
    7
 10
306.03297877956084
 20
133.78827481656461
 11
313.2106636665963
 21
126.61061467351141
  0
LINE
  8
_1-0_
  6
CONTINUOUS
 62
    7
 10
308.60429918443839
 20
132.63118434596706
 11
315.78195932749156
 21
125.45352420291385
  0
LINE
  8
_1-0_
  6
CONTINUOUS
 62
    7
 10
311.17561958931589
 20
131.4740938753695
 11
318.35325498838682
 21
124.29644610430744
  0
LINE
  8
_1-0_
  6
CONTINUOUS
 62
    7
 10
313.74691525021115
 20
130.31700340477195
 11
320.92457539326438
 21
123.13934326171875
  0
LINE
  8
_1-0_
  6
CONTINUOUS
 62
    7
 10
316.31821091110646
 20
129.15992530616555
 11
323.49589579814193
 21
121.98226516311234
  0
LINE
  8
_1-0_
  6
CONTINUOUS
 62
    7
 10
318.88950657200172
 20
128.002834835568
 11
326.06719145903719
 21
120.82517469251479
  0
LINE
  8
_1-0_
  6
CONTINUOUS
 62
    7
 10
321.46082697687922
 20
126.84574436497044
 11
328.63848711993245
 21
119.66808422191724
  0
LINE
  8
_1-0_
  6
CONTINUOUS
 62
    7
 10
324.03214738175677
 20
125.68865389437289
 11
331.20980752481
 21
118.51100612331082
  0
LINE
  8
_1-0_
  6
CONTINUOUS
 62
    7
 10
326.60344304265203
 20
124.53156342377534
 11
333.7811279296875
 21
117.35390328072214
  0
LINE
  8
_1-0_
  6
CONTINUOUS
 62
    7
 10
329.17473870354729
 20
123.37448532516892
 11
336.35242359058282
 21
116.19682518211572
  0
LINE
  8
_1-0_
  6
CONTINUOUS
 62
    7
 10
331.74603436444261
 20
122.2174072265625
 11
338.92371925147808
 21
115.03973471151816
  0
LINE
  8
_1-0_
  6
CONTINUOUS
 62
    7
 10
334.3173547693201
 20
121.06030438397383
 11
341.49501491237334
 21
113.88264424092061
  0
LINE
  8
_1-0_
  6
CONTINUOUS
 62
    7
 10
336.88865043021536
 20
119.90322628536741
 11
344.06633531725089
 21
112.72556614231419
  0
LINE
  8
_1-0_
  6
CONTINUOUS
 62
    7
 10
339.45997083509292
 20
118.74613581476986
 11
346.63765572212839
 21
111.56846329972551
  0
LINE
  8
_1-0_
  6
CONTINUOUS
 62
    7
 10
342.03129123997047
 20
117.58904534417231
 11
349.20895138302365
 21
110.41138520111909
  0
LINE
  8
_1-0_
  6
CONTINUOUS
 62
    7
 10
344.60256215688344
 20
116.43196724556589
 11
351.78024704391896
 21
109.25430710251267
  0
LINE
  8
_1-0_
  6
CONTINUOUS
 62
    7
 10
347.17385781777875
 20
115.27487677496833
 11
354.35154270481422
 21
108.097204259924
  0
LINE
  8
_1-0_
  6
CONTINUOUS
 62
    7
 10
349.74517822265625
 20
114.11778630437078
 11
356.92283836570948
 21
106.94012616131758
  0
LINE
  8
_1-0_
  6
CONTINUOUS
 62
    7
 10
352.3164986275338
 20
112.96069583377323
 11
359.49415877058703
 21
105.78303569072003
  0
LINE
  8
_1-0_
  6
CONTINUOUS
 62
    7
 10
354.88779428842906
 20
111.80360536317568
 11
362.06547917546453
 21
104.62594522012247
  0
LINE
  8
_1-0_
  6
CONTINUOUS
 62
    7
 10
357.45911469330662
 20
110.64651489257812
 11
364.63677483635979
 21
103.46886093552048
  0
LINE
  8
_1-0_
  6
CONTINUOUS
 62
    7
 10
360.03038561021964
 20
109.48944916596284
 11
367.20807049725511
 21
102.31177046492293
  0
LINE
  8
_1-0_
  6
CONTINUOUS
 62
    7
 10
362.60170601509714
 20
108.33235869536529
 11
369.7793909021326
 21
101.15467999432539
  0
LINE
  8
_1-0_
  6
CONTINUOUS
 62
    7
 10
365.1730016759924
 20
107.17526822476775
 11
372.35068656302786
 21
99.997601895718972
  0
LINE
  8
_1-0_
  6
CONTINUOUS
 62
    7
 10
367.74434682485224
 20
106.01816538217906
 11
374.92200696790542
 21
98.840499053130287
  0
LINE
  8
_1-0_
  6
CONTINUOUS
 62
    7
 10
370.31566722972974
 20
104.86107491158151
 11
377.49330262880068
 21
97.683420954523868
  0
LINE
  8
_1-0_
  6
CONTINUOUS
 62
    7
 10
372.88693814664276
 20
103.70399681297509
 11
380.06462303367823
 21
96.526330483926316
  0
LINE
  8
_1-0_
  6
CONTINUOUS
 62
    7
 10
375.45823380753802
 20
102.5469125283731
 11
382.63594343855578
 21
95.369233827333204
  0
LINE
  8
_1-0_
  6
CONTINUOUS
 62
    7
 10
378.02955421241558
 20
101.38982205777556
 11
383.95650502797724
 21
95.462883614205026
  0
LINE
  8
_1-0_
  6
CONTINUOUS
 62
    7
 10
380.60087461729307
 20
100.23273158717801
 11
384.39538904138516
 21
96.438210977090378
  0
LINE
  8
_1-0_
  6
CONTINUOUS
 62
    7
 10
383.17217027818839
 20
99.075641116580456
 11
384.83429779877537
 21
97.413532153980157
  0
LINE
  8
_1-0_
  6
CONTINUOUS
 62
    7
 10
383.48617141311234
 20
94.98663000158362
 11
383.95165520745354
 21
95.452119981920404
  0
LINE
  8
_1-0_
  6
CONTINUOUS
 62
    7
 10
382.51083786423146
 20
95.425526386982696
 11
385.10873330606
 21
98.023415642815678
  0
LINE
  8
_1-0_
  6
CONTINUOUS
 62
    7
 10
381.53552905933282
 20
95.864422772381758
 11
384.2580846838049
 21
98.586984582849453
  0
LINE
  8
_1-0_
  6
CONTINUOUS
 62
    7
 10
380.56019551045188
 20
96.303319157780834
 11
383.28277587890625
 21
99.025874782252956
  0
LINE
  8
_1-0_
  6
CONTINUOUS
 62
    7
 10
379.58488670555323
 20
96.742209357184336
 11
382.30744233002537
 21
99.464777353647605
  0
LINE
  8
_1-0_
  6
CONTINUOUS
 62
    7
 10
378.60955315667229
 20
97.181099556587839
 11
381.33210878114443
 21
99.903667553051108
  0
LINE
  8
_1-0_
  6
CONTINUOUS
 62
    7
 10
377.63424435177365
 20
97.619995941986915
 11
380.35679997624578
 21
100.34256393845017
  0
LINE
  8
_1-0_
  6
CONTINUOUS
 62
    7
 10
376.65891080289276
 20
98.05889851338155
 11
379.3814664273649
 21
100.78146032384925
  0
LINE
  8
_1-0_
  6
CONTINUOUS
 62
    7
 10
375.68357725401182
 20
98.497794898780626
 11
378.40613287848396
 21
101.22035670924832
  0
LINE
  8
_1-0_
  6
CONTINUOUS
 62
    7
 10
374.70826844911318
 20
98.936685098184128
 11
377.43082407358531
 21
101.65925309464738
  0
LINE
  8
_1-0_
  6
CONTINUOUS
 62
    7
 10
373.73295964421453
 20
99.375581483583204
 11
376.45549052470443
 21
102.09814948004646
  0
LINE
  8
_1-0_
  6
CONTINUOUS
 62
    7
 10
372.75760135135135
 20
99.814484054977839
 11
375.48018171980578
 21
102.53704586544553
  0
LINE
  8
_1-0_
  6
CONTINUOUS
 62
    7
 10
371.78229254645271
 20
100.25337425438134
 11
374.50484817092484
 21
102.97593606484904
  0
LINE
  8
_1-0_
  6
CONTINUOUS
 62
    7
 10
370.80698374155406
 20
100.69227063978042
 11
373.5295393660262
 21
103.4148324502481
  0
LINE
  8
_1-0_
  6
CONTINUOUS
 62
    7
 10
369.83167493665542
 20
101.13116083918392
 11
372.55420581714532
 21
103.85372264965162
  0
LINE
  8
_1-0_
  6
CONTINUOUS
 62
    7
 10
368.85631664379224
 20
101.57006341057856
 11
371.57887226826438
 21
104.29261903505068
  0
LINE
  8
_1-0_
  6
CONTINUOUS
 62
    7
 10
367.88100783889359
 20
102.00895360998206
 11
370.60356346336573
 21
104.73151542044975
  0
LINE
  8
_1-0_
  6
CONTINUOUS
 62
    7
 10
366.90569903399495
 20
102.44784999538113
 11
369.62822991448479
 21
105.17041180584883
  0
LINE
  8
_1-0_
  6
CONTINUOUS
 62
    7
 10
365.93034074113177
 20
102.88675256677577
 11
368.65292110958615
 21
105.60930819124789
  0
LINE
  8
_1-0_
  6
CONTINUOUS
 62
    7
 10
364.95503193623313
 20
103.32564276617927
 11
367.67758756070526
 21
106.04820457664697
  0
LINE
  8
_1-0_
  6
CONTINUOUS
 62
    7
 10
363.97969838735224
 20
103.76454533757391
 11
366.70227875580662
 21
106.48710096204604
  0
LINE
  8
_1-0_
  6
CONTINUOUS
 62
    7
 10
363.0043648384713
 20
104.20344172297298
 11
365.72694520692568
 21
106.9259973474451
  0
LINE
  8
_1-0_
  6
CONTINUOUS
 62
    7
 10
362.02905603357266
 20
104.64232573638091
 11
364.75161165804479
 21
107.36489373284418
  0
LINE
  8
_1-0_
  6
CONTINUOUS
 62
    7
 10
361.05374722867401
 20
105.08123449377112
 11
363.77630285314615
 21
107.80379011824326
  0
LINE
  8
_1-0_
  6
CONTINUOUS
 62
    7
 10
360.07838893581084
 20
105.5201308791702
 11
362.8009940482475
 21
108.24267413165119
  0
LINE
  8
_1-0_
  6
CONTINUOUS
 62
    7
 10
359.10308013091219
 20
105.95901489257812
 11
361.82566049936656
 21
108.68157051705026
  0
LINE
  8
_1-0_
  6
CONTINUOUS
 62
    7
 10
358.12777132601354
 20
106.3979112779772
 11
360.85032695048568
 21
109.12046690244934
  0
LINE
  8
_1-0_
  6
CONTINUOUS
 62
    7
 10
357.1524625211149
 20
106.83680766337628
 11
359.87501814558703
 21
109.5593632878484
  0
LINE
  8
_1-0_
  6
CONTINUOUS
 62
    7
 10
356.17710422825172
 20
107.27571642076647
 11
358.89965985272386
 21
109.99827204523861
  0
LINE
  8
_1-0_
  6
CONTINUOUS
 62
    7
 10
355.20179542335308
 20
107.71461280616555
 11
357.92435104782521
 21
110.43715605864654
  0
LINE
  8
_1-0_
  6
CONTINUOUS
 62
    7
 10
354.22646187447214
 20
108.15349681957349
 11
356.94901749894427
 21
110.87606481603675
  0
LINE
  8
_1-0_
  6
CONTINUOUS
 62
    7
 10
353.25115306957349
 20
108.59239320497255
 11
355.97370869404563
 21
111.31494882944469
  0
LINE
  8
_1-0_
  6
CONTINUOUS
 62
    7
 10
352.27581952069261
 20
109.03128959037163
 11
354.99837514516474
 21
111.75384521484375
  0
LINE
  8
_1-0_
  6
CONTINUOUS
 62
    7
 10
351.30051071579396
 20
109.4701859757707
 11
354.02306634026604
 21
112.19274160024283
  0
LINE
  8
_1-0_
  6
CONTINUOUS
 62
    7
 10
350.32520191089532
 20
109.90908236116977
 11
353.04773279138516
 21
112.6316379856419
  0
LINE
  8
_1-0_
  6
CONTINUOUS
 62
    7
 10
349.34986836201438
 20
110.34796637457771
 11
352.07242398648651
 21
113.07052199904983
  0
LINE
  8
_1-0_
  6
CONTINUOUS
 62
    7
 10
348.37453481313349
 20
110.78687513196792
 11
351.09709043760557
 21
113.50943075644004
  0
LINE
  8
_1-0_
  6
CONTINUOUS
 62
    7
 10
347.39922600823479
 20
111.22575914537585
 11
350.12178163270693
 21
113.94831476984798
  0
LINE
  8
_1-0_
  6
CONTINUOUS
 62
    7
 10
346.42386771537161
 20
111.66466790276606
 11
349.14644808382604
 21
114.38722352723818
  0
LINE
  8
_1-0_
  6
CONTINUOUS
 62
    7
 10
345.44858365445526
 20
112.103551916174
 11
348.1711392789274
 21
114.82610754064612
  0
LINE
  8
_1-0_
  6
CONTINUOUS
 62
    7
 10
344.47325010557432
 20
112.54244830157306
 11
347.19580573004646
 21
115.2650039260452
  0
LINE
  8
_1-0_
  6
CONTINUOUS
 62
    7
 10
343.49794130067568
 20
112.98134468697214
 11
346.22049692514781
 21
115.70390031144426
  0
LINE
  8
_1-0_
  6
CONTINUOUS
 62
    7
 10
342.5225830078125
 20
113.42025344436233
 11
345.24516337626693
 21
116.14279669684333
  0
LINE
  8
_1-0_
  6
CONTINUOUS
 62
    7
 10
341.54727420291385
 20
113.85913745777027
 11
344.26985457136828
 21
116.58169308224241
  0
LINE
  8
_1-0_
  6
CONTINUOUS
 62
    7
 10
340.57194065403297
 20
114.29803384316935
 11
343.29452102248734
 21
117.02058946764147
  0
LINE
  8
_1-0_
  6
CONTINUOUS
 62
    7
 10
339.59665659311656
 20
114.73691785657729
 11
342.3192122175887
 21
117.45947348104941
  0
LINE
  8
_1-0_
  6
CONTINUOUS
 62
    7
 10
338.62129830025339
 20
115.17582661396749
 11
341.34385392472552
 21
117.89838223843962
  0
LINE
  8
_1-0_
  6
CONTINUOUS
 62
    7
 10
337.64598949535474
 20
115.61472299936656
 11
340.36854511982688
 21
118.33727862383869
  0
LINE
  8
_1-0_
  6
CONTINUOUS
 62
    7
 10
336.67065594647386
 20
116.05360701277451
 11
339.39321157094594
 21
118.77616263724663
  0
LINE
  8
_1-0_
  6
CONTINUOUS
 62
    7
 10
335.69532239759292
 20
116.4925157701647
 11
338.41790276604729
 21
119.2150590226457
  0
LINE
  8
_1-0_
  6
CONTINUOUS
 62
    7
 10
334.72001359269427
 20
116.93139978357264
 11
337.44256921716641
 21
119.6539677800359
  0
LINE
  8
_1-0_
  6
CONTINUOUS
 62
    7
 10
333.74470478779563
 20
117.37030854096284
 11
336.46726041226776
 21
120.09285179344384
  0
LINE
  8
_1-0_
  6
CONTINUOUS
 62
    7
 10
332.76937123891469
 20
117.80919255437078
 11
335.49192686338682
 21
120.53174817884292
  0
LINE
  8
_1-0_
  6
CONTINUOUS
 62
    7
 10
331.7940376900338
 20
118.24808893976986
 11
334.51661805848818
 21
120.97064456424198
  0
LINE
  8
_1-0_
  6
CONTINUOUS
 62
    7
 10
330.81872888513516
 20
118.68698532516892
 11
333.54128450960729
 21
121.40954094964106
  0
LINE
  8
_1-0_
  6
CONTINUOUS
 62
    7
 10
329.84342008023651
 20
119.12586933857686
 11
332.56595096072635
 21
121.84843733504013
  0
LINE
  8
_1-0_
  6
CONTINUOUS
 62
    7
 10
328.86806178737334
 20
119.56477809596707
 11
331.59061741184547
 21
122.28733372043919
  0
LINE
  8
_1-0_
  6
CONTINUOUS
 62
    7
 10
327.89275298247469
 20
120.003662109375
 11
330.61530860694683
 21
122.72623010583827
  0
LINE
  8
_1-0_
  6
CONTINUOUS
 62
    7
 10
326.91744417757604
 20
120.44257086676521
 11
329.63999980204818
 21
123.16512649123734
  0
LINE
  8
_1-0_
  6
CONTINUOUS
 62
    7
 10
325.9421353726774
 20
120.88145488017315
 11
328.66466625316724
 21
123.60401050464527
  0
LINE
  8
_1-0_
  6
CONTINUOUS
 62
    7
 10
324.96677707981422
 20
121.32036363756335
 11
327.68935744826859
 21
124.04291926203548
  0
LINE
  8
_1-0_
  6
CONTINUOUS
 62
    7
 10
323.99146827491558
 20
121.75924765097129
 11
326.71404864336995
 21
124.48180327544343
  0
LINE
  8
_1-0_
  6
CONTINUOUS
 62
    7
 10
323.01615947001693
 20
122.19814403637037
 11
325.73869035050677
 21
124.92071203283362
  0
LINE
  8
_1-0_
  6
CONTINUOUS
 62
    7
 10
322.04082592113599
 20
122.63704042176943
 11
324.76338154560813
 21
125.35959604624156
  0
LINE
  8
_1-0_
  6
CONTINUOUS
 62
    7
 10
321.06549237225511
 20
123.0759368071685
 11
323.78804799672719
 21
125.79849243164062
  0
LINE
  8
_1-0_
  6
CONTINUOUS
 62
    7
 10
320.09018356735646
 20
123.51483319256758
 11
322.81273919182854
 21
126.2373888170397
  0
LINE
  8
_1-0_
  6
CONTINUOUS
 62
    7
 10
319.11487476245782
 20
123.95371720597551
 11
321.83740564294766
 21
126.67627283044764
  0
LINE
  8
_1-0_
  6
CONTINUOUS
 62
    7
 10
318.13951646959464
 20
124.39262596336572
 11
320.86209683804901
 21
127.11518158783784
  0
LINE
  8
_1-0_
  6
CONTINUOUS
 62
    7
 10
317.16420766469594
 20
124.83152234876479
 11
319.88676328916807
 21
127.55406560124578
  0
LINE
  8
_1-0_
  6
CONTINUOUS
 62
    7
 10
316.18889885979729
 20
125.27040636217272
 11
318.91145448426943
 21
127.99297435863599
  0
LINE
  8
_1-0_
  6
CONTINUOUS
 62
    7
 10
315.21354056693411
 20
125.7093027475718
 11
317.93612093538854
 21
128.43185837204393
  0
LINE
  8
_1-0_
  6
CONTINUOUS
 62
    7
 10
314.23825650601776
 20
126.14819913297087
 11
316.9608121304899
 21
128.870754757443
  0
LINE
  8
_1-0_
  6
CONTINUOUS
 62
    7
 10
313.26292295713682
 20
126.58709551836994
 11
315.98547858160896
 21
129.30965114284206
  0
LINE
  8
_1-0_
  6
CONTINUOUS
 62
    7
 10
312.28761415223818
 20
127.02597953177788
 11
315.01016977671031
 21
129.74854752824115
  0
LINE
  8
_1-0_
  6
CONTINUOUS
 62
    7
 10
311.31228060335729
 20
127.46488828916809
 11
314.03483622782943
 21
130.18744391364021
  0
LINE
  8
_1-0_
  6
CONTINUOUS
 62
    7
 10
310.33694705447635
 20
127.90377230257602
 11
313.05950267894849
 21
130.62634029903927
  0
LINE
  8
_1-0_
  6
CONTINUOUS
 62
    7
 10
309.36163824957771
 20
128.34268105996622
 11
312.08419387404984
 21
131.06523668443836
  0
LINE
  8
_1-0_
  6
CONTINUOUS
 62
    7
 10
308.38630470069683
 20
128.78156507337417
 11
311.10886032516896
 21
131.5041206978463
  0
LINE
  8
_1-0_
  6
CONTINUOUS
 62
    7
 10
307.41099589579818
 20
129.22046145877323
 11
310.13355152027026
 21
131.94301708324537
  0
LINE
  8
_1-0_
  6
CONTINUOUS
 62
    7
 10
306.43566234691724
 20
129.65935784417229
 11
309.15824271537161
 21
132.38191346864443
  0
LINE
  8
_1-0_
  6
CONTINUOUS
 62
    7
 10
305.46035354201859
 20
130.09825422957138
 11
308.18288442250844
 21
132.82082222603464
  0
LINE
  8
_1-0_
  6
CONTINUOUS
 62
    7
 10
304.48501999313771
 20
130.53715061497044
 11
307.20757561760979
 21
133.25970623944258
  0
LINE
  8
_1-0_
  6
CONTINUOUS
 62
    7
 10
303.50968644425677
 20
130.9760470003695
 11
306.23224206872891
 21
133.69860262484164
  0
LINE
  8
_1-0_
  6
CONTINUOUS
 62
    7
 10
302.53437763935813
 20
131.41494338576859
 11
305.25693326383026
 21
134.13749901024073
  0
LINE
  8
_1-0_
  6
CONTINUOUS
 62
    7
 10
301.55906883445948
 20
131.85383977116766
 11
304.28159971494932
 21
134.57639539563979
  0
LINE
  8
_1-0_
  6
CONTINUOUS
 62
    7
 10
300.5837105415963
 20
132.29273615656672
 11
303.30626616606844
 21
135.01529178103885
  0
LINE
  8
_1-0_
  6
CONTINUOUS
 62
    7
 10
299.60840173669766
 20
132.73162016997466
 11
302.33095736116979
 21
135.45418816643792
  0
LINE
  8
_1-0_
  6
CONTINUOUS
 62
    7
 10
298.63309293179901
 20
133.17052892736487
 11
301.35564855627115
 21
135.89308455183701
  0
LINE
  8
_1-0_
  6
CONTINUOUS
 62
    7
 10
297.65775938291807
 20
133.60941294077281
 11
300.38031500739021
 21
136.33198093723607
  0
LINE
  8
_1-0_
  6
CONTINUOUS
 62
    7
 10
296.68242583403719
 20
134.04830932617187
 11
299.40498145850933
 21
136.77087732263513
  0
LINE
  8
_1-0_
  6
CONTINUOUS
 62
    7
 10
295.70711702913854
 20
134.48720571157097
 11
298.42967265361068
 21
137.20977370803422
  0
LINE
  8
_1-0_
  6
CONTINUOUS
 62
    7
 10
294.7318082242399
 20
134.92610209697003
 11
297.45433910472974
 21
137.64867009343328
  0
LINE
  8
_1-0_
  6
CONTINUOUS
 62
    7
 10
293.75647467535896
 20
135.36499848236909
 11
296.47903029983109
 21
138.08755410684122
  0
LINE
  8
_1-0_
  6
CONTINUOUS
 62
    7
 10
292.78114112647808
 20
135.80389486776818
 11
295.50369675095021
 21
138.52645049224029
  0
LINE
  8
_1-0_
  6
CONTINUOUS
 62
    7
 10
291.80583232157943
 20
136.24279125316724
 11
294.52836320206927
 21
138.96534687763938
  0
LINE
  8
_1-0_
  6
CONTINUOUS
 62
    7
 10
290.83049877269849
 20
136.6816876385663
 11
293.55305439717063
 21
139.40424326303844
  0
LINE
  8
_1-0_
  6
CONTINUOUS
 62
    7
 10
289.85516522381761
 20
137.12058402396539
 11
292.57772084828969
 21
139.8431396484375
  0
LINE
  8
_1-0_
  6
CONTINUOUS
 62
    7
 10
288.87985641891896
 20
137.55946803737331
 11
291.6023872994088
 21
140.28203603383659
  0
LINE
  8
_1-0_
  6
CONTINUOUS
 62
    7
 10
287.90452287003802
 20
137.99837679476352
 11
290.62707849451016
 21
140.72093241923565
  0
LINE
  8
_1-0_
  6
CONTINUOUS
 62
    7
 10
286.92921406513938
 20
138.43726080817146
 11
289.65176968961151
 21
141.15982880463471
  0
LINE
  8
_1-0_
  6
CONTINUOUS
 62
    7
 10
285.95388051625844
 20
138.87615719357052
 11
288.67643614073057
 21
141.5987251900338
  0
LINE
  8
_1-0_
  6
CONTINUOUS
 62
    7
 10
284.97857171135979
 20
139.31505357896961
 11
287.70110259184969
 21
142.03760920344172
  0
LINE
  8
_1-0_
  6
CONTINUOUS
 62
    7
 10
284.00323816247891
 20
139.75394996436867
 11
286.72579378695104
 21
142.47650558884081
  0
LINE
  8
_1-0_
  6
CONTINUOUS
 62
    7
 10
283.02792935758026
 20
140.19284634976773
 11
285.7504849820524
 21
142.91540197423987
  0
LINE
  8
_1-0_
  6
CONTINUOUS
 62
    7
 10
282.05259580869932
 20
140.63173036317568
 11
284.77515143317146
 21
143.35429835963893
  0
LINE
  8
_1-0_
  6
CONTINUOUS
 62
    7
 10
281.07728700380068
 20
141.07062674857477
 11
283.79986737225511
 21
143.79318237304687
  0
LINE
  8
_1-0_
  6
CONTINUOUS
 62
    7
 10
280.10197819890203
 20
141.50952313397383
 11
282.82453382337417
 21
144.23207875844597
  0
LINE
  8
_1-0_
  6
CONTINUOUS
 62
    7
 10
279.12666939400339
 20
141.94840714738177
 11
281.84920027449328
 21
144.67097514384503
  0
LINE
  8
_1-0_
  6
CONTINUOUS
 62
    7
 10
278.1513358451225
 20
142.38730353278083
 11
280.87389146959458
 21
145.10985915725297
  0
LINE
  8
_1-0_
  6
CONTINUOUS
 62
    7
 10
277.17602704022386
 20
142.8261999181799
 11
279.89858266469594
 21
145.54875554265203
  0
LINE
  8
_1-0_
  6
CONTINUOUS
 62
    7
 10
276.20071823532521
 20
143.26508393158784
 11
278.92327385979729
 21
145.98765192805109
  0
LINE
  8
_1-0_
  6
CONTINUOUS
 62
    7
 10
275.22538468644427
 20
143.70399268897805
 11
277.94796505489865
 21
146.42654831345018
  0
LINE
  8
_1-0_
  6
CONTINUOUS
 62
    7
 10
274.25007588154563
 20
144.14287670238599
 11
276.97265625
 21
146.86543232685813
  0
LINE
  8
_1-0_
  6
CONTINUOUS
 62
    7
 10
273.27476707664698
 20
144.58176071579393
 11
275.99732270111912
 21
147.30431634026607
  0
LINE
  8
_1-0_
  6
CONTINUOUS
 62
    7
 10
272.29945827174834
 20
145.020657101193
 11
275.02198915223818
 21
147.74321272566513
  0
LINE
  8
_1-0_
  6
CONTINUOUS
 62
    7
 10
271.3241247228674
 20
145.45955348659206
 11
274.04668034733953
 21
148.18210911106419
  0
LINE
  8
_1-0_
  6
CONTINUOUS
 62
    7
 10
270.34879117398651
 20
145.89844987199115
 11
273.07137154244089
 21
148.62100549646325
  0
LINE
  8
_1-0_
  6
CONTINUOUS
 62
    7
 10
269.37348236908787
 20
146.33734625739021
 11
272.09606273754224
 21
149.0598895098712
  0
LINE
  8
_1-0_
  6
CONTINUOUS
 62
    7
 10
268.39817356418922
 20
146.77623027079815
 11
271.12075393264359
 21
149.49878589527029
  0
LINE
  8
_1-0_
  6
CONTINUOUS
 62
    7
 10
267.42286475929058
 20
147.21512665619721
 11
270.14542038376271
 21
149.93768228066935
  0
LINE
  8
_1-0_
  6
CONTINUOUS
 62
    7
 10
266.44755595439193
 20
147.6540230415963
 11
269.17008683488177
 21
150.37657866606841
  0
LINE
  8
_1-0_
  6
CONTINUOUS
 62
    7
 10
265.47222240551099
 20
148.09290705500422
 11
268.19477802998313
 21
150.81546267947635
  0
LINE
  8
_1-0_
  6
CONTINUOUS
 62
    7
 10
264.49688885663011
 20
148.53180344040331
 11
267.21946922508448
 21
151.25435906487544
  0
LINE
  8
_1-0_
  6
CONTINUOUS
 62
    7
 10
263.52158005173146
 20
148.97069982580237
 11
266.24416042018584
 21
151.69325545027451
  0
LINE
  8
_1-0_
  6
CONTINUOUS
 62
    7
 10
262.54627124683276
 20
149.40958383921031
 11
265.2688268713049
 21
152.13213946368245
  0
LINE
  8
_1-0_
  6
CONTINUOUS
 62
    7
 10
261.57096244193411
 20
149.84848022460937
 11
264.29351806640625
 21
152.57103584908151
  0
LINE
  8
_1-0_
  6
CONTINUOUS
 62
    7
 10
260.59565363703547
 20
150.28736423801732
 11
263.3182092615076
 21
153.00993223448057
  0
LINE
  8
_1-0_
  6
CONTINUOUS
 62
    7
 10
259.62032008815459
 20
150.72627299540753
 11
262.34287571262672
 21
153.44881624788852
  0
LINE
  8
_1-0_
  6
CONTINUOUS
 62
    7
 10
258.64498653927365
 20
151.16515700881547
 11
261.36756690772808
 21
153.88771263328761
  0
LINE
  8
_1-0_
  6
CONTINUOUS
 62
    7
 10
257.66970247835729
 20
151.60405339421453
 11
260.39225810282943
 21
154.32660901868667
  0
LINE
  8
_1-0_
  6
CONTINUOUS
 62
    7
 10
256.69436892947635
 20
152.04294977961359
 11
259.41692455394849
 21
154.76550540408573
  0
LINE
  8
_1-0_
  6
CONTINUOUS
 62
    7
 10
255.71906012457771
 20
152.48183379302154
 11
258.44161574904984
 21
155.20438941749367
  0
LINE
  8
_1-0_
  6
CONTINUOUS
 62
    7
 10
254.74375131967906
 20
152.92073017842063
 11
257.46628220016891
 21
155.64328580289273
  0
LINE
  8
_1-0_
  6
CONTINUOUS
 62
    7
 10
253.76841777079815
 20
153.35961419182857
 11
256.49097339527026
 21
156.08216981630068
  0
LINE
  8
_1-0_
  6
CONTINUOUS
 62
    7
 10
252.79310896589951
 20
153.79851057722763
 11
255.51566459037164
 21
156.52107857369089
  0
LINE
  8
_1-0_
  6
CONTINUOUS
 62
    7
 10
251.81777541701859
 20
154.23740696262669
 11
254.540355785473
 21
156.95996258709883
  0
LINE
  8
_1-0_
  6
CONTINUOUS
 62
    7
 10
250.84246661211995
 20
154.67630334802575
 11
253.56504698057435
 21
157.39884660050677
  0
LINE
  8
_1-0_
  6
CONTINUOUS
 62
    7
 10
249.8671578072213
 20
155.1151873614337
 11
252.58971343169344
 21
157.83775535789698
  0
LINE
  8
_1-0_
  6
CONTINUOUS
 62
    7
 10
248.89184900232266
 20
155.55408374683279
 11
251.6143798828125
 21
158.2766393713049
  0
LINE
  8
_1-0_
  6
CONTINUOUS
 62
    7
 10
247.91651545344175
 20
155.99298013223185
 11
250.63907107791385
 21
158.71553575670399
  0
LINE
  8
_1-0_
  6
CONTINUOUS
 62
    7
 10
246.9412066485431
 20
156.43187651763091
 11
249.66376227301521
 21
159.15443214210305
  0
LINE
  8
_1-0_
  6
CONTINUOUS
 62
    7
 10
245.96587309966219
 20
156.87076053103885
 11
248.68845346811656
 21
159.59331615551099
  0
LINE
  8
_1-0_
  6
CONTINUOUS
 62
    7
 10
244.99056429476352
 20
157.30965691643794
 11
247.71314466321792
 21
160.03221254091005
  0
LINE
  8
_1-0_
  6
CONTINUOUS
 62
    7
 10
244.01525548986487
 20
157.74854092984586
 11
246.73781111433701
 21
160.47110892630914
  0
LINE
  8
_1-0_
  6
CONTINUOUS
 62
    7
 10
243.03994668496622
 20
158.18743731524495
 11
245.76247756545609
 21
160.90999293971706
  0
LINE
  8
_1-0_
  6
CONTINUOUS
 62
    7
 10
242.06463788006758
 20
158.62633370064401
 11
244.78716876055745
 21
161.34888932511615
  0
LINE
  8
_1-0_
  6
CONTINUOUS
 62
    7
 10
241.08930433118667
 20
159.06523008604307
 11
243.8118599556588
 21
161.78778571051521
  0
LINE
  8
_1-0_
  6
CONTINUOUS
 62
    7
 10
240.11397078230576
 20
159.50412647144216
 11
242.83655115076016
 21
162.22666972392315
  0
LINE
  8
_1-0_
  6
CONTINUOUS
 62
    7
 10
239.13866197740711
 20
159.94301048485011
 11
241.86124234586151
 21
162.66556610932221
  0
LINE
  8
_1-0_
  6
CONTINUOUS
 62
    7
 10
238.16335317250847
 20
160.38189449825802
 11
240.8859087969806
 21
163.1044624947213
  0
LINE
  8
_1-0_
  6
CONTINUOUS
 62
    7
 10
237.18804436760982
 20
160.82079088365711
 11
239.91059999208193
 21
163.54334650812922
  0
LINE
  8
_1-0_
  6
CONTINUOUS
 62
    7
 10
236.21273556271117
 20
161.25968726905617
 11
238.93526644320102
 21
163.98225526551943
  0
LINE
  8
_1-0_
  6
CONTINUOUS
 62
    7
 10
235.23740201383026
 20
161.69858365445523
 11
237.95995763830237
 21
164.42113927892737
  0
LINE
  8
_1-0_
  6
CONTINUOUS
 62
    7
 10
234.26206846494935
 20
162.13748003985432
 11
236.98464883340372
 21
164.86003566432643
  0
LINE
  8
_1-0_
  6
CONTINUOUS
 62
    7
 10
233.28675966005068
 20
162.57637642525339
 11
236.00931528452281
 21
165.29893204972552
  0
LINE
  8
_1-0_
  6
CONTINUOUS
 62
    7
 10
232.31145085515203
 20
163.01526043866133
 11
235.0339817356419
 21
165.73781606313347
  0
LINE
  8
_1-0_
  6
CONTINUOUS
 62
    7
 10
231.33611730627112
 20
163.45416919605154
 11
234.05867293074326
 21
166.17672482052365
  0
LINE
  8
_1-0_
  6
CONTINUOUS
 62
    7
 10
230.36078375739021
 20
163.89305320945948
 11
233.08333938186234
 21
166.61560883393159
  0
LINE
  8
_1-0_
  6
CONTINUOUS
 62
    7
 10
229.38547495249156
 20
164.3319372228674
 11
232.10805532094597
 21
167.05449284733953
  0
LINE
  8
_1-0_
  6
CONTINUOUS
 62
    7
 10
228.41016614759292
 20
164.77083360826649
 11
231.13272177206505
 21
167.49340160472974
  0
LINE
  8
_1-0_
  6
CONTINUOUS
 62
    7
 10
227.43485734269427
 20
165.20972999366555
 11
230.15741296716641
 21
167.93228561813768
  0
LINE
  8
_1-0_
  6
CONTINUOUS
 62
    7
 10
226.45954853779563
 20
165.64862637906461
 11
229.1820794182855
 21
168.37116963154563
  0
LINE
  8
_1-0_
  6
CONTINUOUS
 62
    7
 10
225.48421498891472
 20
166.0875227644637
 11
228.20674586940459
 21
168.81007838893581
  0
LINE
  8
_1-0_
  6
CONTINUOUS
 62
    7
 10
224.5088814400338
 20
166.52641914986276
 11
227.23143706450591
 21
169.24896240234375
  0
LINE
  8
_1-0_
  6
CONTINUOUS
 62
    7
 10
223.53357263513516
 20
166.9653031632707
 11
226.256103515625
 21
169.68787115973396
  0
LINE
  8
_1-0_
  6
CONTINUOUS
 62
    7
 10
222.55823908625425
 20
167.40419954866977
 11
225.28079471072635
 21
170.1267551731419
  0
LINE
  8
_1-0_
  6
CONTINUOUS
 62
    7
 10
221.58290553737334
 20
167.84309593406886
 11
224.30548590582771
 21
170.56563918654984
  0
LINE
  8
_1-0_
  6
CONTINUOUS
 62
    7
 10
220.60759673247466
 20
168.28199231946792
 11
223.3301523569468
 21
171.00454794394005
  0
LINE
  8
_1-0_
  6
CONTINUOUS
 62
    7
 10
219.63228792757602
 20
168.72088870486698
 11
222.35481880806589
 21
171.44344432933912
  0
LINE
  8
_1-0_
  6
CONTINUOUS
 62
    7
 10
218.6569543786951
 20
169.15978509026607
 11
221.37951000316724
 21
171.88234071473818
  0
LINE
  8
_1-0_
  6
CONTINUOUS
 62
    7
 10
217.68164557379646
 20
169.59866910367398
 11
220.40420119826859
 21
172.32122472814612
  0
LINE
  8
_1-0_
  6
CONTINUOUS
 62
    7
 10
216.70631202491555
 20
170.03756548907307
 11
219.42889239336995
 21
172.76010874155406
  0
LINE
  8
_1-0_
  6
CONTINUOUS
 62
    7
 10
215.73102796399917
 20
170.47644950248102
 11
218.45355884448904
 21
173.19901749894427
  0
LINE
  8
_1-0_
  6
CONTINUOUS
 62
    7
 10
214.75569441511826
 20
170.91534588788008
 11
217.47825003959039
 21
173.63790151235222
  0
LINE
  8
_1-0_
  6
CONTINUOUS
 62
    7
 10
213.78038561021961
 20
171.35424227327914
 11
216.50294123469175
 21
174.07679789775128
  0
LINE
  8
_1-0_
  6
CONTINUOUS
 62
    7
 10
212.8050520613387
 20
171.79313865867823
 11
215.52760768581084
 21
174.51569428315034
  0
LINE
  8
_1-0_
  6
CONTINUOUS
 62
    7
 10
211.82971851245779
 20
172.23203504407729
 11
214.55229888091216
 21
174.95457829655828
  0
LINE
  8
_1-0_
  6
CONTINUOUS
 62
    7
 10
210.85440970755914
 20
172.67093142947635
 11
213.57694058804898
 21
175.39348705394849
  0
LINE
  8
_1-0_
  6
CONTINUOUS
 62
    7
 10
209.87907615867823
 20
173.10982781487544
 11
212.60163178315034
 21
175.83237106735643
  0
LINE
  8
_1-0_
  6
CONTINUOUS
 62
    7
 10
208.90376735377959
 20
173.54872420027451
 11
211.62632297825169
 21
176.2712674527555
  0
LINE
  8
_1-0_
  6
CONTINUOUS
 62
    7
 10
207.92843380489867
 20
173.98762058567357
 11
210.65096468538852
 21
176.7101762101457
  0
LINE
  8
_1-0_
  6
CONTINUOUS
 62
    7
 10
206.953125
 20
174.42650459908151
 11
209.67565588048987
 21
177.14907259554477
  0
LINE
  8
_1-0_
  6
CONTINUOUS
 62
    7
 10
205.97779145111909
 20
174.86540098448057
 11
208.70034707559122
 21
177.58795660895271
  0
LINE
  8
_1-0_
  6
CONTINUOUS
 62
    7
 10
205.00248264622044
 20
175.30429736987966
 11
207.72503827069258
 21
178.02685299435177
  0
LINE
  8
_1-0_
  6
CONTINUOUS
 62
    7
 10
203.54091747387037
 20
175.25694975981841
 11
206.74970472181167
 21
178.46574937975086
  0
LINE
  8
_1-0_
  6
CONTINUOUS
 62
    7
 10
200.96969604492188
 20
174.09989640519427
 11
205.77443303288641
 21
178.90462102116766
  0
LINE
  8
_1-0_
  6
CONTINUOUS
 62
    7
 10
198.39836326805323
 20
172.94280593459672
 11
204.7990994840055
 21
179.34351740656675
  0
LINE
  8
_1-0_
  6
CONTINUOUS
 62
    7
 10
195.82706760715794
 20
171.78571546399917
 11
203.00472775021117
 21
178.96337560705237
  0
LINE
  8
_1-0_
  6
CONTINUOUS
 62
    7
 10
193.25575957427154
 20
170.62863736539273
 11
200.43340734533362
 21
177.80628513645482
  0
LINE
  8
_1-0_
  6
CONTINUOUS
 62
    7
 10
190.68446391337628
 20
169.47155926678633
 11
197.86211168443836
 21
176.64919466585727
  0
LINE
  8
_1-0_
  6
CONTINUOUS
 62
    7
 10
188.11316825248102
 20
168.31445642419766
 11
195.29080365155195
 21
175.49210419525971
  0
LINE
  8
_1-0_
  6
CONTINUOUS
 62
    7
 10
185.54187259158573
 20
167.15737832559122
 11
192.71950799065669
 21
174.33502609665331
  0
LINE
  8
_1-0_
  6
CONTINUOUS
 62
    7
 10
182.9705521867082
 20
166.00028785499367
 11
190.14818758577914
 21
173.17793562605576
  0
LINE
  8
_1-0_
  6
CONTINUOUS
 62
    7
 10
180.3992441538218
 20
164.84319738439612
 11
187.57689192488388
 21
172.0208451554582
  0
LINE
  8
_1-0_
  6
CONTINUOUS
 62
    7
 10
177.8279732369088
 20
163.68611928578972
 11
185.00560863597974
 21
170.86376705685177
  0
LINE
  8
_1-0_
  6
CONTINUOUS
 62
    7
 10
175.25664046004013
 20
162.52902881519216
 11
182.43428823110222
 21
169.70667658625422
  0
LINE
  8
_1-0_
  6
CONTINUOUS
 62
    7
 10
172.68536954312711
 20
161.37196308857688
 11
179.86301731418919
 21
168.54959848764781
  0
LINE
  8
_1-0_
  6
CONTINUOUS
 62
    7
 10
170.11404913824958
 20
160.21486024598818
 11
177.29168453732052
 21
167.39250801705026
  0
LINE
  8
_1-0_
  6
CONTINUOUS
 62
    7
 10
167.54280296531886
 20
159.05780689136404
 11
174.72045073638091
 21
166.23544229043497
  0
LINE
  8
_1-0_
  6
CONTINUOUS
 62
    7
 10
164.97149493243245
 20
157.90070404877534
 11
172.14913033150339
 21
165.07835181983742
  0
LINE
  8
_1-0_
  6
CONTINUOUS
 62
    7
 10
162.40019927153716
 20
156.74362595016893
 11
169.57785941459039
 21
163.92127372123102
  0
LINE
  8
_1-0_
  6
CONTINUOUS
 62
    7
 10
159.82889123865078
 20
155.5865478515625
 11
167.00653900971284
 21
162.76418325063347
  0
LINE
  8
_1-0_
  6
CONTINUOUS
 62
    7
 10
157.2575955777555
 20
154.42944500897383
 11
164.43523097682643
 21
161.60710515202703
  0
LINE
  8
_1-0_
  6
CONTINUOUS
 62
    7
 10
154.68627517287797
 20
153.2723669103674
 11
161.86393531593117
 21
160.45001468142948
  0
LINE
  8
_1-0_
  6
CONTINUOUS
 62
    7
 10
152.11499188397383
 20
152.11528881176099
 11
159.29263965503591
 21
159.29292421083193
  0
LINE
  8
_1-0_
  6
CONTINUOUS
 62
    7
 10
149.54369622307857
 20
150.95821071315456
 11
156.72133162214951
 21
158.13584611222552
  0
LINE
  8
_1-0_
  6
CONTINUOUS
 62
    7
 10
146.97237581820102
 20
149.80110787056589
 11
154.15001121727198
 21
156.97875564162797
  0
LINE
  8
_1-0_
  6
CONTINUOUS
 62
    7
 10
144.40108015730576
 20
148.64401739996833
 11
151.57874030035896
 21
155.82167754302154
  0
LINE
  8
_1-0_
  6
CONTINUOUS
 62
    7
 10
141.82978449641047
 20
147.48693930136193
 11
149.00741989548143
 21
154.66458707242398
  0
LINE
  8
_1-0_
  6
CONTINUOUS
 62
    7
 10
139.25848883551521
 20
146.32984883076438
 11
146.43612423458615
 21
153.50749660182643
  0
LINE
  8
_1-0_
  6
CONTINUOUS
 62
    7
 10
136.68721791860222
 20
145.17278310414909
 11
143.86485331767315
 21
152.35043087521115
  0
LINE
  8
_1-0_
  6
CONTINUOUS
 62
    7
 10
134.11593462969807
 20
144.01570500554266
 11
141.29358240076013
 21
151.19335277660474
  0
LINE
  8
_1-0_
  6
CONTINUOUS
 62
    7
 10
131.54461422482052
 20
142.8586145349451
 11
138.7222619958826
 21
150.03626230600719
  0
LINE
  8
_1-0_
  6
CONTINUOUS
 62
    7
 10
128.97331856392526
 20
141.7015364363387
 11
136.15096633498734
 21
148.87917183540964
  0
LINE
  8
_1-0_
  6
CONTINUOUS
 62
    7
 10
126.40201053103885
 20
140.54444596574115
 11
133.57967067409206
 21
147.72209373680323
  0
LINE
  8
_1-0_
  6
CONTINUOUS
 62
    7
 10
123.83071487014359
 20
139.38735549514359
 11
131.00836264120568
 21
146.56500326620568
  0
LINE
  8
_1-0_
  6
CONTINUOUS
 62
    7
 10
121.25940683725719
 20
138.23026502454604
 11
128.43705460831927
 21
145.40791279560813
  0
LINE
  8
_1-0_
  6
CONTINUOUS
 62
    7
 10
118.68812354835305
 20
137.07318692593961
 11
125.865758947424
 21
144.25083469700169
  0
LINE
  8
_1-0_
  6
CONTINUOUS
 62
    7
 10
116.11682788745777
 20
135.9161088273332
 11
123.29446328652872
 21
143.09374422640414
  0
LINE
  8
_1-0_
  6
CONTINUOUS
 62
    7
 10
113.54550748258025
 20
134.75901835673565
 11
120.72314288165119
 21
141.93665375580659
  0
LINE
  8
_1-0_
  6
CONTINUOUS
 62
    7
 10
110.97421182168497
 20
133.6019278861381
 11
118.15185959274704
 21
140.77957565720018
  0
LINE
  8
_1-0_
  6
CONTINUOUS
 62
    7
 10
108.40290378879857
 20
132.44483741554055
 11
115.58055155986065
 21
139.62248518660263
  0
LINE
  8
_1-0_
  6
CONTINUOUS
 62
    7
 10
105.83160812790329
 20
131.28775931693414
 11
113.00925589896538
 21
138.4654070879962
  0
LINE
  8
_1-0_
  6
CONTINUOUS
 62
    7
 10
103.26033721099029
 20
130.13068121832771
 11
110.43797261006124
 21
137.30832898938979
  0
LINE
  8
_1-0_
  6
CONTINUOUS
 62
    7
 10
100.68904155009503
 20
128.9736031197213
 11
107.86670169314823
 21
136.15125089078336
  0
LINE
  8
_1-0_
  6
CONTINUOUS
 62
    7
 10
98.117745889199753
 20
127.81651264912374
 11
105.29539366026184
 21
134.99416042018581
  0
LINE
  8
_1-0_
  6
CONTINUOUS
 62
    7
 10
95.546450228304479
 20
126.65943455051732
 11
102.72408562737543
 21
133.8370823215794
  0
LINE
  8
_1-0_
  6
CONTINUOUS
 62
    7
 10
92.975129823426954
 20
125.50234407991977
 11
100.15277759448902
 21
132.67999185098185
  0
LINE
  8
_1-0_
  6
CONTINUOUS
 62
    7
 10
90.403846534522813
 20
124.34526598131335
 11
97.58148193359375
 21
131.5229013803843
  0
LINE
  8
_1-0_
  6
CONTINUOUS
 62
    7
 10
87.832538501636407
 20
123.18817551071579
 11
95.01018627269849
 21
130.36582328177789
  0
LINE
  8
_1-0_
  6
CONTINUOUS
 62
    7
 10
85.261242840741133
 20
122.03109741210937
 11
92.438890611803217
 21
129.20874518317146
  0
LINE
  8
_1-0_
  6
CONTINUOUS
 62
    7
 10
82.689947179845859
 20
120.87400694151184
 11
89.86758257891681
 21
128.05165471257391
  0
LINE
  8
_1-0_
  6
CONTINUOUS
 62
    7
 10
80.118639146959481
 20
119.71691647091428
 11
87.296286918021536
 21
126.89456424197635
  0
LINE
  8
_1-0_
  6
CONTINUOUS
 62
    7
 10
77.547331114073074
 20
118.55983837230787
 11
84.724991257126277
 21
125.73748614336994
  0
LINE
  8
_1-0_
  6
CONTINUOUS
 62
    7
 10
74.976047825168905
 20
117.40274790171031
 11
82.15368322423987
 21
124.58038330078125
  0
LINE
  8
_1-0_
  6
CONTINUOUS
 62
    7
 10
72.404752164273646
 20
116.24566980310389
 11
79.582399935335729
 21
123.42330520217484
  0
LINE
  8
_1-0_
  6
CONTINUOUS
 62
    7
 10
69.833456503378386
 20
115.08859170449747
 11
77.01110427444047
 21
122.26622710356843
  0
LINE
  8
_1-0_
  6
CONTINUOUS
 62
    7
 10
67.262167028478672
 20
113.93150123389992
 11
74.43980861354521
 21
121.10914900496201
  0
LINE
  8
_1-0_
  6
CONTINUOUS
 62
    7
 10
64.690865181587839
 20
112.7744231352935
 11
71.868512952649922
 21
119.95207090635559
  0
LINE
  8
_1-0_
  6
CONTINUOUS
 62
    7
 10
62.119557148701432
 20
111.61733266469595
 11
69.297217291754635
 21
118.79498043575803
  0
LINE
  8
_1-0_
  6
CONTINUOUS
 62
    7
 10
59.548261487806172
 20
110.46025456608953
 11
66.725909258868228
 21
117.63788996516048
  0
LINE
  8
_1-0_
  6
CONTINUOUS
 62
    7
 10
56.976965826910885
 20
109.30316409549198
 11
64.154613597972968
 21
116.48081186655406
  0
LINE
  8
_1-0_
  6
CONTINUOUS
 62
    7
 10
54.405657794024506
 20
108.14607362489443
 11
61.583317937077709
 21
115.32373376794764
  0
LINE
  8
_1-0_
  6
CONTINUOUS
 62
    7
 10
51.834362133129218
 20
106.98899552628801
 11
59.012009904191302
 21
114.16663092535896
  0
LINE
  8
_1-0_
  6
CONTINUOUS
 62
    7
 10
49.263066472233959
 20
105.83190505569046
 11
56.440714243296043
 21
113.00955282675254
  0
LINE
  8
_1-0_
  6
CONTINUOUS
 62
    7
 10
46.691764625343126
 20
104.67482695708404
 11
53.869418582400755
 21
111.85247472814612
  0
LINE
  8
_1-0_
  6
CONTINUOUS
 62
    7
 10
44.120465871450051
 20
103.5177364864865
 11
51.298122921505495
 21
110.6953966295397
  0
LINE
  8
_1-0_
  6
CONTINUOUS
 62
    7
 10
41.549176396550365
 20
102.36065838788008
 11
48.726827260610207
 21
109.53830615894215
  0
LINE
  8
_1-0_
  6
CONTINUOUS
 62
    7
 10
38.977871456661745
 20
101.20356791728253
 11
46.155519227723829
 21
108.3812156883446
  0
LINE
  8
_1-0_
  6
CONTINUOUS
 62
    7
 10
36.406575795766457
 20
100.04648981867611
 11
43.584235938819688
 21
107.22413758973818
  0
LINE
  8
_1-0_
  6
CONTINUOUS
 62
    7
 10
33.835286320866771
 20
98.889405534074115
 11
41.012940277924429
 21
106.06705949113176
  0
LINE
  8
_1-0_
  6
CONTINUOUS
 62
    7
 10
31.263981380978151
 20
97.732321249472136
 11
38.441632245038022
 21
104.90996902053421
  0
LINE
  8
_1-0_
  6
CONTINUOUS
 62
    7
 10
28.692682627085105
 20
96.575236964870143
 11
35.870336584142734
 21
103.75288473593223
  0
LINE
  8
_1-0_
  6
CONTINUOUS
 62
    7
 10
26.121380780194272
 20
95.418146494272605
 11
33.299028551256328
 21
102.59579426533467
  0
LINE
  8
_1-0_
  6
CONTINUOUS
 62
    7
 10
24.25027177140521
 20
94.961248861776824
 11
30.727732890361068
 21
101.4387099807327
  0
LINE
  8
_1-0_
  6
CONTINUOUS
 62
    7
 10
23.811375386006119
 20
95.936570038666602
 11
28.156424857474661
 21
100.2816256961307
  0
LINE
  8
_1-0_
  6
CONTINUOUS
 62
    7
 10
23.372480547105937
 20
96.911891215556381
 11
25.585129196579402
 21
99.124541411528725
  0
LINE
  8
_1-0_
  6
CONTINUOUS
 62
    7
 10
22.933588801203541
 20
97.8872062064506
 11
23.013845907675261
 21
97.967463312922305
  0
LINE
  8
_1-1_
  6
CONTINUOUS
 62
    7
 10
203.72431987040753
 20
186.33132934570312
 11
203.72431987040753
 21
181.26105231207771
  0
LINE
  8
_1-1_
  6
CONTINUOUS
 62
    7
 10
204.92432877824115
 20
186.33132934570312
 11
204.92432877824115
 21
181.26103994008659
  0
LINE
  8
_1-0_
  6
CONTINUOUS
 62
    7
 10
187.4484582849451
 20
187.13086927259292
 11
189.84857507654141
 21
182.14600846574115
  0
LINE
  8
_1-0_
  6
CONTINUOUS
 62
    7
 10
184.92056356894005
 20
185.87189545502534
 11
184.43335455817146
 21
180.37979538376268
  0
LINE
  8
_1-0_
  6
CONTINUOUS
 62
    7
 10
184.43774661502323
 20
180.42925860430745
 11
184.47395943306589
 21
180.39304578626479
  0
LINE
  8
_1-0_
  6
CONTINUOUS
 62
    7
 10
184.5068813014675
 20
181.20864455764359
 11
185.11380169842695
 21
180.60172416068414
  0
LINE
  8
_1-0_
  6
CONTINUOUS
 62
    7
 10
184.57601598791175
 20
181.98803051097974
 11
185.75363159179687
 21
180.81041490709461
  0
LINE
  8
_1-0_
  6
CONTINUOUS
 62
    7
 10
184.64516304634714
 20
182.7673793483425
 11
186.39344911317568
 21
181.01909328151393
  0
LINE
  8
_1-0_
  6
CONTINUOUS
 62
    7
 10
184.71429773279141
 20
183.54676530167865
 11
187.03327900654563
 21
181.22778402792443
  0
LINE
  8
_1-0_
  6
CONTINUOUS
 62
    7
 10
184.78344479122677
 20
184.32613888302365
 11
187.67310889991555
 21
181.4364747743349
  0
LINE
  8
_1-0_
  6
CONTINUOUS
 62
    7
 10
184.85257947767104
 20
185.10552483635982
 11
188.3129387932855
 21
181.64516552074537
  0
LINE
  8
_1-0_
  6
CONTINUOUS
 62
    7
 10
184.93001577016472
 20
185.87660918364654
 11
188.95278105864654
 21
181.85384389516472
  0
LINE
  8
_1-0_
  6
CONTINUOUS
 62
    7
 10
185.49644264014992
 20
186.15870295344175
 11
189.59261095201649
 21
182.06253464157518
  0
LINE
  8
_1-0_
  6
CONTINUOUS
 62
    7
 10
186.06285713814401
 20
186.44079672323693
 11
189.37587841137037
 21
183.12777545001057
  0
LINE
  8
_1-0_
  6
CONTINUOUS
 62
    7
 10
186.6292716361381
 20
186.72289049303211
 11
188.58796815614443
 21
184.76419397302578
  0
LINE
  8
_1-0_
  6
CONTINUOUS
 62
    7
 10
187.19569850612334
 20
187.00498426282729
 11
187.80005790091852
 21
186.40062486803211
  0
LINE
  8
_1-0_
  6
CONTINUOUS
 62
    7
 10
189.75092295053844
 20
182.11417533255914
 11
189.82719627586573
 21
182.19043628589529
  0
LINE
  8
_1-0_
  6
CONTINUOUS
 62
    7
 10
188.49167694916596
 20
181.70344997096706
 11
189.55141222154774
 21
182.76319761533995
  0
LINE
  8
_1-0_
  6
CONTINUOUS
 62
    7
 10
187.23244331978464
 20
181.29274935335727
 11
189.27564053922086
 21
183.33594657279352
  0
LINE
  8
_1-0_
  6
CONTINUOUS
 62
    7
 10
185.97319731841216
 20
180.88202399176521
 11
188.99986885689401
 21
183.90870790223818
  0
LINE
  8
_1-0_
  6
CONTINUOUS
 62
    7
 10
184.71396368903083
 20
180.47132337415542
 11
188.72410954655828
 21
184.48145685969175
  0
LINE
  8
_1-0_
  6
CONTINUOUS
 62
    7
 10
184.49755282015414
 20
181.10343314505914
 11
188.44832549224029
 21
185.05421818913641
  0
LINE
  8
_1-0_
  6
CONTINUOUS
 62
    7
 10
184.58014823294977
 20
182.03456156962628
 11
188.17255380991344
 21
185.62696714658995
  0
LINE
  8
_1-0_
  6
CONTINUOUS
 62
    7
 10
184.66275601773648
 20
182.96568999419341
 11
187.89678212758659
 21
186.19972847603464
  0
LINE
  8
_1-0_
  6
CONTINUOUS
 62
    7
 10
184.74535143053211
 20
183.89683079075169
 11
187.62101044525971
 21
186.77248980547932
  0
LINE
  8
_1-0_
  6
CONTINUOUS
 62
    7
 10
184.82795921531886
 20
184.82795921531886
 11
186.8157670304582
 21
186.8157670304582
  0
LINE
  8
_1-0_
  6
CONTINUOUS
 62
    7
 10
184.91055462811445
 20
185.75908763988599
 11
185.12536951013516
 21
185.97389014991555
  0
LINE
  8
_1-0_
  6
CONTINUOUS
 62
    7
 10
221.20019036370357
 20
187.13086927259292
 11
218.80007357210727
 21
182.14600846574115
  0
LINE
  8
_1-0_
  6
CONTINUOUS
 62
    7
 10
223.72808507970862
 20
185.87189545502534
 11
224.21529409047722
 21
180.37979538376268
  0
LINE
  8
_1-0_
  6
CONTINUOUS
 62
    7
 10
224.21091440561656
 20
180.42925860430745
 11
224.17468921558279
 21
180.39304578626479
  0
LINE
  8
_1-0_
  6
CONTINUOUS
 62
    7
 10
224.14177971917232
 20
181.20864455764359
 11
223.53485932221284
 21
180.60172416068414
  0
LINE
  8
_1-0_
  6
CONTINUOUS
 62
    7
 10
224.07264503272805
 20
181.98803051097974
 11
222.89502942884292
 21
180.81041490709461
  0
LINE
  8
_1-0_
  6
CONTINUOUS
 62
    7
 10
224.00348560230154
 20
182.7673793483425
 11
222.255199535473
 21
181.01909328151393
  0
LINE
  8
_1-0_
  6
CONTINUOUS
 62
    7
 10
223.93435091585727
 20
183.54676530167865
 11
221.61536964210305
 21
181.22778402792443
  0
LINE
  8
_1-0_
  6
CONTINUOUS
 62
    7
 10
223.86519148543076
 20
184.32613888302365
 11
220.97553974873313
 21
181.4364747743349
  0
LINE
  8
_1-0_
  6
CONTINUOUS
 62
    7
 10
223.79605679898651
 20
185.10552483635982
 11
220.33570985536318
 21
181.64516552074537
  0
LINE
  8
_1-0_
  6
CONTINUOUS
 62
    7
 10
223.71863287848396
 20
185.87660918364654
 11
219.69587996199326
 21
181.85384389516472
  0
LINE
  8
_1-0_
  6
CONTINUOUS
 62
    7
 10
223.15221838048987
 20
186.15870295344175
 11
219.05605006862334
 21
182.06253464157518
  0
LINE
  8
_1-0_
  6
CONTINUOUS
 62
    7
 10
222.58577913851352
 20
186.44079672323693
 11
219.27275786528716
 21
183.12777545001057
  0
LINE
  8
_1-0_
  6
CONTINUOUS
 62
    7
 10
222.01938938450169
 20
186.72289049303211
 11
220.06068049250425
 21
184.76419397302578
  0
LINE
  8
_1-0_
  6
CONTINUOUS
 62
    7
 10
221.45295014252534
 20
187.00498426282729
 11
220.8486031197213
 21
186.40062486803211
  0
LINE
  8
_1-0_
  6
CONTINUOUS
 62
    7
 10
218.89773807010135
 20
182.11417533255914
 11
218.82145237278294
 21
182.19043628589529
  0
LINE
  8
_1-0_
  6
CONTINUOUS
 62
    7
 10
220.15695932749156
 20
181.70344997096706
 11
219.09722405510982
 21
182.76319761533995
  0
LINE
  8
_1-0_
  6
CONTINUOUS
 62
    7
 10
221.41620532886404
 20
181.29274935335727
 11
219.37302048141893
 21
183.33594657279352
  0
LINE
  8
_1-0_
  6
CONTINUOUS
 62
    7
 10
222.67545133023651
 20
180.88202399176521
 11
219.64876741976352
 21
183.90870790223818
  0
LINE
  8
_1-0_
  6
CONTINUOUS
 62
    7
 10
223.93467258762669
 20
180.47132337415542
 11
219.92453910209039
 21
184.48145685969175
  0
LINE
  8
_1-0_
  6
CONTINUOUS
 62
    7
 10
224.15108345650339
 20
181.10343314505914
 11
220.20031078441724
 21
185.05421818913641
  0
LINE
  8
_1-0_
  6
CONTINUOUS
 62
    7
 10
224.06848804370779
 20
182.03456156962628
 11
220.47610721072635
 21
185.62696714658995
  0
LINE
  8
_1-0_
  6
CONTINUOUS
 62
    7
 10
223.98589263091216
 20
182.96568999419341
 11
220.75185414907097
 21
186.19972847603464
  0
LINE
  8
_1-0_
  6
CONTINUOUS
 62
    7
 10
223.90329721811656
 20
183.89683079075169
 11
221.02765057538008
 21
186.77248980547932
  0
LINE
  8
_1-0_
  6
CONTINUOUS
 62
    7
 10
223.82070180532097
 20
184.82795921531886
 11
221.83286924619932
 21
186.8157670304582
  0
LINE
  8
_1-0_
  6
CONTINUOUS
 62
    7
 10
223.73810639252534
 20
185.75908763988599
 11
223.52327913851352
 21
185.97389014991555
  0
LINE
  8
_1-0_
  6
CONTINUOUS
 62
    7
 10
365.15511177681589
 20
109.76189278267526
 11
366.48173564189193
 21
111.84996321394638
  0
LINE
  8
_1-0_
  6
CONTINUOUS
 62
    7
 10
366.48173564189193
 20
111.84996321394638
 11
369.62788349873313
 21
107.14443722286741
  0
LINE
  8
_1-2_
  6
CONTINUOUS
 62
    3
 10
83.123634956978464
 20
137.85690307617187
 11
146.01336092562289
 21
158.36895916913008
  0
LINE
  8
_1-0_
  6
CONTINUOUS
 62
    7
 10
43.493524499841641
 20
109.76189278267526
 11
42.166925378747891
 21
111.84996321394638
  0
LINE
  8
_1-0_
  6
CONTINUOUS
 62
    7
 10
42.166925378747891
 20
111.84996321394638
 11
39.020777521906666
 21
107.14443722286741
  0
LINE
  8
_1-0_
  6
DASHED1
 62
    7
 10
22.155204979149062
 20
98.239028518264362
 11
204.32433669631547
 21
180.21514892578125
  0
LINE
  8
_1-0_
  6
DASHED1
 62
    7
 10
204.32433669631547
 20
180.21514892578125
 11
249.92040685705237
 21
159.69691920924831
  0
LINE
  8
_1-0_
  6
DASHED1
 62
    7
 10
204.32429958034209
 20
179.88617768158784
 11
385.8778999947213
 21
98.18706615551099
  0
LINE
  8
_1-0_
  6
DASHED1
 62
    7
 10
204.32429958034209
 20
179.88617768158784
 11
158.72822941960516
 21
159.36793559306378
  0
LINE
  8
_1-4_
  6
CONTINUOUS
 62
    7
 10
187.67755044473185
 20
143.2222892142631
 11
201.50873132654141
 21
173.95824947872677
  0
LINE
  8
_1-4_
  6
CONTINUOUS
 62
    7
 10
233.27362060546875
 20
122.70405949773016
 11
247.10481385926943
 21
153.44001976219386
  0
LINE
  8
_1-4_
  6
CONTINUOUS
 62
    7
 10
221.77011850717906
 20
141.11766505885768
 11
207.1067356418919
 21
173.70297818570523
  0
LINE
  8
_1-4_
  6
CONTINUOUS
 62
    7
 10
176.17404834644216
 20
120.59943534232475
 11
161.510665481155
 21
153.18474846917232
  0
LINE
  8
_1-4_
  6
CONTINUOUS
 62
    7
 10
187.67755044473185
 20
143.2222892142631
 11
233.27362060546875
 21
122.70405949773016
  0
LINE
  8
_1-4_
  6
CONTINUOUS
 62
    7
 10
221.77011850717906
 20
141.11766505885768
 11
176.17404834644216
 21
120.59943534232475
  0
ARC
  8
_1-2_
  6
CONTINUOUS
 62
    3
 10
33.444399447054479
 20
112.16303644953548
 40
6.01062568458351
 50
107.38015747070314
 51
141.59829711914062
  0
ARC
  8
_1-2_
  6
CONTINUOUS
 62
    3
 10
32.366106187975078
 20
113.92576063001479
 40
0.9999999162313101
 50
108.06419372558594
 51
175.49896240234378
  0
ARC
  8
_1-2_
  6
CONTINUOUS
 62
    3
 10
84.511995057801954
 20
135.14346560916385
 40
6.01062568458351
 50
107.38015747070314
 51
141.59829711914062
  0
ARC
  8
_1-2_
  6
CONTINUOUS
 62
    3
 10
83.433701798722552
 20
136.90618978964318
 40
0.9999999162313101
 50
108.06419372558594
 51
175.49896240234378
  0
ARC
  8
_1-2_
  6
CONTINUOUS
 62
    3
 10
135.57959066854943
 20
158.12389476879224
 40
6.01062568458351
 50
107.38015747070314
 51
141.59829711914062
  0
ARC
  8
_1-2_
  6
CONTINUOUS
 62
    3
 10
134.50129740947003
 20
159.88660657728042
 40
0.9999999162313101
 50
108.06419372558594
 51
175.49896240234378
  0
ARC
  8
_1-2_
  6
CONTINUOUS
 62
    3
 10
375.20423682960308
 20
112.16303644953548
 40
6.01062568458351
 50
38.401657104492202
 51
72.619796752929702
  0
ARC
  8
_1-2_
  6
CONTINUOUS
 62
    3
 10
376.28253008868245
 20
113.92576063001479
 40
0.9999999162313101
 50
4.5005950927734588
 51
71.935363769531278
  0
ARC
  8
_1-2_
  6
CONTINUOUS
 62
    3
 10
324.13666596283787
 20
135.14346560916385
 40
6.01062568458351
 50
38.401657104492202
 51
72.619796752929702
  0
ARC
  8
_1-2_
  6
CONTINUOUS
 62
    3
 10
325.21495922191724
 20
136.90618978964318
 40
0.9999999162313101
 50
4.5005950927734588
 51
71.935363769531278
  0
ARC
  8
_1-2_
  6
CONTINUOUS
 62
    3
 10
273.06904560810813
 20
158.12389476879224
 40
6.01062568458351
 50
38.401657104492202
 51
72.619796752929702
  0
ARC
  8
_1-2_
  6
CONTINUOUS
 62
    3
 10
274.1473388671875
 20
159.88660657728042
 40
0.9999999162313101
 50
4.5005950927734588
 51
71.935363769531278
  0
ARC
  8
_1-0_
  6
CONTINUOUS
 62
    3
 10
204.32432432432432
 20
196.87010069151182
 40
1.9999998324626203
 50
64.057891845703139
 51
115.9421081542969
  0
ARC
  8
_1-1_
  6
CONTINUOUS
 62
    7
 10
204.32432432432432
 20
198.86426771009292
 40
1.2864322920103333
 50
21.122879028320316
 51
158.87712097167969
  0
ARC
  8
_1-0_
  6
CONTINUOUS
 62
    7
 10
205.11890308277029
 20
110.07672284100508
 40
0.599999959404404
 50
180
 51
270
  0
ARC
  8
_1-0_
  6
CONTINUOUS
 62
    7
 10
202.71893475506758
 20
110.07672284100508
 40
0.599999959404404
 50
270
 51
0
  0
ARC
  8
_1-0_
  6
CONTINUOUS
 62
    7
 10
202.71893475506758
 20
145.67671904692779
 40
0.599999959404404
 50
0
 51
90
  0
ARC
  8
_1-0_
  6
CONTINUOUS
 62
    7
 10
205.11890308277029
 20
145.67671904692779
 40
0.599999959404404
 50
90
 51
180
  0
TEXT
  8
_0-0_
 62
    7
 10
147.56756962956609
 20
22.702702702702709
 40
2.5
 41
1
 50
0
  1
図名
  0
TEXT
  8
_0-0_
 62
    7
 10
147.56756962956609
 20
12.972972972972968
 40
2.5
 41
1
 50
0
  1
縮尺
  0
TEXT
  8
_0-0_
 62
    7
 10
382.77784605284
 20
21.243871740392734
 40
2.5
 41
1
 50
0
  1
ＮＯ
  0
TEXT
  8
_0-0_
 62
    7
 10
20.270270012520456
 20
22.702702702702709
 40
2.5
 41
1
 50
0
  1
Ｆ形
  0
TEXT
  8
_0-0_
 62
    7
 10
389.99062615471917
 20
16.178650211643514
 40
2.5
 41
1
 50
0
  1
Ｆ
  0
TEXT
  8
_0-0_
 62
    7
 10
171.37221877639359
 20
12.362518826046511
 40
2.5
 41
1
 50
0
  1
1/5
  0
TEXT
  8
_0-1_
 62
    7
 10
41.891723323512736
 20
146.17057181693414
 40
2.5
 41
1
 50
0
  1
桟瓦
  0
TEXT
  8
_0-1_
 62
    7
 10
126.67201892749685
 20
97.929765855943842
 40
2.5
 41
1
 50
0
  1
瓦桟
  0
TEXT
  8
_0-1_
 62
    7
 10
126.67201686549831
 20
90.425856306746198
 40
2.5
 41
1
 50
0
  1
流し桟
  0
TEXT
  8
_0-1_
 62
    7
 10
126.67201480349979
 20
83.14263833535685
 40
2.5
 41
1
 50
0
  1
下葺き材
  0
TEXT
  8
_0-1_
 62
    7
 10
126.67201686549831
 20
76.52154458535685
 40
2.5
 41
1
 50
0
  1
野地板
  0
TEXT
  8
_0-1_
 62
    7
 10
126.67201892749685
 20
69.900426091374584
 40
2.5
 41
1
 50
0
  1
垂木
  0
TEXT
  8
_1-1_
 62
    7
 10
45.397582698512736
 20
13.77361400707349
 40
2.5
 41
1
 50
0
  1
棟　1
  0
TEXT
  8
_1-3_
 62
    7
 10
234.64990151895063
 20
229.85783757390203
 40
2.5
 41
1
 50
0
  1
棟瓦
  0
TEXT
  8
_1-3_
 62
    7
 10
236.19637566643792
 20
207.43373973949537
 40
2.5
 41
1
 50
0
  1
発泡弾性シール材
  0
TEXT
  8
_1-3_
 62
    7
 10
163.51141233701964
 20
232.17758591110643
 40
2.5
 41
1
 50
0
  1
棟桟木　30ｘ30
  0
TEXT
  8
_1-3_
 62
    7
 10
173.56359533361487
 20
220.57260874155406
 40
2.5
 41
1
 50
0
  1
棟金具
  0
TEXT
  8
_1-3_
 62
    7
 10
31.231869362496042
 20
18.589955922719582
 40
2.5
 41
1
 50
0
  1
Ｓ
  0
TEXT
  8
_1-0_
 62
    7
 10
141.05373691868138
 20
69.900426091374584
 40
2.5
 41
1
 50
0
  1
Ｃ－100ｘ50ｘ20ｘ2.3
  0
TEXT
  8
_1-0_
 62
    7
 10
141.07877576673354
 20
83.623945906355573
 40
2.5
 41
1
 50
0
  1
ゴムアス系ルーフィング
  0
TEXT
  8
_1-0_
 62
    7
 10
141.05373691868138
 20
76.52154458535685
 40
2.5
 41
1
 50
0
  1
硬質木片セメント板　ｔ＝18
  0
TEXT
  8
_1-0_
 62
    7
 10
135.6527091361381
 20
247.55008182010135
 40
2.5
 41
1
 50
0
  1
パッキン付改良ステンレススクリュウ釘
  0
TEXT
  8
_1-3_
 62
    7
 10
399.21822625237542
 20
13.38110021642737
 40
2.5
 41
1
 50
0
  1
37
  0
TEXT
  8
_1-4_
 62
    7
 10
212.08926259364083
 20
132.31278915115149
 40
2.5
 41
1
 50
-24.227641889855306
  1
250
  0
TEXT
  8
_1-4_
 62
    7
 10
193.8221633221394
 20
128.66985909528972
 40
2.5
 41
1
 50
24.227891841336714
  1
250
  0
TEXT
  8
_1-4_
 62
    7
 10
151.99853639344911
 20
51.321054407068203
 40
2.5
 41
1
 50
0
  1
棟部分の下葺き材（ゴムアス系ルーフィング）は、両方向へそれぞれ250ｍｍ以上重ね合わせること。
  0
TEXT
  8
_1-4_
 62
    7
 10
152.08632804252005
 20
47.209730406065248
 40
2.5
 41
1
 50
0
  1
隅棟部分の下葺き材（ゴムアス系ルーフィング）は、重ね貼りの上に両方向へそれぞれ250ｍｍ以上増し貼りをすること。
  0
POINT
  8
_1-4_
 62
    7
 10
187.67755044473185
 20
143.2222892142631
  0
POINT
  8
_1-4_
 62
    7
 10
233.27362060546875
 20
122.70405949773016
  0
POINT
  8
_1-4_
 62
    7
 10
221.77011850717906
 20
141.11766505885768
  0
POINT
  8
_1-4_
 62
    7
 10
176.17404834644216
 20
120.59943534232475
  0
TEXT
  8
_1-0_
 62
    7
 10
141.85510981373889
 20
94.856569784865144
 40
2.5
 41
1
 50
0
  1
※　地域により瓦桟木の大きさは、異なります
  0
TEXT
  8
_1-0_
 62
    7
 10
141.62422371523806
 20
98.043718420316992
 40
2.5
 41
1
 50
0
  1
15×30以上　（防腐処理）
  0
ENDSEC
  0
EOF
