  0
SECTION
  2
HEADER
  9
$ACADVER
  1
AC1009
  9
$INSBASE
 10
0
 20
0
 30
0
  9
$EXTMIN
 10
0
 20
0
  9
$EXTMAX
 10
420
 20
297
  9
$LIMMIN
 10
0
 20
0
  9
$LIMMAX
 10
420
 20
297
  9
$LTSCALE
 40
1
  0
ENDSEC
  0
SECTION
  2
TABLES
  0
TABLE
  2
LTYPE
 70
     9
  0
LTYPE
  2
CONTINUOUS
 70
    64
  3
実線
 72
    65
 73
     0
 40
0.0
  0
LTYPE
  2
DASHED1
 70
    64
  3
--  --  --  --  --  --  --  --  
 72
    65
 73
     2
 40
2.5
 49
1.25
 49
-1.25
  0
LTYPE
  2
DASHED2
 70
    64
  3
----    ----    ----    ----    
 72
    65
 73
     2
 40
5.0
 49
2.5
 49
-2.5
  0
LTYPE
  2
DASHED3
 70
    64
  3
------  ------  ------  ------  
 72
    65
 73
     2
 40
5.0
 49
3.75
 49
-1.25
  0
LTYPE
  2
CENTER1
 70
    64
  3
----- - ----- - ----- - ----- - 
 72
    65
 73
     4
 40
10.0
 49
6.25
 49
-1.25
 49
1.25
 49
-1.25
  0
LTYPE
  2
CENTER2
 70
    64
  3
----------  --  ----------  --  
 72
    65
 73
     4
 40
20.0
 49
12.5
 49
-2.5
 49
2.5
 49
-2.5
  0
LTYPE
  2
PHANTOM1
 70
    64
  3
--- - - --- - - --- - - --- - - 
 72
    65
 73
     6
 40
10.0
 49
3.25
 49
-1.25
 49
1.25
 49
-1.25
 49
1.25
 49
-1.25
  0
LTYPE
  2
PHANTOM2
 70
    64
  3
--------  -  -  --------  -  -  
 72
    65
 73
     6
 40
20.0
 49
10.0
 49
-2.5
 49
1.25
 49
-2.5
 49
1.25
 49
-2.5
  0
LTYPE
  2
DOT
 70
    64
  3
-   -   -   -   -   -   -   -   
 72
    65
 73
     2
 40
2.5
 49
0.625
 49
-1.875
  0
LTYPE
  2
DUMMY
 70
    64
  3
ダミー
 72
    65
 73
     0
 40
0.0
  0
LTYPE
  2
RAND1
 70
    64
  3
ランダム線1
 72
    65
 73
     4
 40
10.0
 49
1.0
 49
-2.0
 49
3.0
 49
-4.0
  0
LTYPE
  2
RAND2
 70
    64
  3
ランダム線2
 72
    65
 73
     4
 40
14.0
 49
2.0
 49
-3.0
 49
4.0
 49
-5.0
  0
LTYPE
  2
RAND3
 70
    64
  3
ランダム線3
 72
    65
 73
     4
 40
18.0
 49
3.0
 49
-4.0
 49
5.0
 49
-6.0
  0
LTYPE
  2
RAND4
 70
    64
  3
ランダム線4
 72
    65
 73
     4
 40
22.0
 49
4.0
 49
-5.0
 49
6.0
 49
-7.0
  0
LTYPE
  2
RAND5
 70
    64
  3
ランダム線5
 72
    65
 73
     4
 40
26.0
 49
5.0
 49
-6.0
 49
7.0
 49
-8.0
  0
LTYPE
  2
LONG1
 70
    64
  3
----------  --  ----------  --  
 72
    65
 73
     4
 40
40.0
 49
32.5
 49
-2.5
 49
2.5
 49
-2.5
  0
LTYPE
  2
LONG2
 70
    64
  3
--------  -  -  --------  -  -  
 72
    65
 73
     6
 40
40.0
 49
30.0
 49
-2.5
 49
1.25
 49
-2.5
 49
1.25
 49
-2.5
  0
LTYPE
  2
LONG3
 70
    64
  3
+++++++++++++++..+++++++++++++++
 72
    65
 73
     2
 40
40.0
 49
37.5
 49
-2.5
  0
LTYPE
  2
LONG4
 70
    64
  3
+++++++++++++++..+++++++++++++++
 72
    65
 73
     2
 40
80.0
 49
75.0
 49
-5.0
  0
LTYPE
  2
LONG5
 70
    64
  3
----------  --  ----------  --  
 72
    65
 73
     4
 40
60.0
 49
37.5
 49
-7.5
 49
7.5
 49
-7.5
  0
LTYPE
  2
dashed
 70
   64
  3
-------   -------------   ------
 72
   65
 73
    2
 40
7.5
 49
6
 49
-1.5
  0
LTYPE
  2
dashed_spaced
 70
   64
  3
----        --------        ----
 72
   65
 73
    2
 40
12
 49
6
 49
-6
  0
LTYPE
  2
long_dashed_dotted
 70
   64
  3
------------- --- --------------
 72
   65
 73
    4
 40
15.25
 49
12
 49
-1.5
 49
0.25
 49
-1.5
  0
LTYPE
  2
long_dashed_double-dotted
 70
   64
  3
----------- --- --- ------------
 72
   65
 73
    6
 40
17
 49
12
 49
-1.5
 49
0.25
 49
-1.5
 49
0.25
 49
-1.5
  0
LTYPE
  2
long_dashed_triplicate-dotted
 70
   64
  3
--------- --- --- --- ----------
 72
   65
 73
    8
 40
18.75
 49
12
 49
-1.5
 49
0.25
 49
-1.5
 49
0.25
 49
-1.5
 49
0.25
 49
-1.5
  0
LTYPE
  2
dotted
 70
   64
  3
   -       -       -       -    
 72
   65
 73
    2
 40
1.75
 49
0.25
 49
-1.5
  0
LTYPE
  2
chain
 70
   64
  3
-------------- -- --------------
 72
   65
 73
    4
 40
18.5
 49
12
 49
-1.5
 49
3.5
 49
-1.5
  0
LTYPE
  2
chain_double_dash
 70
   64
  3
------------ -- -- -------------
 72
   65
 73
    6
 40
23.5
 49
12
 49
-1.5
 49
3.5
 49
-1.5
 49
3.5
 49
-1.5
  0
LTYPE
  2
dashed_dotted
 70
   64
  3
-----------     -     ----------
 72
   65
 73
    4
 40
9.25
 49
6
 49
-1.5
 49
0.25
 49
-1.5
  0
LTYPE
  2
double-dashed_dotted
 70
   64
  3
------   -----------   -   -----
 72
   65
 73
    6
 40
16.75
 49
6
 49
-1.5
 49
6
 49
-1.5
 49
0.25
 49
-1.5
  0
LTYPE
  2
dashed_double-dotted
 70
   64
  3
---------    -    -    ---------
 72
   65
 73
    6
 40
11
 49
6
 49
-1.5
 49
0.25
 49
-1.5
 49
0.25
 49
-1.5
  0
LTYPE
  2
double-dashed_double-dotted
 70
   64
  3
-----   ---------   -   -   ----
 72
   65
 73
    8
 40
18.5
 49
6
 49
-1.5
 49
6
 49
-1.5
 49
0.25
 49
-1.5
 49
0.25
 49
-1.5
  0
LTYPE
  2
dashed_triplicate-dotted
 70
   64
  3
-------    -    -    -    ------
 72
   65
 73
    8
 40
12.75
 49
6
 49
-1.5
 49
0.25
 49
-1.5
 49
0.25
 49
-1.5
 49
0.25
 49
-1.5
  0
LTYPE
  2
double-dashed_triplicate-dotted
 70
   64
  3
-----  ---------  -  -  -  -----
 72
   65
 73
   10
 40
20.25
 49
6
 49
-1.5
 49
6
 49
-1.5
 49
0.25
 49
-1.5
 49
0.25
 49
-1.5
 49
0.25
 49
-1.5
  0
LTYPE
  2
undefined
 70
   64
  3
--------------------------------
 72
   65
 73
    0
 40
0
  0
LTYPE
  2
DOT_17
 70
   64
  3
--             ---             -
 72
   65
 73
    2
 40
5
 49
1
 49
-4
  0
LTYPE
  2
DASHED
 70
   64
  3
---          ------          ---
 72
   65
 73
    2
 40
5
 49
2
 49
-3
  0
LTYPE
  2
DASHED2_19
 70
   64
  3
---          ------          ---
 72
   65
 73
    2
 40
10
 49
4
 49
-6
  0
LTYPE
  2
CENTER
 70
   64
  3
----------    ----    ----------
 72
   65
 73
    4
 40
9
 49
6
 49
-1
 49
1
 49
-1
  0
LTYPE
  2
CENTER2_21
 70
   64
  3
----------    ----    ----------
 72
   65
 73
    4
 40
18
 49
12
 49
-2
 49
2
 49
-2
  0
LTYPE
  2
PHANTOM
 70
   64
  3
---------   ---   ---   --------
 72
   65
 73
    6
 40
10
 49
5
 49
-1
 49
1
 49
-1
 49
1
 49
-1
  0
LTYPE
  2
PHANTOM2_23
 70
   64
  3
------    ----    ----    ------
 72
   65
 73
    6
 40
16
 49
6
 49
-2
 49
2
 49
-2
 49
2
 49
-2
  0
LTYPE
  2
HIDDEN
 70
   64
  3
--             ---             -
 72
   65
 73
    2
 40
2.5
 49
0.5
 49
-2
  0
ENDTAB
  0
TABLE
  2
STYLE
  5
3
100
AcDbSymbolTable
 70
     1
  0
STYLE
  5
10
100
AcDbSymbolTableRecord
100
AcDbTextStyleTableRecord
  2
STANDARD
 70
     0
 40
0.0
 41
1.0
 50
0.0
 71
     0
 42
0.2
  3
txt
  4
bigfont.shx
  0
STYLE
  5
26
100
AcDbSymbolTableRecord
100
AcDbTextStyleTableRecord
  2
TATEGAKI
 70
    68
 40
0.0
 41
1.0
 50
0.0
 71
     0
 42
1.0
  3
txt
  4
bigfont.shx
  0
ENDTAB
  0
TABLE
  2
LAYER
 70
    8
  0
LAYER
  2
_0-0_
 70
   64
 62
    7
  6
CONTINUOUS
  0
LAYER
  2
_0-1_
 70
   64
 62
    7
  6
CONTINUOUS
  0
LAYER
  2
_1-0_
 70
   64
 62
    7
  6
CONTINUOUS
  0
LAYER
  2
_1-1_
 70
   64
 62
    7
  6
CONTINUOUS
  0
LAYER
  2
_1-2_
 70
   64
 62
    7
  6
CONTINUOUS
  0
LAYER
  2
_1-3_
 70
   64
 62
    7
  6
CONTINUOUS
  0
LAYER
  2
_1-4_
 70
   64
 62
    7
  6
CONTINUOUS
  0
LAYER
  2
ADD_LINE
 70
   64
 62
    7
  6
CONTINUOUS
  0
ENDTAB
  0
ENDSEC
  0
SECTION
  2
BLOCKS
  0
ENDSEC
  0
SECTION
  2
ENTITIES
  0
LINE
  8
_1-0_
  6
CONTINUOUS
 62
    7
 10
130.44908678209461
 20
126.48586788692991
 11
366.48648648648651
 21
232.70270270270271
  0
LINE
  8
ADD_LINE
  6
DOT
 62
    7
 10
286.27817514780406
 20
193.97720749313768
 11
292.84401558540964
 21
179.38646058778505
  0
LINE
  8
_1-0_
  6
CONTINUOUS
 62
    7
 10
129.95664441907729
 20
127.58017050253379
 11
365.99405649546031
 21
233.79700531830659
  0
LINE
  8
_1-0_
  6
DASHED1
 62
    3
 10
130.20287178658151
 20
127.03301919473185
 11
366.24025911898229
 21
233.24986638249578
  0
LINE
  8
_1-0_
  6
CONTINUOUS
 62
    7
 10
129.71042942356419
 20
128.12732181033573
 11
365.74782912795609
 21
234.34416899809966
  0
LINE
  8
_1-1_
  6
CONTINUOUS
 62
    7
 10
156.33850510055956
 20
140.10995400918497
 11
155.10740537901182
 21
142.84572292018581
  0
LINE
  8
_1-1_
  6
CONTINUOUS
 62
    7
 10
155.10740537901182
 20
142.84572292018581
 11
159.48464058540964
 21
144.81548000026393
  0
LINE
  8
_1-1_
  6
CONTINUOUS
 62
    7
 10
159.48464058540964
 20
144.81548000026393
 11
160.71574030695734
 21
142.0797110892631
  0
LINE
  8
_1-1_
  6
CONTINUOUS
 62
    7
 10
160.71574030695734
 20
142.0797110892631
 11
156.33850510055956
 21
140.10995400918497
  0
LINE
  8
_1-1_
  6
CONTINUOUS
 62
    7
 10
156.33850510055956
 20
140.10995400918497
 11
159.48464058540964
 21
144.81548000026393
  0
LINE
  8
_1-1_
  6
CONTINUOUS
 62
    7
 10
207.40611308329815
 20
163.09038316881336
 11
206.17501336175044
 21
165.82615207981419
  0
LINE
  8
_1-1_
  6
CONTINUOUS
 62
    7
 10
206.17501336175044
 20
165.82615207981419
 11
210.55226094013938
 21
167.79590915989232
  0
LINE
  8
_1-1_
  6
CONTINUOUS
 62
    7
 10
210.55226094013938
 20
167.79590915989232
 11
211.78334828969597
 21
165.06014024889149
  0
LINE
  8
_1-1_
  6
CONTINUOUS
 62
    7
 10
211.78334828969597
 20
165.06014024889149
 11
207.40611308329815
 21
163.09038316881336
  0
LINE
  8
_1-1_
  6
CONTINUOUS
 62
    7
 10
207.40611308329815
 20
163.09038316881336
 11
210.55226094013938
 21
167.79590915989232
  0
LINE
  8
_1-1_
  6
CONTINUOUS
 62
    7
 10
258.47370869404563
 20
186.0707999564506
 11
257.24262134448901
 21
188.80656886745146
  0
LINE
  8
_1-1_
  6
CONTINUOUS
 62
    7
 10
257.24262134448901
 20
188.80656886745146
 11
261.61985655088682
 21
190.77632594752959
  0
LINE
  8
_1-1_
  6
CONTINUOUS
 62
    7
 10
261.61985655088682
 20
190.77632594752959
 11
262.85094390044344
 21
188.04055703652872
  0
LINE
  8
_1-1_
  6
CONTINUOUS
 62
    7
 10
262.85094390044344
 20
188.04055703652872
 11
258.47370869404563
 21
186.0707999564506
  0
LINE
  8
_1-1_
  6
CONTINUOUS
 62
    7
 10
258.47370869404563
 20
186.0707999564506
 11
261.61985655088682
 21
190.77632594752959
  0
LINE
  8
_1-1_
  6
CONTINUOUS
 62
    7
 10
309.54130430479307
 20
209.0512414880701
 11
308.31021695523651
 21
211.78701039907097
  0
LINE
  8
_1-1_
  6
CONTINUOUS
 62
    7
 10
308.31021695523651
 20
211.78701039907097
 11
312.68745216163433
 21
213.75675510715794
  0
LINE
  8
_1-1_
  6
CONTINUOUS
 62
    7
 10
312.68745216163433
 20
213.75675510715794
 11
313.91853951119089
 21
211.02098619615711
  0
LINE
  8
_1-1_
  6
CONTINUOUS
 62
    7
 10
313.91853951119089
 20
211.02098619615711
 11
309.54130430479307
 21
209.0512414880701
  0
LINE
  8
_1-1_
  6
CONTINUOUS
 62
    7
 10
309.54130430479307
 20
209.0512414880701
 11
312.68745216163433
 21
213.75675510715794
  0
LINE
  8
_1-1_
  6
CONTINUOUS
 62
    7
 10
360.60889991554058
 20
232.03167064769849
 11
359.37781256598396
 21
234.76743955869935
  0
LINE
  8
_1-1_
  6
CONTINUOUS
 62
    7
 10
359.37781256598396
 20
234.76743955869935
 11
363.75504777238177
 21
236.73718426678633
  0
LINE
  8
_1-1_
  6
CONTINUOUS
 62
    7
 10
363.75504777238177
 20
236.73718426678633
 11
364.98613512193839
 21
234.0014153557855
  0
LINE
  8
_1-1_
  6
CONTINUOUS
 62
    7
 10
364.98613512193839
 20
234.0014153557855
 11
360.60889991554058
 21
232.03167064769849
  0
LINE
  8
_1-1_
  6
CONTINUOUS
 62
    7
 10
360.60889991554058
 20
232.03167064769849
 11
363.75504777238177
 21
236.73718426678633
  0
LINE
  8
_1-2_
  6
CONTINUOUS
 62
    3
 10
335.66486255542657
 20
63.77838134765625
 11
337.06485232791385
 21
63.77838134765625
  0
LINE
  8
_1-2_
  6
CONTINUOUS
 62
    3
 10
334.06486717430323
 20
63.178364521748307
 11
335.34128549936656
 21
63.178364521748307
  0
LINE
  8
_1-2_
  6
CONTINUOUS
 62
    3
 10
335.66486255542657
 20
63.77838134765625
 11
335.34128549936656
 21
63.178364521748307
  0
LINE
  8
_1-2_
  6
CONTINUOUS
 62
    3
 10
334.06486717430323
 20
63.178364521748307
 11
333.06486387510557
 21
61.37838827597129
  0
LINE
  8
_1-2_
  6
CONTINUOUS
 62
    3
 10
336.66484111064193
 20
61.77837474926099
 11
337.06485232791385
 21
61.77837474926099
  0
LINE
  8
_1-2_
  6
CONTINUOUS
 62
    7
 10
337.06485232791385
 20
63.77838134765625
 11
337.06485232791385
 21
61.77837474926099
  0
LINE
  8
_1-2_
  6
CONTINUOUS
 62
    3
 10
336.66484111064193
 20
61.77837474926099
 11
336.66484111064193
 21
58.378378378378386
  0
LINE
  8
_1-2_
  6
CONTINUOUS
 62
    7
 10
334.8648648648649
 20
58.378378378378386
 11
335.46485694679058
 21
55.978385306693411
  0
LINE
  8
_1-2_
  6
CONTINUOUS
 62
    7
 10
335.46485694679058
 20
55.978385306693411
 11
337.06485232791385
 21
55.978385306693411
  0
LINE
  8
_1-2_
  6
CONTINUOUS
 62
    3
 10
267.06484407991979
 20
55.378368480785468
 11
267.6726057722762
 21
60.378384976773646
  0
LINE
  8
_1-2_
  6
CONTINUOUS
 62
    3
 10
271.06483253272808
 20
61.37838827597129
 11
333.06486387510557
 21
61.37838827597129
  0
LINE
  8
_1-2_
  6
CONTINUOUS
 62
    3
 10
267.06484407991979
 20
55.378368480785468
 11
268.66483946104307
 21
55.53314208984375
  0
LINE
  8
_1-2_
  6
CONTINUOUS
 62
    3
 10
269.59108094911318
 20
57.762104756123307
 11
268.66483946104307
 21
55.53314208984375
  0
LINE
  8
_1-2_
  6
CONTINUOUS
 62
    3
 10
337.06485232791385
 20
63.77838134765625
 11
337.06485232791385
 21
61.77837474926099
  0
LINE
  8
_1-2_
  6
CONTINUOUS
 62
    7
 10
337.06485232791385
 20
61.77837474926099
 11
337.06485232791385
 21
55.978385306693411
  0
LINE
  8
_0-0_
  6
CONTINUOUS
 62
    5
 10
12.432428308435391
 20
278.51351351351354
 11
412.43244892842063
 21
278.51351351351354
  0
LINE
  8
_0-0_
  6
CONTINUOUS
 62
    5
 10
412.43244892842063
 20
28.513511451515001
 11
12.432415936444272
 21
28.513511451515001
  0
LINE
  8
_0-0_
  6
CONTINUOUS
 62
    5
 10
377.43248192039698
 20
8.5135135135135158
 11
377.43248192039698
 21
28.513511451515001
  0
LINE
  8
_0-0_
  6
CONTINUOUS
 62
    5
 10
142.70271507469386
 20
28.513511451515001
 11
142.70271507469386
 21
8.5135135135135158
  0
LINE
  8
_0-0_
  6
CONTINUOUS
 62
    5
 10
220.54054054054055
 20
28.513511451515001
 11
220.54054054054055
 21
8.5135135135135158
  0
LINE
  8
_0-0_
  6
CONTINUOUS
 62
    5
 10
142.70271507469386
 20
18.513512482514244
 11
220.54054054054055
 21
18.513512482514244
  0
LINE
  8
_0-0_
  6
CONTINUOUS
 62
    5
 10
402.16218690614443
 20
24.324325870823216
 11
389.59456985061234
 21
11.756758303255651
  0
LINE
  8
ADD_LINE
  6
DOT
 62
    7
 10
14.254930857065574
 20
30.454713976061015
 11
14.254930857065574
 21
15.871074779613593
  0
LINE
  8
_1-4_
  6
CONTINUOUS
 62
    7
 10
76.176341288798568
 20
164.57665520745357
 11
127.31982669314823
 21
187.59123106260557
  0
LINE
  8
_1-4_
  6
CONTINUOUS
 62
    7
 10
88.859395207585521
 20
136.39209644214529
 11
76.176341288798568
 21
164.57665520745357
  0
LINE
  8
_1-4_
  6
CONTINUOUS
 62
    7
 10
140.00288679793076
 20
159.40668466928844
 11
127.31982669314823
 21
187.59124343459672
  0
LINE
  8
_1-4_
  6
CONTINUOUS
 62
    7
 10
127.31982669314823
 20
187.59123106260557
 11
178.42309075432857
 21
210.587719066723
  0
LINE
  8
_1-4_
  6
CONTINUOUS
 62
    7
 10
191.10613848711995
 20
182.40316030141472
 11
178.42309075432857
 21
210.587719066723
  0
LINE
  8
_1-4_
  6
CONTINUOUS
 62
    7
 10
178.42309075432857
 20
210.587719066723
 11
229.49749096019849
 21
233.57121648015203
  0
LINE
  8
_1-4_
  6
CONTINUOUS
 62
    7
 10
242.18056343697214
 20
205.3866700868349
 11
229.49751570418076
 21
233.57121648015203
  0
LINE
  8
_1-4_
  6
CONTINUOUS
 62
    7
 10
229.49749096019849
 20
233.57121648015203
 11
280.56511131492823
 21
256.55164563978042
  0
LINE
  8
_1-4_
  6
CONTINUOUS
 62
    7
 10
293.24815904771964
 20
228.36708687447214
 11
280.56508657094594
 21
256.55164563978042
  0
LINE
  8
_1-4_
  6
CONTINUOUS
 62
    7
 10
82.988167840081303
 20
149.43926424593539
 11
97.452472996067357
 21
155.94820589632602
  0
LINE
  8
_1-4_
  6
CONTINUOUS
 62
    7
 10
88.859395207585521
 20
136.39209644214529
 11
82.988167840081303
 21
149.43926424593539
  0
LINE
  8
_1-4_
  6
CONTINUOUS
 62
    7
 10
103.32370036357159
 20
142.90103809253591
 11
97.452472996067357
 21
155.94820589632602
  0
LINE
  8
_1-4_
  6
CONTINUOUS
 62
    7
 10
97.452472996067357
 20
155.94820589632602
 11
134.13165943042654
 21
172.45384010108742
  0
LINE
  8
_1-4_
  6
CONTINUOUS
 62
    7
 10
140.00288679793076
 20
159.40668466928844
 11
134.13165943042654
 21
172.45385247307857
  0
LINE
  8
_1-4_
  6
CONTINUOUS
 62
    7
 10
208.52864858266472
 20
164.95930852116766
 11
237.15518435916385
 21
86.308569006017734
  0
LINE
  8
_0-1_
  6
CONTINUOUS
 62
    7
 10
237.15518435916385
 20
86.308569006017734
 11
243.24324324324326
 21
86.308569006017734
  0
LINE
  8
_0-1_
  6
CONTINUOUS
 62
    7
 10
226.96402884818414
 20
114.30856240762247
 11
243.24324324324326
 21
114.30856240762247
  0
LINE
  8
_0-1_
  6
CONTINUOUS
 62
    7
 10
229.51181772592906
 20
107.30856405722129
 11
243.24324324324326
 21
107.30856405722129
  0
LINE
  8
_0-1_
  6
CONTINUOUS
 62
    7
 10
232.05960660367401
 20
100.3085657068201
 11
243.24324324324326
 21
100.3085657068201
  0
LINE
  8
_0-1_
  6
CONTINUOUS
 62
    7
 10
234.60739548141893
 20
93.308567356418919
 11
243.24324324324326
 21
93.308567356418919
  0
LINE
  8
_0-1_
  6
CONTINUOUS
 62
    7
 10
233.51351351351352
 20
183.24324324324326
 11
226.02732065561656
 21
203.81141868797511
  0
LINE
  8
_0-1_
  6
CONTINUOUS
 62
    7
 10
226.02732065561656
 20
203.81141868797511
 11
220.54054054054055
 21
203.81141868797511
  0
LINE
  8
_0-1_
  6
CONTINUOUS
 62
    7
 10
124.86486486486487
 20
107.83783783783784
 11
110.27088886982686
 21
67.741222897091433
  0
LINE
  8
_0-1_
  6
CONTINUOUS
 62
    7
 10
110.27088886982686
 20
67.741222897091433
 11
106.21621621621622
 21
67.741222897091433
  0
LINE
  8
_1-4_
  6
CONTINUOUS
 62
    7
 10
267.06484407991979
 20
46.694406045449739
 11
337.06485232791385
 21
46.694406045449739
  0
LINE
  8
_1-4_
  6
CONTINUOUS
 62
    7
 10
267.06484407991979
 20
51.272828385636615
 11
267.06484407991979
 21
46.694406045449739
  0
LINE
  8
_1-4_
  6
CONTINUOUS
 62
    7
 10
337.06485232791385
 20
51.272828385636615
 11
337.06485232791385
 21
46.694406045449739
  0
LINE
  8
_1-4_
  6
CONTINUOUS
 62
    7
 10
346.78126979518584
 20
63.77838134765625
 11
346.78126979518584
 21
55.978385306693411
  0
LINE
  8
_1-4_
  6
CONTINUOUS
 62
    7
 10
340.37148965371625
 20
63.77838134765625
 11
346.78126979518584
 21
63.77838134765625
  0
LINE
  8
_1-4_
  6
CONTINUOUS
 62
    7
 10
340.37148965371625
 20
55.978385306693411
 11
346.78126979518584
 21
55.978385306693411
  0
LINE
  8
_1-4_
  6
CONTINUOUS
 62
    7
 10
105.79138678473396
 20
101.6975938951647
 11
103.4558950888144
 21
101.6975938951647
  0
LINE
  8
_1-0_
  6
CONTINUOUS
 62
    7
 10
130.44908678209461
 20
126.48586788692991
 11
111.29871677707982
 21
117.86820695206926
  0
LINE
  8
_1-2_
  6
DASHED1
 62
    3
 10
130.20287178658151
 20
127.03301919473185
 11
111.10048036317568
 21
118.43694738439612
  0
LINE
  8
_1-2_
  6
CONTINUOUS
 62
    3
 10
123.34126652898016
 20
123.59705744562923
 11
110.1350938951647
 21
117.65428285341005
  0
LINE
  8
_1-2_
  6
CONTINUOUS
 62
    3
 10
110.1350938951647
 20
117.65428285341005
 11
110.34786739864866
 21
110.82264255832982
  0
LINE
  8
_1-2_
  6
CONTINUOUS
 62
    3
 10
110.34786739864866
 20
110.82264255832982
 11
110.93183775205871
 21
112.20957988017315
  0
LINE
  8
_1-4_
  6
CONTINUOUS
 62
    7
 10
110.34697661528716
 20
114.21396616342906
 11
105.79138678473396
 21
101.6975938951647
  0
LINE
  8
_1-0_
  6
CONTINUOUS
 62
    7
 10
129.95664441907729
 20
127.58017050253379
 11
116.03731310045397
 21
121.31646646035685
  0
LINE
  8
_1-0_
  6
CONTINUOUS
 62
    7
 10
123.99839246595229
 20
125.55690456081082
 11
115.79109810494089
 21
121.86361776815879
  0
LINE
  8
_1-0_
  6
CONTINUOUS
 62
    7
 10
115.79109810494089
 20
121.86361776815879
 11
113.29582832955026
 21
120.74074822503168
  0
LINE
  8
_1-0_
  6
CONTINUOUS
 62
    7
 10
116.03731310045397
 20
121.31646646035685
 11
113.54204332506335
 21
120.19359691722974
  0
LINE
  8
_1-0_
  6
CONTINUOUS
 62
    7
 10
113.29582832955026
 20
120.74074822503168
 11
113.54204332506335
 21
120.19359691722974
  0
LINE
  8
_1-0_
  6
CONTINUOUS
 62
    7
 10
115.79109810494089
 20
121.86361776815879
 11
129.71042942356419
 21
128.12732181033573
  0
LINE
  8
ADD_LINE
  6
DOT
 62
    7
 10
111.32608362146327
 20
125.11797105943835
 11
113.54204332506335
 21
120.19359691722974
  0
LINE
  8
_1-0_
  6
CONTINUOUS
 62
    7
 10
113.29582832955026
 20
120.74074822503168
 11
109.60254153689823
 21
128.94804258604307
  0
LINE
  8
_1-0_
  6
CONTINUOUS
 62
    7
 10
109.60254153689823
 20
128.94804258604307
 11
117.80983589790964
 21
132.6413293786951
  0
LINE
  8
_1-0_
  6
CONTINUOUS
 62
    7
 10
117.80983589790964
 20
132.6413293786951
 11
121.50312269056167
 21
124.43403501768371
  0
LINE
  8
_1-0_
  6
CONTINUOUS
 62
    7
 10
121.50312269056167
 20
124.43403501768371
 11
113.29582832955026
 21
120.74074822503168
  0
LINE
  8
ADD_LINE
  6
DOT
 62
    4
 10
159.48464058540964
 20
144.81549237225508
 11
117.80983589790964
 21
132.6413293786951
  0
LINE
  8
_1-2_
  6
CONTINUOUS
 62
    3
 10
158.73836208034206
 20
150.22317834802575
 11
160.08219538508234
 21
150.61574162663641
  0
LINE
  8
_1-2_
  6
CONTINUOUS
 62
    3
 10
157.37079929661107
 20
149.19860427444047
 11
158.59600995038008
 21
149.55651360589107
  0
LINE
  8
_1-2_
  6
CONTINUOUS
 62
    3
 10
158.73836208034206
 20
150.22317834802575
 11
158.59600995038008
 21
149.55651360589107
  0
LINE
  8
_1-2_
  6
CONTINUOUS
 62
    3
 10
157.37079929661107
 20
149.19860427444047
 11
156.91564611486487
 21
147.19040741791596
  0
LINE
  8
_1-2_
  6
CONTINUOUS
 62
    3
 10
160.25904062631969
 20
148.58380291913008
 11
160.64300537109375
 21
148.69596739073057
  0
LINE
  8
_1-2_
  6
CONTINUOUS
 62
    7
 10
160.08219538508234
 20
150.61574162663641
 11
160.64300537109375
 21
148.69596739073057
  0
LINE
  8
_1-2_
  6
CONTINUOUS
 62
    3
 10
160.25904062631969
 20
148.58380291913008
 11
161.2124015189506
 21
145.32020775047511
  0
LINE
  8
_1-2_
  6
CONTINUOUS
 62
    7
 10
159.48464058540964
 20
144.81549237225508
 11
160.73353123020482
 21
142.6800248429582
  0
LINE
  8
_1-2_
  6
CONTINUOUS
 62
    7
 10
160.73353123020482
 20
142.6800248429582
 11
162.26934072133659
 21
143.12867035736909
  0
LINE
  8
_1-2_
  6
CONTINUOUS
 62
    3
 10
95.245810843802786
 20
122.92450363571579
 11
94.427174748601146
 21
127.89433247334249
  0
LINE
  8
_1-2_
  6
CONTINUOUS
 62
    3
 10
97.402910799593542
 20
129.80539682749156
 11
156.91564611486487
 21
147.19040741791596
  0
LINE
  8
_1-2_
  6
CONTINUOUS
 62
    3
 10
95.245810843802786
 20
122.92450363571579
 11
96.738225576039909
 21
123.5216996476457
  0
LINE
  8
_1-2_
  6
CONTINUOUS
 62
    3
 10
97.715891245249168
 20
126.77145055822425
 11
161.2124015189506
 21
145.32020775047511
  0
LINE
  8
_1-2_
  6
CONTINUOUS
 62
    3
 10
97.002293354756134
 20
125.92097514384503
 11
96.738225576039909
 21
123.5216996476457
  0
LINE
  8
_1-2_
  6
CONTINUOUS
 62
    3
 10
160.08219538508234
 20
150.61574162663641
 11
160.64300537109375
 21
148.69596739073057
  0
LINE
  8
_1-2_
  6
CONTINUOUS
 62
    7
 10
160.64300537109375
 20
148.69596739073057
 11
162.26934072133659
 21
143.12867035736909
  0
LINE
  8
ADD_LINE
  6
DOT
 62
    4
 10
159.91394867768159
 20
151.19167018581081
 11
210.55226094013938
 21
167.7958967879012
  0
LINE
  8
_1-2_
  6
CONTINUOUS
 62
    3
 10
209.6299290012669
 20
173.17636438318203
 11
210.96021497571792
 21
173.61256367451438
  0
LINE
  8
_1-2_
  6
CONTINUOUS
 62
    3
 10
208.29652528505068
 20
172.10770890519427
 11
209.50940106366133
 21
172.50540656012458
  0
LINE
  8
_1-2_
  6
CONTINUOUS
 62
    3
 10
209.6299290012669
 20
173.17636438318203
 11
209.50940106366133
 21
172.50540656012458
  0
LINE
  8
_1-2_
  6
CONTINUOUS
 62
    3
 10
208.29652528505068
 20
172.10770890519427
 11
207.90712923616977
 21
170.08572965054898
  0
LINE
  8
_1-2_
  6
CONTINUOUS
 62
    3
 10
211.20327511349242
 20
171.58749142208615
 11
211.58336742504224
 21
171.71212686074747
  0
LINE
  8
_1-2_
  6
CONTINUOUS
 62
    7
 10
210.96021497571792
 20
173.61256367451438
 11
211.58336742504224
 21
171.71212686074747
  0
LINE
  8
_1-2_
  6
CONTINUOUS
 62
    3
 10
211.20327511349242
 20
171.58749142208615
 11
212.26263922614021
 21
168.35674388988599
  0
LINE
  8
_1-2_
  6
CONTINUOUS
 62
    7
 10
210.55226094013938
 20
167.79590915989232
 11
211.87017492345862
 21
165.70233319256758
  0
LINE
  8
_1-2_
  6
CONTINUOUS
 62
    7
 10
211.87017492345862
 20
165.70233319256758
 11
213.39051942567568
 21
166.20085020323057
  0
LINE
  8
_1-2_
  6
CONTINUOUS
 62
    3
 10
148.99339005753802
 20
150.76800372149495
 11
207.90712923616977
 21
170.08572965054898
  0
LINE
  8
_1-2_
  6
CONTINUOUS
 62
    3
 10
149.40520415434966
 20
147.74587270375847
 11
212.26263922614021
 21
168.35674388988599
  0
LINE
  8
_1-2_
  6
CONTINUOUS
 62
    3
 10
210.96021497571792
 20
173.61256367451438
 11
211.58336742504224
 21
171.71212686074747
  0
LINE
  8
_1-2_
  6
CONTINUOUS
 62
    7
 10
211.58336742504224
 20
171.71212686074747
 11
213.39051942567568
 21
166.20085020323057
  0
LINE
  8
ADD_LINE
  6
DOT
 62
    4
 10
209.44298821526607
 20
173.74650285050677
 11
210.77327418971709
 21
174.18270214183912
  0
LINE
  8
ADD_LINE
  6
DOT
 62
    4
 10
210.77327418971709
 20
174.18270214183912
 11
261.61985655088682
 21
190.77632594752959
  0
LINE
  8
_1-2_
  6
CONTINUOUS
 62
    3
 10
260.70507152660474
 20
196.15806785789698
 11
262.03597610061234
 21
196.59241135055956
  0
LINE
  8
_1-2_
  6
CONTINUOUS
 62
    3
 10
259.37015842747047
 20
195.0912805505701
 11
260.58360331767318
 21
195.48728324271539
  0
LINE
  8
_1-2_
  6
CONTINUOUS
 62
    3
 10
260.70507152660474
 20
196.15806785789698
 11
260.58360331767318
 21
195.48728324271539
  0
LINE
  8
_1-2_
  6
CONTINUOUS
 62
    3
 10
259.37015842747047
 20
195.0912805505701
 11
258.97794156461151
 21
193.06985803552578
  0
LINE
  8
_1-2_
  6
CONTINUOUS
 62
    3
 10
262.27619068042651
 20
194.56699268237966
 11
262.65645619985219
 21
194.69108375343117
  0
LINE
  8
_1-2_
  6
CONTINUOUS
 62
    7
 10
262.03597610061234
 20
196.59241135055956
 11
262.65645619985219
 21
194.69108375343117
  0
LINE
  8
_1-2_
  6
CONTINUOUS
 62
    3
 10
262.27619068042651
 20
194.56699268237966
 11
263.3310266443201
 21
191.33476051124367
  0
LINE
  8
_1-2_
  6
CONTINUOUS
 62
    7
 10
261.61985655088682
 20
190.77632594752959
 11
262.93482600031672
 21
188.68089418153505
  0
LINE
  8
_1-2_
  6
CONTINUOUS
 62
    7
 10
262.93482600031672
 20
188.68089418153505
 11
264.45586333403719
 21
189.17728320972341
  0
LINE
  8
_1-2_
  6
CONTINUOUS
 62
    3
 10
198.09602892076649
 20
166.88980927338471
 11
197.12257591453761
 21
171.83165266707138
  0
LINE
  8
_1-2_
  6
CONTINUOUS
 62
    3
 10
200.037181957348
 20
173.8347151472762
 11
258.97794156461151
 21
193.06985803552578
  0
LINE
  8
_1-2_
  6
CONTINUOUS
 62
    3
 10
198.09602892076649
 20
166.88980927338471
 11
199.56905055690459
 21
167.53332602011193
  0
LINE
  8
_1-2_
  6
CONTINUOUS
 62
    3
 10
200.44476483319258
 20
170.81201501794766
 11
263.3310266443201
 21
191.33476051124367
  0
LINE
  8
_1-2_
  6
CONTINUOUS
 62
    3
 10
199.75806983741555
 20
169.93967829523859
 11
199.56905055690459
 21
167.53332602011193
  0
LINE
  8
_1-2_
  6
CONTINUOUS
 62
    3
 10
262.03597610061234
 20
196.59241135055956
 11
262.65645619985219
 21
194.69108375343117
  0
LINE
  8
_1-2_
  6
CONTINUOUS
 62
    7
 10
262.65645619985219
 20
194.69108375343117
 11
264.45586333403719
 21
189.17728320972341
  0
LINE
  8
_1-2_
  6
CONTINUOUS
 62
    3
 10
311.77266713735219
 20
219.13849701752534
 11
313.10357171135979
 21
219.5728281381968
  0
LINE
  8
_1-2_
  6
CONTINUOUS
 62
    3
 10
310.43775403821792
 20
218.07170971019849
 11
311.65119892842063
 21
218.46771240234375
  0
LINE
  8
_1-2_
  6
CONTINUOUS
 62
    3
 10
311.77266713735219
 20
219.13849701752534
 11
311.65119892842063
 21
218.46771240234375
  0
LINE
  8
_1-2_
  6
CONTINUOUS
 62
    3
 10
310.43775403821792
 20
218.07170971019849
 11
310.04553717535896
 21
216.05027482316302
  0
LINE
  8
_1-2_
  6
CONTINUOUS
 62
    3
 10
313.34378629117401
 20
217.5474094700169
 11
313.72405181059969
 21
217.67152528505068
  0
LINE
  8
_1-2_
  6
CONTINUOUS
 62
    7
 10
313.10357171135979
 20
219.5728281381968
 11
313.72405181059969
 21
217.67152528505068
  0
LINE
  8
_1-2_
  6
CONTINUOUS
 62
    3
 10
313.34378629117401
 20
217.5474094700169
 11
314.39862225506761
 21
214.31517729888091
  0
LINE
  8
_1-2_
  6
CONTINUOUS
 62
    7
 10
312.68745216163433
 20
213.75675510715794
 11
314.00242161106422
 21
211.66133571315459
  0
LINE
  8
_1-2_
  6
CONTINUOUS
 62
    7
 10
314.00242161106422
 20
211.66133571315459
 11
315.52345894478464
 21
212.15772474134292
  0
LINE
  8
_1-2_
  6
CONTINUOUS
 62
    3
 10
249.16363690350508
 20
189.8702384330131
 11
248.19015915329393
 21
194.81208182669977
  0
LINE
  8
_1-2_
  6
CONTINUOUS
 62
    3
 10
251.10477756809544
 20
196.81514430690459
 11
310.04553717535896
 21
216.05027482316302
  0
LINE
  8
_1-2_
  6
CONTINUOUS
 62
    3
 10
249.16363690350508
 20
189.8702384330131
 11
250.63664616765203
 21
190.51375517974029
  0
LINE
  8
_1-2_
  6
CONTINUOUS
 62
    3
 10
251.51236044394005
 20
193.79244417757602
 11
314.39862225506761
 21
214.31517729888091
  0
LINE
  8
_1-2_
  6
CONTINUOUS
 62
    3
 10
250.82566544816302
 20
192.92010745486698
 11
250.63664616765203
 21
190.51375517974029
  0
LINE
  8
_1-2_
  6
CONTINUOUS
 62
    3
 10
313.10357171135979
 20
219.5728281381968
 11
313.72405181059969
 21
217.67152528505068
  0
LINE
  8
_1-2_
  6
CONTINUOUS
 62
    7
 10
313.72405181059969
 20
217.67152528505068
 11
315.52345894478464
 21
212.15772474134292
  0
LINE
  8
_1-2_
  6
CONTINUOUS
 62
    3
 10
362.84026274809969
 20
242.11892617715372
 11
364.17116732210729
 21
242.55325729782518
  0
LINE
  8
_1-2_
  6
CONTINUOUS
 62
    3
 10
361.50534964896536
 20
241.05213886982688
 11
362.71879453916807
 21
241.44814156197214
  0
LINE
  8
_1-2_
  6
CONTINUOUS
 62
    3
 10
362.84026274809969
 20
242.11892617715372
 11
362.71879453916807
 21
241.44814156197214
  0
LINE
  8
_1-2_
  6
CONTINUOUS
 62
    3
 10
361.50534964896536
 20
241.05213886982688
 11
361.11313278610646
 21
239.03070398279141
  0
LINE
  8
_1-2_
  6
CONTINUOUS
 62
    3
 10
364.41138190192146
 20
240.52783862964529
 11
364.79164742134714
 21
240.65195444467906
  0
LINE
  8
_1-2_
  6
CONTINUOUS
 62
    7
 10
364.17116732210729
 20
242.55325729782518
 11
364.79164742134714
 21
240.65195444467906
  0
LINE
  8
_1-2_
  6
CONTINUOUS
 62
    3
 10
364.41138190192146
 20
240.52783862964529
 11
365.46621786581505
 21
237.2956064585093
  0
LINE
  8
_1-2_
  6
CONTINUOUS
 62
    7
 10
363.75504777238177
 20
236.73718426678633
 11
365.07001722181167
 21
234.64176487278294
  0
LINE
  8
_1-2_
  6
CONTINUOUS
 62
    7
 10
365.07001722181167
 20
234.64176487278294
 11
366.59105455553214
 21
235.1381539009713
  0
LINE
  8
_1-2_
  6
CONTINUOUS
 62
    3
 10
300.23120777027026
 20
212.8506799646326
 11
299.25777950802365
 21
217.79252335831927
  0
LINE
  8
_1-2_
  6
CONTINUOUS
 62
    3
 10
302.17237317884292
 20
219.79557346653294
 11
361.11313278610646
 21
239.03070398279141
  0
LINE
  8
_1-2_
  6
CONTINUOUS
 62
    3
 10
300.23120777027026
 20
212.8506799646326
 11
301.70424177839953
 21
213.49417196737755
  0
LINE
  8
_1-2_
  6
CONTINUOUS
 62
    3
 10
302.5799560546875
 20
216.7728733372044
 11
365.46621786581505
 21
237.2956064585093
  0
LINE
  8
_1-2_
  6
CONTINUOUS
 62
    3
 10
301.89326105891047
 20
215.90052424250425
 11
301.70424177839953
 21
213.49417196737755
  0
LINE
  8
_1-2_
  6
CONTINUOUS
 62
    3
 10
364.17116732210729
 20
242.55325729782518
 11
364.79164742134714
 21
240.65195444467906
  0
LINE
  8
_1-2_
  6
CONTINUOUS
 62
    7
 10
364.79164742134714
 20
240.65195444467906
 11
366.59105455553214
 21
235.1381539009713
  0
LINE
  8
ADD_LINE
  6
DOT
 62
    4
 10
300.23120777027026
 20
212.8506799646326
 11
313.80088187552786
 21
217.27908572635135
  0
LINE
  8
ADD_LINE
  6
DOT
 62
    3
 10
146.94060454497466
 20
144.31596085831927
 11
147.02042863175677
 21
144.31596085831927
  0
LINE
  8
_1-2_
  6
CONTINUOUS
 62
    3
 10
148.71974635768581
 20
146.87257096574115
 11
148.57710967192779
 21
145.02352740313557
  0
LINE
  8
_1-3_
  6
CONTINUOUS
 62
    3
 10
146.96362882047086
 20
144.31596085831927
 11
148.57710967192779
 21
145.02352740313557
  0
LINE
  8
_1-2_
  6
CONTINUOUS
 62
    3
 10
146.96362882047086
 20
144.31596085831927
 11
146.08159245671453
 21
148.76084611222552
  0
LINE
  8
_1-0_
  6
CONTINUOUS
 62
    7
 10
109.60255390888936
 20
128.94804258604307
 11
121.50312269056167
 21
124.43403501768371
  0
LINE
  8
_1-0_
  6
CONTINUOUS
 62
    7
 10
117.80983589790964
 20
132.6413293786951
 11
113.41464893237965
 21
120.79421997070312
  0
LINE
  8
_1-4_
  6
CONTINUOUS
 62
    7
 10
107.48721560916385
 20
123.52812071104309
 11
102.71340859902872
 21
110.41220175253379
  0
LINE
  8
_1-4_
  6
CONTINUOUS
 62
    7
 10
107.48721560916385
 20
123.52812071104309
 11
114.06135765281884
 21
123.52812071104309
  0
LINE
  8
_1-4_
  6
CONTINUOUS
 62
    7
 10
102.71340859902872
 20
110.41220175253379
 11
99.598246393976993
 21
110.41220175253379
  0
LINE
  8
_1-0_
  6
CONTINUOUS
 62
    7
 10
111.29871677707982
 20
117.86820695206926
 11
112.77603149414062
 21
114.5852991052576
  0
LINE
  8
_1-0_
  6
CONTINUOUS
 62
    7
 10
112.77603149414062
 20
114.5852991052576
 11
368.50326950485646
 21
229.66245908994935
  0
LINE
  8
_1-0_
  6
CONTINUOUS
 62
    3
 10
297.16656659100511
 20
193.17462405642948
 11
297.5313423775338
 21
193.33877563476562
  0
LINE
  8
_1-0_
  6
CONTINUOUS
 62
    3
 10
302.4557165197424
 20
182.39572473474453
 11
302.09091598923146
 21
182.23157315640836
  0
LINE
  8
_1-0_
  6
CONTINUOUS
 62
    3
 10
294.7773124076225
 20
196.04717770138302
 11
288.21152145798146
 21
193.09257301124367
  0
LINE
  8
_1-0_
  6
CONTINUOUS
 62
    3
 10
296.0996060758024
 20
195.54562955289273
 11
297.16656659100511
 21
193.17462405642948
  0
LINE
  8
_1-0_
  6
CONTINUOUS
 62
    3
 10
296.30025502797719
 20
196.07454454576649
 11
297.5313423775338
 21
193.33877563476562
  0
LINE
  8
_1-0_
  6
CONTINUOUS
 62
    3
 10
294.97796135979729
 20
196.57610506624789
 11
287.68259409311656
 21
193.29319721943625
  0
LINE
  8
_1-0_
  6
CONTINUOUS
 62
    3
 10
303.15787650443411
 20
179.8605676599451
 11
302.09091598923146
 21
182.23157315640836
  0
LINE
  8
_1-0_
  6
CONTINUOUS
 62
    3
 10
303.68680386929901
 20
179.65995582374367
 11
302.4557165197424
 21
182.39572473474453
  0
LINE
  8
_1-0_
  6
CONTINUOUS
 62
    3
 10
296.09052503431167
 20
175.58368167361698
 11
302.65631598395271
 21
178.53828636375636
  0
LINE
  8
_1-0_
  6
CONTINUOUS
 62
    3
 10
294.76823136613177
 20
176.08522982210727
 11
287.7099609375
 21
191.7702917150549
  0
LINE
  8
_1-0_
  6
CONTINUOUS
 62
    3
 10
294.56760715793922
 20
175.55631482923354
 11
287.18103357263516
 21
191.97090355125636
  0
LINE
  8
_1-0_
  6
CONTINUOUS
 62
    3
 10
295.88987608213682
 20
175.05476668074326
 11
303.18524334881761
 21
178.3376745275549
  0
LINE
  8
ADD_LINE
  6
DOT
 62
    3
 10
287.68259409311656
 20
193.29319721943625
 11
286.40751194309547
 21
192.71939664273648
  0
LINE
  8
ADD_LINE
  6
DOT
 62
    3
 10
287.18103357263516
 20
191.97090355125636
 11
286.56087514516469
 21
193.349044387405
  0
LINE
  8
ADD_LINE
  6
DOT
 62
    3
 10
295.88987608213682
 20
175.05476668074326
 11
294.15787155563771
 21
174.27535598342484
  0
LINE
  8
ADD_LINE
  6
DOT
 62
    3
 10
294.56760715793922
 20
175.55631482923354
 11
295.15510352882183
 21
174.25073572107266
  0
LINE
  8
_1-0_
  6
CONTINUOUS
 62
    3
 10
132.53308682828336
 20
119.08961940456082
 11
132.89787498680323
 21
119.25377098289697
  0
LINE
  8
_1-0_
  6
CONTINUOUS
 62
    3
 10
137.8222367570207
 20
108.31070771088471
 11
137.45744859850086
 21
108.14655613254857
  0
LINE
  8
_1-0_
  6
CONTINUOUS
 62
    3
 10
130.14385738888302
 20
121.96217304951436
 11
123.57806643924198
 21
119.007568359375
  0
LINE
  8
_1-0_
  6
CONTINUOUS
 62
    3
 10
131.46615105706292
 20
121.46061252903294
 11
132.53308682828336
 21
119.08961940456082
  0
LINE
  8
_1-0_
  6
CONTINUOUS
 62
    3
 10
131.66678763724664
 20
121.98952752190668
 11
132.89787498680323
 21
119.25377098289697
  0
LINE
  8
_1-0_
  6
CONTINUOUS
 62
    3
 10
130.34449396906672
 20
122.4910880423881
 11
123.04913907437712
 21
119.20819256756758
  0
LINE
  8
_1-0_
  6
CONTINUOUS
 62
    3
 10
138.52440911370354
 20
105.77555063608531
 11
137.45744859850086
 21
108.14655613254857
  0
LINE
  8
_1-0_
  6
CONTINUOUS
 62
    3
 10
139.05332410657729
 20
105.57493879988387
 11
137.8222367570207
 21
108.31070771088471
  0
LINE
  8
_1-0_
  6
CONTINUOUS
 62
    3
 10
131.45704527158995
 20
101.49867083575275
 11
138.02283622123102
 21
104.45326933989654
  0
LINE
  8
_1-0_
  6
CONTINUOUS
 62
    3
 10
130.13475160341005
 20
102.00022517023861
 11
123.07650591876056
 21
117.68528706318624
  0
LINE
  8
_1-0_
  6
CONTINUOUS
 62
    3
 10
129.9341273952175
 20
101.47131017736487
 11
122.5475785538957
 21
117.88589889938767
  0
LINE
  8
_1-0_
  6
CONTINUOUS
 62
    3
 10
131.25640869140625
 20
100.96975584287902
 11
138.55176358609586
 21
104.2526575036951
  0
LINE
  8
ADD_LINE
  6
DOT
 62
    3
 10
123.04913907437712
 20
119.20819256756758
 11
121.77403218037374
 21
118.63439199086783
  0
LINE
  8
ADD_LINE
  6
DOT
 62
    3
 10
122.5475785538957
 20
117.88589889938767
 11
121.92742012642526
 21
119.26403973553633
  0
LINE
  8
ADD_LINE
  6
DOT
 62
    3
 10
131.25640869140625
 20
100.96975584287902
 11
129.52440416490711
 21
100.19035133155617
  0
LINE
  8
ADD_LINE
  6
DOT
 62
    3
 10
129.9341273952175
 20
101.47131017736487
 11
130.52163613809122
 21
100.16571869721284
  0
LINE
  8
_1-0_
  6
CONTINUOUS
 62
    7
 10
138.55176358609586
 20
104.25264513170397
 11
373.2717565588049
 21
209.87655227248734
  0
LINE
  8
_1-0_
  6
CONTINUOUS
 62
    7
 10
140.19321750950169
 20
100.60496149836361
 11
374.91319811021964
 21
206.22885626715583
  0
LINE
  8
_1-0_
  6
CONTINUOUS
 62
    7
 10
140.19321750950169
 20
100.60496149836361
 11
130.68255862674198
 21
96.325168094119519
  0
LINE
  8
_1-0_
  6
CONTINUOUS
 62
    7
 10
140.68565987251901
 20
99.510652696764154
 11
375.40562810124578
 21
205.13455365155195
  0
LINE
  8
_1-0_
  6
CONTINUOUS
 62
    7
 10
117.71616755305111
 20
116.9254612278294
 11
129.7426460884713
 21
90.199956120671459
  0
LINE
  8
_1-0_
  6
CONTINUOUS
 62
    7
 10
134.11985655088682
 20
92.169700828758451
 11
129.7426460884713
 21
90.199956120671459
  0
LINE
  8
_1-0_
  6
CONTINUOUS
 62
    7
 10
140.68565987251901
 20
99.510652696764154
 11
131.1750009897593
 21
95.230859292520066
  0
LINE
  8
_1-0_
  6
CONTINUOUS
 62
    7
 10
130.68255862674198
 20
96.325168094119519
 11
131.1750009897593
 21
95.230859292520066
  0
LINE
  8
_1-0_
  6
CONTINUOUS
 62
    7
 10
122.09339038745777
 20
118.89520593591639
 11
131.9859602644637
 21
96.911699449693842
  0
LINE
  8
_1-0_
  6
CONTINUOUS
 62
    7
 10
132.47840262748102
 20
95.817384462098829
 11
134.11985655088682
 21
92.169700828758451
  0
LINE
  8
_1-0_
  6
DASHED1
 62
    7
 10
138.36299174540753
 20
104.67212986301732
 11
373.08298471811656
 21
210.29603700380068
  0
LINE
  8
_1-0_
  6
DASHED1
 62
    7
 10
131.30078702359586
 20
122.41700455949113
 11
368.69204134554479
 21
229.24297435863599
  0
LINE
  8
_1-0_
  6
CONTINUOUS
 62
    7
 10
129.19059547218117
 20
91.426731831318634
 11
130.20796904692779
 21
90.409352070576446
  0
LINE
  8
_1-0_
  6
CONTINUOUS
 62
    7
 10
128.03350500158362
 20
93.998039864205026
 11
131.1833025958087
 21
90.848248455975508
  0
LINE
  8
_1-0_
  6
CONTINUOUS
 62
    7
 10
126.8764269029772
 20
96.569341711095873
 11
132.15862377269849
 21
91.287144841374584
  0
LINE
  8
_1-0_
  6
CONTINUOUS
 62
    7
 10
125.71933643237965
 20
99.140649743982266
 11
133.13394494958825
 21
91.72604122677366
  0
LINE
  8
_1-0_
  6
CONTINUOUS
 62
    7
 10
124.5622459617821
 20
101.7119515908731
 11
134.10926612647805
 21
92.164931426177162
  0
LINE
  8
_1-0_
  6
CONTINUOUS
 62
    7
 10
123.40515549118454
 20
104.28325343776395
 11
131.15200145824537
 21
96.536413656698699
  0
LINE
  8
_1-0_
  6
CONTINUOUS
 62
    7
 10
132.05952412373313
 20
95.628897177206511
 11
132.97534839527029
 21
94.71307290566935
  0
LINE
  8
_1-0_
  6
CONTINUOUS
 62
    7
 10
122.24807739257812
 20
106.85456147065034
 11
131.81825792467274
 21
97.284380938555742
  0
LINE
  8
_1-0_
  6
CONTINUOUS
 62
    7
 10
121.09098692198059
 20
109.42586950353675
 11
130.66116745407518
 21
99.855688971442149
  0
LINE
  8
_1-0_
  6
CONTINUOUS
 62
    7
 10
119.93389645138303
 20
111.99717753642315
 11
129.50407698347763
 21
102.42698463233742
  0
LINE
  8
_1-0_
  6
CONTINUOUS
 62
    7
 10
118.77680598078548
 20
114.56848556930954
 11
128.3469988848712
 21
104.99829266522383
  0
LINE
  8
_1-0_
  6
CONTINUOUS
 62
    7
 10
117.87822826488599
 20
116.88128084749789
 11
127.18990841427366
 21
107.56960069811022
  0
LINE
  8
_1-0_
  6
CONTINUOUS
 62
    7
 10
118.85354944177577
 20
117.32017723289697
 11
126.03283031566724
 21
110.14090873099663
  0
LINE
  8
_1-0_
  6
CONTINUOUS
 62
    7
 10
119.82887061866555
 20
117.75907361829604
 11
124.87573984506969
 21
112.7122043918919
  0
LINE
  8
_1-0_
  6
CONTINUOUS
 62
    7
 10
120.80419179555533
 20
118.1979700036951
 11
123.71864937447214
 21
115.28351242477829
  0
LINE
  8
_1-0_
  6
CONTINUOUS
 62
    7
 10
121.7795129724451
 20
118.63686638909418
 11
122.56157127586572
 21
117.85480808567357
  0
LINE
  8
ADD_LINE
  6
DOT
 62
    7
 10
366.48648648648651
 20
232.70270270270271
 11
367.9098840661951
 21
229.53960521801099
  0
LINE
  8
_1-0_
  6
CONTINUOUS
 62
    7
 10
111.35140908730997
 20
117.75111842799832
 11
113.97685695338895
 21
115.12567056191935
  0
LINE
  8
_1-0_
  6
CONTINUOUS
 62
    7
 10
113.20493131070525
 20
118.72600658519849
 11
115.92748693517737
 21
116.00345096072635
  0
LINE
  8
_1-0_
  6
CONTINUOUS
 62
    7
 10
115.15557366448481
 20
119.60379935599663
 11
117.87812928895693
 21
116.88124373152451
  0
LINE
  8
_1-0_
  6
CONTINUOUS
 62
    7
 10
117.10620364627323
 20
120.48157975480363
 11
119.82875927074537
 21
117.75902413033151
  0
LINE
  8
_1-0_
  6
CONTINUOUS
 62
    7
 10
119.05683362806167
 20
121.35936015361065
 11
121.77938925253379
 21
118.63680452913852
  0
LINE
  8
_1-0_
  6
CONTINUOUS
 62
    7
 10
121.00747598184122
 20
122.23715292440879
 11
123.73003160631335
 21
119.51459729993667
  0
LINE
  8
_1-0_
  6
CONTINUOUS
 62
    7
 10
122.95810596362965
 20
123.11493332321579
 11
125.68066158810178
 21
120.39237769874367
  0
LINE
  8
_1-0_
  6
CONTINUOUS
 62
    7
 10
124.90873594541809
 20
123.99271372202281
 11
127.63129156989021
 21
121.27015809755068
  0
LINE
  8
_1-0_
  6
CONTINUOUS
 62
    7
 10
126.85937829919764
 20
124.87050649282095
 11
129.58193392366977
 21
122.14795086834883
  0
LINE
  8
_1-0_
  6
CONTINUOUS
 62
    7
 10
128.81000828098607
 20
125.74828689162797
 11
131.5325639054582
 21
123.02573126715583
  0
LINE
  8
_1-0_
  6
CONTINUOUS
 62
    7
 10
130.76063826277451
 20
126.62606729043497
 11
133.48319388724664
 21
123.90351166596284
  0
LINE
  8
_1-0_
  6
CONTINUOUS
 62
    7
 10
132.71128061655406
 20
127.50386006123311
 11
135.4338362410262
 21
124.78130443676099
  0
LINE
  8
_1-0_
  6
CONTINUOUS
 62
    7
 10
134.66192297033362
 20
128.38164046004013
 11
137.38446622281461
 21
125.659084835568
  0
LINE
  8
_1-0_
  6
CONTINUOUS
 62
    7
 10
136.61254058013091
 20
129.25942085884714
 11
139.33509620460305
 21
126.536865234375
  0
LINE
  8
_1-0_
  6
CONTINUOUS
 62
    7
 10
138.56318293391047
 20
130.13721362964529
 11
141.2857385583826
 21
127.41465800517315
  0
LINE
  8
_1-0_
  6
CONTINUOUS
 62
    7
 10
140.51382528769005
 20
131.01500640044341
 11
143.23636854017104
 21
128.29243840398016
  0
LINE
  8
_1-0_
  6
CONTINUOUS
 62
    7
 10
142.46446764146961
 20
131.89278679925042
 11
145.18699852195948
 21
129.17023117477831
  0
LINE
  8
_1-0_
  6
CONTINUOUS
 62
    7
 10
144.4150852512669
 20
132.77056719805745
 11
147.13764087573904
 21
130.04801157358531
  0
LINE
  8
_1-0_
  6
CONTINUOUS
 62
    7
 10
146.36570286106419
 20
133.64834759686445
 11
149.08827085752745
 21
130.92579197239232
  0
LINE
  8
_1-0_
  6
CONTINUOUS
 62
    7
 10
148.31634521484375
 20
134.52614036766261
 11
151.03890083931589
 21
131.80357237119932
  0
LINE
  8
_1-0_
  6
CONTINUOUS
 62
    7
 10
150.26698756862331
 20
135.40392076646961
 11
152.98954319309544
 21
132.68136514199747
  0
LINE
  8
_1-0_
  6
CONTINUOUS
 62
    7
 10
152.21760517842063
 20
136.28171353726773
 11
154.940185546875
 21
133.55914554080448
  0
LINE
  8
_1-0_
  6
CONTINUOUS
 62
    7
 10
154.16824753220018
 20
137.15949393607477
 11
156.89081552866344
 21
134.43693831160263
  0
LINE
  8
_1-0_
  6
CONTINUOUS
 62
    7
 10
156.11888988597974
 20
138.03727433488177
 11
158.84144551045188
 21
135.31471871040964
  0
LINE
  8
_1-0_
  6
CONTINUOUS
 62
    7
 10
158.0695322397593
 20
138.9150671056799
 11
160.79208786423143
 21
136.19251148120779
  0
LINE
  8
_1-0_
  6
CONTINUOUS
 62
    7
 10
160.02018696553
 20
139.79285987647805
 11
162.74273021801099
 21
137.07029188001479
  0
LINE
  8
_1-0_
  6
CONTINUOUS
 62
    7
 10
161.97080457532729
 20
140.6706526472762
 11
164.69337257179055
 21
137.94808465081292
  0
LINE
  8
_1-0_
  6
CONTINUOUS
 62
    7
 10
163.92147167308912
 20
141.54844541807432
 11
166.64402729756125
 21
138.82587742161107
  0
LINE
  8
_1-0_
  6
CONTINUOUS
 62
    7
 10
165.87211402686867
 20
142.42622581688136
 11
168.59466965134081
 21
139.70367019240922
  0
LINE
  8
_1-0_
  6
CONTINUOUS
 62
    7
 10
167.82276875263938
 20
143.30403095967063
 11
170.54532437711148
 21
140.58146296320734
  0
LINE
  8
_1-0_
  6
CONTINUOUS
 62
    7
 10
169.77341110641893
 20
144.18181135847763
 11
172.49596673089107
 21
141.45924336201438
  0
LINE
  8
_1-0_
  6
CONTINUOUS
 62
    7
 10
171.72405346019849
 20
145.05960412927575
 11
174.44660908467063
 21
142.3370361328125
  0
LINE
  8
_1-0_
  6
CONTINUOUS
 62
    7
 10
173.67469581397805
 20
145.93738452808279
 11
176.3972638104413
 21
143.21482890361065
  0
LINE
  8
_1-0_
  6
CONTINUOUS
 62
    7
 10
175.6253381677576
 20
146.81517729888091
 11
178.34790616422086
 21
144.0926216744088
  0
LINE
  8
_1-0_
  6
CONTINUOUS
 62
    7
 10
177.57598052153716
 20
147.69297006967906
 11
180.29856088999156
 21
144.97041444520693
  0
LINE
  8
_1-0_
  6
CONTINUOUS
 62
    7
 10
179.52663524730787
 20
148.57076284047722
 11
182.24920324377112
 21
145.84820721600508
  0
LINE
  8
_1-0_
  6
CONTINUOUS
 62
    7
 10
181.47727760108742
 20
149.44855561127534
 11
184.19987034153294
 21
146.72599998680323
  0
LINE
  8
_1-0_
  6
CONTINUOUS
 62
    7
 10
183.42793232685813
 20
150.32634838207349
 11
186.15050032332138
 21
147.60378038561024
  0
LINE
  8
_1-0_
  6
CONTINUOUS
 62
    7
 10
185.37857468063768
 20
151.20414115287164
 11
188.10115504909209
 21
148.48157315640836
  0
LINE
  8
_1-0_
  6
CONTINUOUS
 62
    7
 10
187.32922940640836
 20
152.08193392366977
 11
190.05179740287164
 21
149.35936592720651
  0
LINE
  8
_1-0_
  6
CONTINUOUS
 62
    7
 10
189.27987176018794
 20
152.95972669446792
 11
192.0024397566512
 21
150.23715869800466
  0
LINE
  8
_1-0_
  6
CONTINUOUS
 62
    7
 10
191.2305141139675
 20
153.83751946526607
 11
193.95308211043076
 21
151.11493909681167
  0
LINE
  8
_1-0_
  6
CONTINUOUS
 62
    7
 10
193.18115646774706
 20
154.71529986407307
 11
195.90372446421031
 21
151.99273186760982
  0
LINE
  8
_1-0_
  6
CONTINUOUS
 62
    7
 10
195.13181119351773
 20
155.59310500686234
 11
197.85437918998102
 21
152.87052463840794
  0
LINE
  8
_1-0_
  6
CONTINUOUS
 62
    7
 10
197.08244117530617
 20
156.47087303367823
 11
199.80502154376057
 21
153.74831740920609
  0
LINE
  8
_1-0_
  6
CONTINUOUS
 62
    7
 10
199.03309590107688
 20
157.3486781764675
 11
201.75566389754013
 21
154.62611018000422
  0
LINE
  8
_1-0_
  6
CONTINUOUS
 62
    7
 10
200.98372588286529
 20
158.22645857527451
 11
203.70631862331084
 21
155.50389057881125
  0
LINE
  8
_1-0_
  6
CONTINUOUS
 62
    7
 10
202.93438060863599
 20
159.10425134607263
 11
205.65696097709039
 21
156.38168334960937
  0
LINE
  8
_1-0_
  6
CONTINUOUS
 62
    7
 10
204.88502296241555
 20
159.98204411687078
 11
207.60760333086995
 21
157.25947612040753
  0
LINE
  8
_1-0_
  6
CONTINUOUS
 62
    7
 10
206.8356653161951
 20
160.85983688766893
 11
209.55827042863177
 21
158.13726889120568
  0
LINE
  8
_1-0_
  6
CONTINUOUS
 62
    7
 10
208.78633241395693
 20
161.73762965846706
 11
211.50888803842906
 21
159.01504929001268
  0
LINE
  8
_1-0_
  6
CONTINUOUS
 62
    7
 10
210.73695002375425
 20
162.61541005727409
 11
213.45955513619089
 21
159.89284206081081
  0
LINE
  8
_1-0_
  6
CONTINUOUS
 62
    7
 10
212.6875923775338
 20
163.49319045608109
 11
215.41017274598818
 21
160.77063483160896
  0
LINE
  8
_1-0_
  6
CONTINUOUS
 62
    7
 10
214.63825947529563
 20
164.37099559887037
 11
217.36083984375
 21
161.64842760240711
  0
LINE
  8
_1-0_
  6
CONTINUOUS
 62
    7
 10
216.58892657305745
 20
165.24878836966852
 11
219.31148219752959
 21
162.52620800121412
  0
LINE
  8
_1-0_
  6
CONTINUOUS
 62
    7
 10
218.53954418285474
 20
166.12658114046664
 11
221.26212455130914
 21
163.40401314400339
  0
LINE
  8
_1-0_
  6
CONTINUOUS
 62
    7
 10
220.49021128061656
 20
167.00436153927365
 11
223.21279164907097
 21
164.28179354281039
  0
LINE
  8
_1-0_
  6
CONTINUOUS
 62
    7
 10
222.44085363439612
 20
167.88216668206294
 11
225.16340925886826
 21
165.15958631360854
  0
LINE
  8
_1-0_
  6
CONTINUOUS
 62
    7
 10
224.39149598817568
 20
168.75994708086995
 11
227.11407635663008
 21
166.03736671241555
  0
LINE
  8
_1-0_
  6
CONTINUOUS
 62
    7
 10
226.342113597973
 20
169.63773985166807
 11
229.06469396642737
 21
166.9151594832137
  0
LINE
  8
_1-0_
  6
CONTINUOUS
 62
    7
 10
228.29278069573482
 20
170.51553262246622
 11
231.01536106418919
 21
167.79295225401182
  0
LINE
  8
_1-0_
  6
CONTINUOUS
 62
    7
 10
230.24342304951438
 20
171.39332539326438
 11
232.96600341796875
 21
168.67074502480997
  0
LINE
  8
_1-0_
  6
CONTINUOUS
 62
    7
 10
232.19406540329393
 20
172.2711181640625
 11
234.91664577174834
 21
169.54853779560813
  0
LINE
  8
_1-0_
  6
CONTINUOUS
 62
    7
 10
234.14473250105576
 20
173.14891093486065
 11
236.86728812552789
 21
170.42631819441513
  0
LINE
  8
_1-0_
  6
CONTINUOUS
 62
    7
 10
236.09535011085305
 20
174.02667896167654
 11
238.81793047930745
 21
171.30411096521328
  0
LINE
  8
_1-0_
  6
CONTINUOUS
 62
    7
 10
238.04601720861487
 20
174.90448410446581
 11
240.76859757706927
 21
172.18190373601141
  0
LINE
  8
_1-0_
  6
CONTINUOUS
 62
    7
 10
239.99663481841216
 20
175.78226450327281
 11
242.71923993084883
 21
173.05969650680956
  0
LINE
  8
_1-0_
  6
CONTINUOUS
 62
    7
 10
241.94730191617401
 20
176.66005727407097
 11
244.66988228462839
 21
173.93747690561656
  0
LINE
  8
_1-0_
  6
CONTINUOUS
 62
    7
 10
243.89794426995357
 20
177.53785004486909
 11
246.62054938239021
 21
174.81526967641472
  0
LINE
  8
_1-0_
  6
CONTINUOUS
 62
    7
 10
245.84858662373313
 20
178.41564281566724
 11
248.57119173616977
 21
175.69306244721284
  0
LINE
  8
_1-0_
  6
CONTINUOUS
 62
    7
 10
247.79925372149495
 20
179.29343558646539
 11
250.52183408994935
 21
176.57085521801099
  0
LINE
  8
_1-0_
  6
CONTINUOUS
 62
    7
 10
249.74987133129224
 20
180.17122835726352
 11
252.47245169974664
 21
177.44864798880914
  0
LINE
  8
_1-0_
  6
CONTINUOUS
 62
    7
 10
251.70053842905406
 20
181.04902112806167
 11
254.42311879750847
 21
178.32644075960727
  0
LINE
  8
_1-0_
  6
CONTINUOUS
 62
    7
 10
253.65115603885135
 20
181.92681389885982
 11
256.37376115128802
 21
179.20423353040542
  0
LINE
  8
_1-0_
  6
CONTINUOUS
 62
    7
 10
255.60182313661318
 20
182.80459429766682
 11
258.32440350506761
 21
180.08201392921242
  0
LINE
  8
_1-0_
  6
CONTINUOUS
 62
    7
 10
257.55246549039276
 20
183.68238706846495
 11
260.27507060282943
 21
180.95980670001057
  0
LINE
  8
_1-0_
  6
CONTINUOUS
 62
    7
 10
259.50310784417229
 20
184.5601798392631
 11
262.22571295660896
 21
181.8375994708087
  0
LINE
  8
_1-0_
  6
CONTINUOUS
 62
    7
 10
261.45377494193411
 20
185.43797261006125
 11
264.17635531038854
 21
182.71537986961573
  0
LINE
  8
_1-0_
  6
CONTINUOUS
 62
    7
 10
263.40439255173146
 20
186.31575300886826
 11
266.12699766416807
 21
183.59317264041385
  0
LINE
  8
_1-0_
  6
CONTINUOUS
 62
    7
 10
265.35503490551099
 20
187.19354577966641
 11
268.07764001794766
 21
184.47096541121201
  0
LINE
  8
_1-0_
  6
CONTINUOUS
 62
    7
 10
267.30567725929058
 20
188.07133855046453
 11
270.02828237172719
 21
185.34875818201016
  0
LINE
  8
_1-0_
  6
CONTINUOUS
 62
    7
 10
269.2563443570524
 20
188.94913132126268
 11
271.97892472550677
 21
186.22655095280828
  0
LINE
  8
_1-0_
  6
CONTINUOUS
 62
    7
 10
271.20696196684969
 20
189.82692409206084
 11
273.92959182326859
 21
187.10434372360643
  0
LINE
  8
_1-0_
  6
CONTINUOUS
 62
    7
 10
273.15762906461151
 20
190.70471686285896
 11
275.88020943306589
 21
187.98212412241344
  0
LINE
  8
_1-0_
  6
CONTINUOUS
 62
    7
 10
275.10827141839104
 20
191.58250963365711
 11
277.83087653082771
 21
188.85992926520271
  0
LINE
  8
_1-0_
  6
CONTINUOUS
 62
    7
 10
277.05891377217063
 20
192.46030240445523
 11
279.78154362858953
 21
189.73772203600086
  0
LINE
  8
_1-0_
  6
CONTINUOUS
 62
    7
 10
279.00958086993245
 20
193.33809517525339
 11
281.73216123838682
 21
190.61550243480787
  0
LINE
  8
_1-0_
  6
CONTINUOUS
 62
    7
 10
280.96022322371203
 20
194.21587557406039
 11
283.68282833614865
 21
191.49328283361487
  0
LINE
  8
_1-0_
  6
CONTINUOUS
 62
    7
 10
282.91086557749156
 20
195.09366834485854
 11
285.63344594594594
 21
192.37107560441302
  0
LINE
  8
_1-0_
  6
CONTINUOUS
 62
    7
 10
284.86148318728885
 20
195.97144874366555
 11
287.58411304370776
 21
193.24886837521115
  0
LINE
  8
_1-0_
  6
CONTINUOUS
 62
    7
 10
286.81215028505068
 20
196.84925388645482
 11
289.53475539748734
 21
194.1266611460093
  0
LINE
  8
_1-0_
  6
CONTINUOUS
 62
    7
 10
288.7628173828125
 20
197.72704665725297
 11
291.48539775126693
 21
195.00445391680745
  0
LINE
  8
_1-0_
  6
CONTINUOUS
 62
    7
 10
290.71343499260979
 20
198.60482705605997
 11
293.43604010504646
 21
195.88224668760557
  0
LINE
  8
_1-0_
  6
CONTINUOUS
 62
    7
 10
292.66410209037161
 20
199.48261982685813
 11
295.38668245882604
 21
196.76002708641261
  0
LINE
  8
_1-0_
  6
CONTINUOUS
 62
    7
 10
294.61471970016896
 20
200.36041259765625
 11
297.33734955658787
 21
197.63781985721073
  0
LINE
  8
_1-0_
  6
CONTINUOUS
 62
    7
 10
296.56538679793078
 20
201.2382053684544
 11
299.2879919103674
 21
198.51561262800888
  0
LINE
  8
_1-0_
  6
CONTINUOUS
 62
    7
 10
298.51602915171031
 20
202.11599813925255
 11
301.23863426414698
 21
199.39339302681589
  0
LINE
  8
_1-0_
  6
CONTINUOUS
 62
    7
 10
300.4666715054899
 20
202.99379091005068
 11
303.18925187394427
 21
200.27118579761404
  0
LINE
  8
_1-0_
  6
CONTINUOUS
 62
    7
 10
302.41731385926943
 20
203.87157130885771
 11
305.13991897170609
 21
201.14897856841216
  0
LINE
  8
_1-0_
  6
CONTINUOUS
 62
    7
 10
304.36795621304901
 20
204.74936407965583
 11
307.09056132548568
 21
202.02677133921031
  0
LINE
  8
_1-0_
  6
CONTINUOUS
 62
    7
 10
306.31859856682854
 20
205.62715685045399
 11
309.04120367926521
 21
202.90456411000847
  0
LINE
  8
_1-0_
  6
CONTINUOUS
 62
    7
 10
308.26924092060813
 20
206.50493724926099
 11
310.99187077702703
 21
203.78235688080659
  0
LINE
  8
_1-0_
  6
CONTINUOUS
 62
    7
 10
310.21990801836995
 20
207.38273002005914
 11
312.94248838682432
 21
204.66012490762247
  0
LINE
  8
_1-0_
  6
CONTINUOUS
 62
    7
 10
312.17055037214953
 20
208.26052279085727
 11
314.89315548458615
 21
205.53791767842063
  0
LINE
  8
_1-0_
  6
CONTINUOUS
 62
    7
 10
314.12119272592906
 20
209.13831556165542
 11
316.84379783836573
 21
206.41571044921875
  0
LINE
  8
_1-0_
  6
CONTINUOUS
 62
    7
 10
316.07183507970865
 20
210.01610833245357
 11
318.79444019214532
 21
207.2935032200169
  0
LINE
  8
_1-0_
  6
CONTINUOUS
 62
    7
 10
318.02247743348818
 20
210.89390110325169
 11
320.74510728990714
 21
208.17129599081505
  0
LINE
  8
_1-0_
  6
CONTINUOUS
 62
    7
 10
319.97314453125
 20
211.77169387404984
 11
322.69572489970443
 21
209.04908876161318
  0
LINE
  8
_1-0_
  6
CONTINUOUS
 62
    7
 10
321.92376214104729
 20
212.649486644848
 11
324.64639199746625
 21
209.92688153241133
  0
LINE
  8
_1-0_
  6
CONTINUOUS
 62
    7
 10
323.87442923880911
 20
213.52727941564612
 11
326.59705909522808
 21
210.80467430320948
  0
LINE
  8
_1-0_
  6
CONTINUOUS
 62
    7
 10
325.8250715925887
 20
214.40507218644427
 11
328.54767670502537
 21
211.6824670740076
  0
LINE
  8
_1-0_
  6
CONTINUOUS
 62
    7
 10
327.77571394636828
 20
215.28284021326016
 11
330.49829431482266
 21
212.56025984480576
  0
LINE
  8
_1-0_
  6
CONTINUOUS
 62
    7
 10
329.72635630014781
 20
216.16065772804055
 11
332.44896141258448
 21
213.43802787162164
  0
LINE
  8
_1-0_
  6
CONTINUOUS
 62
    7
 10
331.6769986539274
 20
217.03842575485643
 11
334.3996285103463
 21
214.31584538640203
  0
LINE
  8
_1-0_
  6
CONTINUOUS
 62
    7
 10
333.62766575168922
 20
217.91621852565459
 11
336.35024612014359
 21
215.19361341321792
  0
LINE
  8
_1-0_
  6
CONTINUOUS
 62
    7
 10
335.57830810546875
 20
218.79401129645271
 11
338.30091321790542
 21
216.07140618401607
  0
LINE
  8
_1-0_
  6
CONTINUOUS
 62
    7
 10
337.52895045924834
 20
219.67180406725086
 11
340.25158031566724
 21
216.94919895481419
  0
LINE
  8
_1-0_
  6
CONTINUOUS
 62
    7
 10
339.47959281302786
 20
220.54959683804901
 11
342.20219792546453
 21
217.82699172561234
  0
LINE
  8
_1-0_
  6
CONTINUOUS
 62
    7
 10
341.43023516680745
 20
221.42738960884714
 11
344.15286502322635
 21
218.7047844964105
  0
LINE
  8
_1-0_
  6
CONTINUOUS
 62
    7
 10
343.38087752058703
 20
222.30518237964529
 11
346.10348263302365
 21
219.58257726720862
  0
LINE
  8
_1-0_
  6
CONTINUOUS
 62
    7
 10
345.33151987436656
 20
223.18297515044341
 11
348.05414973078547
 21
220.46037003800677
  0
LINE
  8
_1-0_
  6
CONTINUOUS
 62
    7
 10
347.28216222814615
 20
224.06076792124156
 11
350.00481682854729
 21
221.33813806482266
  0
LINE
  8
_1-0_
  6
CONTINUOUS
 62
    7
 10
349.23282932590797
 20
224.93856069203972
 11
351.95543443834464
 21
222.21595557960305
  0
LINE
  8
_1-0_
  6
CONTINUOUS
 62
    7
 10
351.1834716796875
 20
225.81635346283784
 11
353.90605204814193
 21
223.09372360641893
  0
LINE
  8
_1-0_
  6
CONTINUOUS
 62
    7
 10
353.13411403346709
 20
226.69412148965372
 11
355.85671914590375
 21
223.97154112119932
  0
LINE
  8
_1-0_
  6
CONTINUOUS
 62
    7
 10
355.08475638724661
 20
227.57191426045188
 11
357.80738624366558
 21
224.84930914801521
  0
LINE
  8
_1-0_
  6
CONTINUOUS
 62
    7
 10
357.0353987410262
 20
228.44970703125
 11
359.75800385346287
 21
225.72710191881336
  0
LINE
  8
_1-0_
  6
CONTINUOUS
 62
    7
 10
358.98601635082349
 20
229.32749980204815
 11
361.70862146326016
 21
226.60489468961151
  0
LINE
  8
_1-0_
  6
CONTINUOUS
 62
    7
 10
360.93665870460308
 20
230.2052925728463
 11
363.65928856102198
 21
227.48266271642737
  0
LINE
  8
_1-0_
  6
CONTINUOUS
 62
    7
 10
362.8873010583826
 20
231.08308534364443
 11
365.60990617081927
 21
228.36045548722552
  0
LINE
  8
_1-0_
  6
CONTINUOUS
 62
    7
 10
364.83796815614443
 20
231.96087811444258
 11
367.56057326858109
 21
229.23824825802367
  0
LINE
  8
_1-0_
  6
CONTINUOUS
 62
    7
 10
362.90999129011828
 20
227.14550121410474
 11
367.10120123785896
 21
231.33668641786318
  0
LINE
  8
_1-0_
  6
CONTINUOUS
 62
    7
 10
357.76739996832771
 20
224.83132027290964
 11
364.94515908731
 21
232.00910413587417
  0
LINE
  8
_1-0_
  6
CONTINUOUS
 62
    7
 10
352.62485813450172
 20
222.51718881967906
 11
359.80259250950172
 21
229.69494793866133
  0
LINE
  8
_1-0_
  6
CONTINUOUS
 62
    7
 10
347.48221732474661
 20
220.20300787848396
 11
354.66000118771115
 21
227.38076699746622
  0
LINE
  8
_1-0_
  6
CONTINUOUS
 62
    7
 10
342.33962600295609
 20
217.88882693728885
 11
349.51738512193839
 21
225.06661080025339
  0
LINE
  8
_1-0_
  6
CONTINUOUS
 62
    7
 10
337.19708416913011
 20
215.57467074007602
 11
344.37481854413011
 21
222.75245460304055
  0
LINE
  8
_1-0_
  6
CONTINUOUS
 62
    7
 10
332.054443359375
 20
213.26051454286318
 11
339.23220247835729
 21
220.43827366184544
  0
LINE
  8
_1-0_
  6
CONTINUOUS
 62
    7
 10
326.91185203758448
 20
210.94633360166807
 11
334.08958641258448
 21
218.12409272065034
  0
LINE
  8
_1-0_
  6
CONTINUOUS
 62
    7
 10
321.76926071579396
 20
208.63217740445523
 11
328.94699509079396
 21
215.8099365234375
  0
LINE
  8
_1-0_
  6
CONTINUOUS
 62
    7
 10
316.62666939400339
 20
206.31802120724242
 11
323.80440376900339
 21
213.49578032622466
  0
LINE
  8
_1-0_
  6
CONTINUOUS
 62
    7
 10
311.48407807221287
 20
204.00384026604732
 11
318.66181244721287
 21
211.18159938502959
  0
LINE
  8
_1-0_
  6
CONTINUOUS
 62
    7
 10
306.34148675042229
 20
201.68968406883448
 11
313.51924586940459
 21
208.86744318781675
  0
LINE
  8
_1-0_
  6
CONTINUOUS
 62
    7
 10
301.19892017261401
 20
199.37552787162164
 11
308.37662980363177
 21
206.55326224662164
  0
LINE
  8
_1-0_
  6
CONTINUOUS
 62
    7
 10
296.05630410684125
 20
197.06134693042654
 11
303.23401373785896
 21
204.23909367741766
  0
LINE
  8
_1-0_
  6
CONTINUOUS
 62
    7
 10
290.91371278505068
 20
194.7471907332137
 11
298.09142241606844
 21
201.9249251082137
  0
LINE
  8
_1-0_
  6
CONTINUOUS
 62
    7
 10
285.77112146326016
 20
192.43302216400971
 11
292.94885583826016
 21
199.61076891100086
  0
LINE
  8
_1-0_
  6
CONTINUOUS
 62
    7
 10
280.62850539748734
 20
190.11885359480576
 11
287.80623977248734
 21
197.29658796980576
  0
LINE
  8
_1-0_
  6
CONTINUOUS
 62
    7
 10
275.48588933171453
 20
187.80468502560177
 11
282.66364845069683
 21
194.98241940060177
  0
LINE
  8
_1-0_
  6
CONTINUOUS
 62
    7
 10
270.34329800992401
 20
185.49051645639781
 11
277.52108187288854
 21
192.66827557538008
  0
LINE
  8
_1-0_
  6
CONTINUOUS
 62
    7
 10
265.20073143211573
 20
183.17636025918497
 11
272.37846580711573
 21
190.35409463418497
  0
LINE
  8
_1-0_
  6
CONTINUOUS
 62
    7
 10
260.05811536634292
 20
180.86219168998102
 11
267.23584974134292
 21
188.03991369298987
  0
LINE
  8
_1-0_
  6
CONTINUOUS
 62
    7
 10
254.91552404455237
 20
178.54802312077703
 11
262.0932584195524
 21
185.72574512378591
  0
LINE
  8
_1-0_
  6
CONTINUOUS
 62
    7
 10
249.77298221072635
 20
176.23386692356419
 11
256.95066709776182
 21
183.41158892657307
  0
LINE
  8
_1-0_
  6
CONTINUOUS
 62
    7
 10
244.63036614495357
 20
173.91969835436024
 11
251.8080757759713
 21
181.09740798537797
  0
LINE
  8
_1-0_
  6
CONTINUOUS
 62
    7
 10
239.48775007918076
 20
171.60552978515625
 11
246.66543496621622
 21
178.78323941617398
  0
LINE
  8
_1-0_
  6
CONTINUOUS
 62
    7
 10
234.34518350137247
 20
169.29137358794341
 11
241.52286838840794
 21
176.46907084697003
  0
LINE
  8
_1-0_
  6
CONTINUOUS
 62
    7
 10
229.20261692356419
 20
166.97721739073057
 11
236.38025232263516
 21
174.15490227776607
  0
LINE
  8
_1-0_
  6
CONTINUOUS
 62
    7
 10
224.06000085779141
 20
164.66303644953547
 11
231.23766100084461
 21
171.84072133657097
  0
LINE
  8
_1-0_
  6
CONTINUOUS
 62
    7
 10
218.91738479201859
 20
162.34888025232266
 11
226.09506967905406
 21
169.52656513935813
  0
LINE
  8
_1-0_
  6
CONTINUOUS
 62
    7
 10
213.77481821421031
 20
160.03471168311867
 11
220.95252784522805
 21
167.21240894214529
  0
LINE
  8
_1-0_
  6
CONTINUOUS
 62
    7
 10
208.6322021484375
 20
157.72054311391472
 11
215.809887035473
 21
164.89822800095018
  0
LINE
  8
_1-0_
  6
CONTINUOUS
 62
    7
 10
203.48961082664698
 20
155.40638691670188
 11
210.66729571368245
 21
162.58407180373734
  0
LINE
  8
_1-0_
  6
CONTINUOUS
 62
    7
 10
198.34701950485643
 20
153.09220597550677
 11
205.52472913587417
 21
160.26991560652451
  0
LINE
  8
_1-0_
  6
CONTINUOUS
 62
    7
 10
193.20442818306589
 20
150.77804977829393
 11
200.38211307010135
 21
157.9557346653294
  0
LINE
  8
_1-0_
  6
CONTINUOUS
 62
    7
 10
188.06182448928422
 20
148.46388120908995
 11
195.23949700432857
 21
155.6415537241343
  0
LINE
  8
_1-0_
  6
CONTINUOUS
 62
    7
 10
182.91925791147594
 20
146.14972501187711
 11
190.09694279851141
 21
153.32739752692146
  0
LINE
  8
_1-0_
  6
CONTINUOUS
 62
    7
 10
177.77665421769427
 20
143.83555644267315
 11
184.95432673273862
 21
151.0132289577175
  0
LINE
  8
_1-0_
  6
CONTINUOUS
 62
    7
 10
172.63405052391261
 20
141.52138787346917
 11
179.81171066696581
 21
148.6990480165224
  0
LINE
  8
_1-0_
  6
CONTINUOUS
 62
    7
 10
167.49148394610432
 20
139.20723167625636
 11
174.66914408915753
 21
146.38489181930956
  0
LINE
  8
_1-0_
  6
CONTINUOUS
 62
    7
 10
162.34889262431378
 20
136.89306310705237
 11
169.52654039537586
 21
144.07072325010557
  0
LINE
  8
_1-0_
  6
CONTINUOUS
 62
    7
 10
157.20628893053211
 20
134.57889453784841
 11
164.38392432960305
 21
141.75654230891047
  0
LINE
  8
_1-0_
  6
CONTINUOUS
 62
    7
 10
152.06369760874156
 20
132.26473834063557
 11
159.24135775179477
 21
139.44238611169763
  0
LINE
  8
_1-0_
  6
CONTINUOUS
 62
    7
 10
146.92110628695102
 20
129.95056977143159
 11
154.09874168602198
 21
137.12821754249367
  0
LINE
  8
_1-0_
  6
CONTINUOUS
 62
    7
 10
141.77850259316935
 20
127.63640120222763
 11
148.95615036423143
 21
134.81404897328972
  0
LINE
  8
_1-0_
  6
CONTINUOUS
 62
    7
 10
136.63593601536107
 20
125.32224500501479
 11
143.81355904244089
 21
132.49989277607688
  0
LINE
  8
_1-0_
  6
CONTINUOUS
 62
    7
 10
131.4933323215794
 20
123.00807643581082
 11
138.6709924646326
 21
130.18571183488177
  0
LINE
  8
_1-0_
  6
CONTINUOUS
 62
    7
 10
126.35072862779772
 20
120.69390786660685
 11
133.52837639885979
 21
127.8715432656778
  0
LINE
  8
_1-0_
  6
CONTINUOUS
 62
    7
 10
121.20816204998945
 20
118.37975166939401
 11
128.38579744906039
 21
125.55738706846496
  0
LINE
  8
_1-0_
  6
CONTINUOUS
 62
    7
 10
116.06555835620777
 20
116.06558310019004
 11
123.24319375527872
 21
123.24321849926099
  0
LINE
  8
_1-0_
  6
CONTINUOUS
 62
    7
 10
112.45972916886613
 20
115.28818903742611
 11
118.10059006149704
 21
120.92904993005702
  0
LINE
  8
_1-0_
  6
CONTINUOUS
 62
    7
 10
111.58194877005913
 20
117.23881901921453
 11
112.95802348368878
 21
118.61489373284418
  0
LINE
  8
_1-2_
  6
CONTINUOUS
 62
    3
 10
270.5145263671875
 20
58.378378378378386
 11
336.66484111064193
 21
58.378378378378386
  0
LINE
  8
_0-0_
  6
CONTINUOUS
 62
    5
 10
412.43244892842063
 20
8.5135135135135158
 11
12.432428308435391
 21
8.5135135135135158
  0
ARC
  8
_1-2_
  6
CONTINUOUS
 62
    3
 10
270.99307498416385
 20
55.368173960092918
 40
6.01062568458351
 50
89.315963745117188
 51
123.53410339355467
  0
ARC
  8
_1-2_
  6
CONTINUOUS
 62
    3
 10
270.5145263671875
 20
57.378375079180756
 40
0.9999999162313101
 50
90
 51
157.43476867675781
  0
ARC
  8
_1-2_
  6
CONTINUOUS
 62
    3
 10
99.019311440957566
 20
124.01619576119089
 40
6.01062568458351
 50
105.60023498535158
 51
139.81837463378906
  0
ARC
  8
_1-2_
  6
CONTINUOUS
 62
    3
 10
97.996296238254857
 20
125.81155725427577
 40
0.9999999162313101
 50
106.28427124023437
 51
173.71903991699222
  0
ARC
  8
_1-2_
  6
CONTINUOUS
 62
    3
 10
150.79784496410474
 20
145.03462507918076
 40
6.01062568458351
 50
107.47019958496094
 51
141.68833923339844
  0
ARC
  8
_1-2_
  6
CONTINUOUS
 62
    3
 10
149.71678037901182
 20
146.795654296875
 40
0.9999999162313101
 50
108.15423583984375
 51
175.58900451660156
  0
ARC
  8
_1-2_
  6
CONTINUOUS
 62
    3
 10
201.83359506967906
 20
168.09881261877112
 40
6.01062568458351
 50
107.389892578125
 51
141.6080322265625
  0
ARC
  8
_1-2_
  6
CONTINUOUS
 62
    3
 10
200.7550048828125
 20
169.86136359137458
 40
0.9999999162313101
 50
108.07392883300781
 51
175.50869750976562
  0
ARC
  8
_1-2_
  6
CONTINUOUS
 62
    3
 10
252.90119068042654
 20
191.07924177839951
 40
6.01062568458351
 50
107.389892578125
 51
141.6080322265625
  0
ARC
  8
_1-2_
  6
CONTINUOUS
 62
    3
 10
251.82260049355997
 20
192.84179275100297
 40
0.9999999162313101
 50
108.07392883300781
 51
175.50869750976562
  0
ARC
  8
_1-2_
  6
CONTINUOUS
 62
    3
 10
303.96878629117401
 20
214.05967093802789
 40
6.01062568458351
 50
107.389892578125
 51
141.6080322265625
  0
ARC
  8
_1-2_
  6
CONTINUOUS
 62
    3
 10
302.89019610430745
 20
215.82220953864021
 40
0.9999999162313101
 50
108.07392883300781
 51
175.50869750976562
  0
ARC
  8
_1-0_
  6
CONTINUOUS
 62
    3
 10
288.09297303895693
 20
192.38127012510557
 40
0.9999999162313101
 50
114.22770690917969
 51
204.22770690917969
  0
ARC
  8
_1-0_
  6
CONTINUOUS
 62
    3
 10
288.62190040382183
 20
192.18065828890414
 40
0.9999999162313101
 50
114.22770690917969
 51
204.22770690917969
  0
ARC
  8
_1-0_
  6
CONTINUOUS
 62
    3
 10
295.18769135346287
 20
195.13526297904352
 40
0.9999999162313101
 50
24.227706909179688
 51
114.22770690917969
  0
ARC
  8
_1-0_
  6
CONTINUOUS
 62
    3
 10
295.38831556165542
 20
195.66417797191724
 40
0.9999999162313101
 50
24.227706909179688
 51
114.22770690917969
  0
ARC
  8
_1-0_
  6
CONTINUOUS
 62
    3
 10
302.24596178209464
 20
179.45020108609586
 40
0.9999999162313101
 50
294.22770690917969
 51
24.227706909179691
  0
ARC
  8
_1-0_
  6
CONTINUOUS
 62
    3
 10
302.77488914695948
 20
179.24958924989443
 40
0.9999999162313101
 50
294.22770690917969
 51
24.227706909179691
  0
ARC
  8
_1-0_
  6
CONTINUOUS
 62
    3
 10
295.6801460884713
 20
176.49559639595651
 40
0.9999999162313101
 50
204.22770690917969
 51
294.22770690917969
  0
ARC
  8
_1-0_
  6
CONTINUOUS
 62
    3
 10
295.47952188027875
 20
175.96668140308279
 40
0.9999999162313101
 50
204.22770690917969
 51
294.22770690917969
  0
ARC
  8
_1-0_
  6
CONTINUOUS
 62
    3
 10
123.45950564822635
 20
118.29626547323691
 40
0.9999999162313101
 50
114.22767639160156
 51
204.22767639160156
  0
ARC
  8
_1-0_
  6
CONTINUOUS
 62
    3
 10
123.98842064110009
 20
118.09565363703548
 40
0.9999999162313101
 50
114.22767639160156
 51
204.22767639160156
  0
ARC
  8
_1-0_
  6
CONTINUOUS
 62
    3
 10
130.55422396273227
 20
121.05024595518371
 40
0.9999999162313101
 50
24.227676391601563
 51
114.22767639160156
  0
ARC
  8
_1-0_
  6
CONTINUOUS
 62
    3
 10
130.75486054291596
 20
121.57916094805744
 40
0.9999999162313101
 50
24.227676391601563
 51
114.22767639160156
  0
ARC
  8
_1-0_
  6
CONTINUOUS
 62
    3
 10
137.61248201937289
 20
105.3651964342272
 40
0.9999999162313101
 50
294.22767639160156
 51
24.227676391601563
  0
ARC
  8
_1-0_
  6
CONTINUOUS
 62
    3
 10
138.14139701224664
 20
105.16457222603464
 40
0.9999999162313101
 50
294.22767639160156
 51
24.227676391601563
  0
ARC
  8
_1-0_
  6
CONTINUOUS
 62
    3
 10
131.0466786977407
 20
102.41059174408784
 40
0.9999999162313101
 50
204.22767639160156
 51
294.22767639160156
  0
ARC
  8
_1-0_
  6
CONTINUOUS
 62
    3
 10
130.846042117557
 20
101.88167675121412
 40
0.9999999162313101
 50
204.22767639160156
 51
294.22767639160156
  0
TEXT
  8
_0-0_
 62
    7
 10
147.56756962956609
 20
22.702702702702709
 40
2.5
 41
1
 50
0
  1
図名
  0
TEXT
  8
_0-0_
 62
    7
 10
147.56756962956609
 20
12.972972972972968
 40
2.5
 41
1
 50
0
  1
縮尺
  0
TEXT
  8
_0-0_
 62
    7
 10
382.77784605284
 20
21.243871740392734
 40
2.5
 41
1
 50
0
  1
ＮＯ
  0
TEXT
  8
_0-0_
 62
    7
 10
20.270270012520456
 20
22.702702702702709
 40
2.5
 41
1
 50
0
  1
Ｆ形
  0
TEXT
  8
_0-0_
 62
    7
 10
389.99062615471917
 20
16.178650211643514
 40
2.5
 41
1
 50
0
  1
Ｆ
  0
TEXT
  8
_0-0_
 62
    7
 10
171.37221877639359
 20
12.362518826046511
 40
2.5
 41
1
 50
0
  1
1/5
  0
TEXT
  8
_1-4_
 62
    7
 10
99.833047534606649
 20
175.77047368384564
 40
2.5
 41
1
 50
24.227719460851677
  1
280
  0
TEXT
  8
_1-4_
 62
    7
 10
150.95642845336721
 20
198.77599324148923
 40
2.5
 41
1
 50
24.227719460851628
  1
280
  0
TEXT
  8
_1-4_
 62
    7
 10
202.04526908781719
 20
221.76598699198524
 40
2.5
 41
1
 50
24.227891841336668
  1
280
  0
TEXT
  8
_1-4_
 62
    7
 10
253.11626185186239
 20
244.74794796357384
 40
2.5
 41
1
 50
24.227969413213451
  1
280
  0
TEXT
  8
_1-4_
 62
    7
 10
88.875237937567135
 20
152.63674367188372
 40
2.5
 41
1
 50
24.227700068058738
  1
80
  0
TEXT
  8
_1-4_
 62
    7
 10
113.87702666388242
 20
163.88755973351837
 40
2.5
 41
1
 50
24.227719460851652
  1
200
  0
TEXT
  8
_1-4_
 62
    7
 10
300.18983583192568
 20
47.194404602050781
 40
2.5
 41
1
 50
0
  1
350
  0
TEXT
  8
_1-4_
 62
    7
 10
346.28126814558703
 20
58.628386420172617
 40
2.5
 41
1
 50
90
  1
39
  0
TEXT
  8
_0-1_
 62
    7
 10
210.27705424540756
 20
202.11651776288008
 40
2.5
 41
1
 50
0
  1
桟瓦
  0
TEXT
  8
_0-1_
 62
    7
 10
249.72972560573271
 20
112.42017591321792
 40
2.5
 41
1
 50
0
  1
瓦桟
  0
TEXT
  8
_0-1_
 62
    7
 10
249.72972972972974
 20
104.91626636402027
 40
2.5
 41
1
 50
0
  1
流し桟
  0
TEXT
  8
_0-1_
 62
    7
 10
249.7297338537268
 20
97.633048392630911
 40
2.5
 41
1
 50
0
  1
下葺き材
  0
TEXT
  8
_0-1_
 62
    7
 10
249.72972972972974
 20
91.011954642630911
 40
2.5
 41
1
 50
0
  1
野地板
  0
TEXT
  8
_0-1_
 62
    7
 10
249.72972560573271
 20
84.390848520639778
 40
2.5
 41
1
 50
0
  1
垂木
  0
TEXT
  8
_0-1_
 62
    7
 10
95.040175979201862
 20
66.869987281593126
 40
2.5
 41
1
 50
0
  1
鼻隠　
  0
TEXT
  8
_1-4_
 62
    7
 10
90.772495785275026
 20
100.81212430386931
 40
2.5
 41
1
 50
0
  1
軒先水切
  0
TEXT
  8
_1-4_
 62
    7
 10
45.397583729511979
 20
13.77361400707349
 40
2.5
 41
1
 50
0
  1
軒先　2
  0
TEXT
  8
_1-4_
 62
    7
 10
83.491596531223607
 20
109.72242613096496
 40
2.5
 41
1
 50
0
  1
瓦座　45ｘ45
  0
TEXT
  8
_1-4_
 62
    7
 10
31.231869362496042
 20
18.589955922719582
 40
2.5
 41
1
 50
0
  1
Ｓ
  0
TEXT
  8
_1-0_
 62
    7
 10
264.11145596890839
 20
84.390848520639778
 40
2.5
 41
1
 50
0
  1
Ｃ－100ｘ50ｘ20ｘ2.3
  0
TEXT
  8
_1-0_
 62
    7
 10
264.136488630965
 20
98.114355963629649
 40
2.5
 41
1
 50
0
  1
ゴムアス系ルーフィング
  0
TEXT
  8
_1-0_
 62
    7
 10
264.11145596890839
 20
91.011954642630911
 40
2.5
 41
1
 50
0
  1
硬質木片セメント板　ｔ＝18
  0
POINT
  8
_1-4_
 62
    7
 10
76.176341288798568
 20
164.57665520745357
  0
POINT
  8
_1-4_
 62
    7
 10
127.31982669314823
 20
187.59123106260557
  0
POINT
  8
_1-4_
 62
    7
 10
178.42309075432857
 20
210.587719066723
  0
POINT
  8
_1-4_
 62
    7
 10
229.49749096019849
 20
233.57121648015203
  0
POINT
  8
_1-4_
 62
    7
 10
280.56511131492823
 20
256.55164563978042
  0
POINT
  8
_1-4_
 62
    7
 10
82.988167840081303
 20
149.43926424593539
  0
POINT
  8
_1-4_
 62
    7
 10
97.452472996067357
 20
155.94820589632602
  0
POINT
  8
_1-4_
 62
    7
 10
134.13165943042654
 20
172.45384010108742
  0
POINT
  8
_1-4_
 62
    7
 10
267.06484407991979
 20
46.694406045449739
  0
POINT
  8
_1-4_
 62
    7
 10
337.06485232791385
 20
46.694406045449739
  0
POINT
  8
_1-4_
 62
    7
 10
346.78126979518584
 20
63.77838134765625
  0
POINT
  8
_1-4_
 62
    7
 10
346.78126979518584
 20
55.978385306693411
  0
TEXT
  8
_1-4_
 62
    7
 10
400.56714444547089
 20
13.928570103000936
 40
2.5
 41
1
 50
0
  1
28
  0
TEXT
  8
_1-0_
 62
    7
 10
263.66944149762082
 20
111.59447125638772
 40
2.5
 41
1
 50
0
  1
15×30　（樹脂桟木）
  0
TEXT
  8
_1-0_
 62
    7
 10
264.08364127346783
 20
108.41039307123043
 40
2.5
 41
1
 50
0
  1
※　地域により瓦桟木の大きさは、異なります
  0
ENDSEC
  0
EOF
