  0
SECTION
  2
HEADER
  9
$ACADVER
  1
AC1009
  9
$INSBASE
 10
0
 20
0
 30
0
  9
$EXTMIN
 10
0
 20
0
  9
$EXTMAX
 10
420
 20
297
  9
$LIMMIN
 10
0
 20
0
  9
$LIMMAX
 10
420
 20
297
  9
$LTSCALE
 40
1
  0
ENDSEC
  0
SECTION
  2
TABLES
  0
TABLE
  2
LTYPE
 70
     9
  0
LTYPE
  2
CONTINUOUS
 70
    64
  3
実線
 72
    65
 73
     0
 40
0.0
  0
LTYPE
  2
DASHED1
 70
    64
  3
--  --  --  --  --  --  --  --  
 72
    65
 73
     2
 40
2.5
 49
1.25
 49
-1.25
  0
LTYPE
  2
DASHED2
 70
    64
  3
----    ----    ----    ----    
 72
    65
 73
     2
 40
5.0
 49
2.5
 49
-2.5
  0
LTYPE
  2
DASHED3
 70
    64
  3
------  ------  ------  ------  
 72
    65
 73
     2
 40
5.0
 49
3.75
 49
-1.25
  0
LTYPE
  2
CENTER1
 70
    64
  3
----- - ----- - ----- - ----- - 
 72
    65
 73
     4
 40
10.0
 49
6.25
 49
-1.25
 49
1.25
 49
-1.25
  0
LTYPE
  2
CENTER2
 70
    64
  3
----------  --  ----------  --  
 72
    65
 73
     4
 40
20.0
 49
12.5
 49
-2.5
 49
2.5
 49
-2.5
  0
LTYPE
  2
PHANTOM1
 70
    64
  3
--- - - --- - - --- - - --- - - 
 72
    65
 73
     6
 40
10.0
 49
3.25
 49
-1.25
 49
1.25
 49
-1.25
 49
1.25
 49
-1.25
  0
LTYPE
  2
PHANTOM2
 70
    64
  3
--------  -  -  --------  -  -  
 72
    65
 73
     6
 40
20.0
 49
10.0
 49
-2.5
 49
1.25
 49
-2.5
 49
1.25
 49
-2.5
  0
LTYPE
  2
DOT
 70
    64
  3
-   -   -   -   -   -   -   -   
 72
    65
 73
     2
 40
2.5
 49
0.625
 49
-1.875
  0
LTYPE
  2
DUMMY
 70
    64
  3
ダミー
 72
    65
 73
     0
 40
0.0
  0
LTYPE
  2
RAND1
 70
    64
  3
ランダム線1
 72
    65
 73
     4
 40
10.0
 49
1.0
 49
-2.0
 49
3.0
 49
-4.0
  0
LTYPE
  2
RAND2
 70
    64
  3
ランダム線2
 72
    65
 73
     4
 40
14.0
 49
2.0
 49
-3.0
 49
4.0
 49
-5.0
  0
LTYPE
  2
RAND3
 70
    64
  3
ランダム線3
 72
    65
 73
     4
 40
18.0
 49
3.0
 49
-4.0
 49
5.0
 49
-6.0
  0
LTYPE
  2
RAND4
 70
    64
  3
ランダム線4
 72
    65
 73
     4
 40
22.0
 49
4.0
 49
-5.0
 49
6.0
 49
-7.0
  0
LTYPE
  2
RAND5
 70
    64
  3
ランダム線5
 72
    65
 73
     4
 40
26.0
 49
5.0
 49
-6.0
 49
7.0
 49
-8.0
  0
LTYPE
  2
LONG1
 70
    64
  3
----------  --  ----------  --  
 72
    65
 73
     4
 40
40.0
 49
32.5
 49
-2.5
 49
2.5
 49
-2.5
  0
LTYPE
  2
LONG2
 70
    64
  3
--------  -  -  --------  -  -  
 72
    65
 73
     6
 40
40.0
 49
30.0
 49
-2.5
 49
1.25
 49
-2.5
 49
1.25
 49
-2.5
  0
LTYPE
  2
LONG3
 70
    64
  3
+++++++++++++++..+++++++++++++++
 72
    65
 73
     2
 40
40.0
 49
37.5
 49
-2.5
  0
LTYPE
  2
LONG4
 70
    64
  3
+++++++++++++++..+++++++++++++++
 72
    65
 73
     2
 40
80.0
 49
75.0
 49
-5.0
  0
LTYPE
  2
LONG5
 70
    64
  3
----------  --  ----------  --  
 72
    65
 73
     4
 40
60.0
 49
37.5
 49
-7.5
 49
7.5
 49
-7.5
  0
LTYPE
  2
dashed
 70
   64
  3
-------   -------------   ------
 72
   65
 73
    2
 40
7.5
 49
6
 49
-1.5
  0
LTYPE
  2
dashed_spaced
 70
   64
  3
----        --------        ----
 72
   65
 73
    2
 40
12
 49
6
 49
-6
  0
LTYPE
  2
long_dashed_dotted
 70
   64
  3
------------- --- --------------
 72
   65
 73
    4
 40
15.25
 49
12
 49
-1.5
 49
0.25
 49
-1.5
  0
LTYPE
  2
long_dashed_double-dotted
 70
   64
  3
----------- --- --- ------------
 72
   65
 73
    6
 40
17
 49
12
 49
-1.5
 49
0.25
 49
-1.5
 49
0.25
 49
-1.5
  0
LTYPE
  2
long_dashed_triplicate-dotted
 70
   64
  3
--------- --- --- --- ----------
 72
   65
 73
    8
 40
18.75
 49
12
 49
-1.5
 49
0.25
 49
-1.5
 49
0.25
 49
-1.5
 49
0.25
 49
-1.5
  0
LTYPE
  2
dotted
 70
   64
  3
   -       -       -       -    
 72
   65
 73
    2
 40
1.75
 49
0.25
 49
-1.5
  0
LTYPE
  2
chain
 70
   64
  3
-------------- -- --------------
 72
   65
 73
    4
 40
18.5
 49
12
 49
-1.5
 49
3.5
 49
-1.5
  0
LTYPE
  2
chain_double_dash
 70
   64
  3
------------ -- -- -------------
 72
   65
 73
    6
 40
23.5
 49
12
 49
-1.5
 49
3.5
 49
-1.5
 49
3.5
 49
-1.5
  0
LTYPE
  2
dashed_dotted
 70
   64
  3
-----------     -     ----------
 72
   65
 73
    4
 40
9.25
 49
6
 49
-1.5
 49
0.25
 49
-1.5
  0
LTYPE
  2
double-dashed_dotted
 70
   64
  3
------   -----------   -   -----
 72
   65
 73
    6
 40
16.75
 49
6
 49
-1.5
 49
6
 49
-1.5
 49
0.25
 49
-1.5
  0
LTYPE
  2
dashed_double-dotted
 70
   64
  3
---------    -    -    ---------
 72
   65
 73
    6
 40
11
 49
6
 49
-1.5
 49
0.25
 49
-1.5
 49
0.25
 49
-1.5
  0
LTYPE
  2
double-dashed_double-dotted
 70
   64
  3
-----   ---------   -   -   ----
 72
   65
 73
    8
 40
18.5
 49
6
 49
-1.5
 49
6
 49
-1.5
 49
0.25
 49
-1.5
 49
0.25
 49
-1.5
  0
LTYPE
  2
dashed_triplicate-dotted
 70
   64
  3
-------    -    -    -    ------
 72
   65
 73
    8
 40
12.75
 49
6
 49
-1.5
 49
0.25
 49
-1.5
 49
0.25
 49
-1.5
 49
0.25
 49
-1.5
  0
LTYPE
  2
double-dashed_triplicate-dotted
 70
   64
  3
-----  ---------  -  -  -  -----
 72
   65
 73
   10
 40
20.25
 49
6
 49
-1.5
 49
6
 49
-1.5
 49
0.25
 49
-1.5
 49
0.25
 49
-1.5
 49
0.25
 49
-1.5
  0
LTYPE
  2
undefined
 70
   64
  3
--------------------------------
 72
   65
 73
    0
 40
0
  0
ENDTAB
  0
TABLE
  2
STYLE
  5
3
100
AcDbSymbolTable
 70
     1
  0
STYLE
  5
10
100
AcDbSymbolTableRecord
100
AcDbTextStyleTableRecord
  2
STANDARD
 70
     0
 40
0.0
 41
1.0
 50
0.0
 71
     0
 42
0.2
  3
txt
  4
bigfont.shx
  0
STYLE
  5
26
100
AcDbSymbolTableRecord
100
AcDbTextStyleTableRecord
  2
TATEGAKI
 70
    68
 40
0.0
 41
1.0
 50
0.0
 71
     0
 42
1.0
  3
txt
  4
bigfont.shx
  0
ENDTAB
  0
TABLE
  2
LAYER
 70
    7
  0
LAYER
  2
_0-0_
 70
   64
 62
    7
  6
CONTINUOUS
  0
LAYER
  2
_0-1_
 70
   64
 62
    7
  6
CONTINUOUS
  0
LAYER
  2
_1-0_
 70
   64
 62
    7
  6
CONTINUOUS
  0
LAYER
  2
_1-2_
 70
   64
 62
    7
  6
CONTINUOUS
  0
LAYER
  2
_1-3_
 70
   64
 62
    7
  6
CONTINUOUS
  0
LAYER
  2
_1-4_
 70
   64
 62
    7
  6
CONTINUOUS
  0
LAYER
  2
ADD_LINE
 70
   64
 62
    7
  6
CONTINUOUS
  0
ENDTAB
  0
ENDSEC
  0
SECTION
  2
BLOCKS
  0
ENDSEC
  0
SECTION
  2
ENTITIES
  0
LINE
  8
_1-0_
  6
CONTINUOUS
 62
    7
 10
79.697038824287347
 20
176.01003457670984
 11
79.697038824287347
 21
143.6100167610426
  0
LINE
  8
_0-0_
  6
CONTINUOUS
 62
    5
 10
12.432428308435391
 20
278.51351351351354
 11
412.43244892842063
 21
278.51351351351354
  0
LINE
  8
_0-0_
  6
CONTINUOUS
 62
    5
 10
412.43244892842063
 20
8.5135135135135158
 11
12.432428308435391
 21
8.5135135135135158
  0
LINE
  8
_0-0_
  6
CONTINUOUS
 62
    5
 10
412.43244892842063
 20
28.513511451515001
 11
12.432415936444272
 21
28.513511451515001
  0
LINE
  8
_0-0_
  6
CONTINUOUS
 62
    5
 10
377.43248192039698
 20
8.5135135135135158
 11
377.43248192039698
 21
28.513511451515001
  0
LINE
  8
_0-0_
  6
CONTINUOUS
 62
    5
 10
142.70271507469386
 20
28.513511451515001
 11
142.70271507469386
 21
8.5135135135135158
  0
LINE
  8
_0-0_
  6
CONTINUOUS
 62
    5
 10
220.54054054054055
 20
28.513511451515001
 11
220.54054054054055
 21
8.5135135135135158
  0
LINE
  8
_0-0_
  6
CONTINUOUS
 62
    5
 10
142.70271507469386
 20
18.513512482514244
 11
220.54054054054055
 21
18.513512482514244
  0
LINE
  8
_0-0_
  6
CONTINUOUS
 62
    5
 10
402.16218690614443
 20
24.324325870823216
 11
389.59456985061234
 21
11.756758303255651
  0
TEXT
  8
_0-0_
 62
    7
 10
147.56756962956609
 20
22.702702702702709
 40
2.5
 41
1
 50
0
  1
図名
  0
TEXT
  8
_0-0_
 62
    7
 10
147.56756962956609
 20
12.972972972972968
 40
2.5
 41
1
 50
0
  1
縮尺
  0
TEXT
  8
_0-0_
 62
    7
 10
382.77784605284
 20
21.243871740392734
 40
2.5
 41
1
 50
0
  1
ＮＯ
  0
TEXT
  8
_0-0_
 62
    7
 10
20.270270012520456
 20
22.702702702702709
 40
2.5
 41
1
 50
0
  1
Ｆ形
  0
TEXT
  8
_0-0_
 62
    7
 10
389.99062615471917
 20
16.178650211643514
 40
2.5
 41
1
 50
0
  1
Ｆ
  0
TEXT
  8
_0-0_
 62
    7
 10
171.37221877639359
 20
12.362518826046511
 40
2.5
 41
1
 50
0
  1
1/5
  0
TEXT
  8
_1-3_
 62
    7
 10
31.231869362496042
 20
18.589955922719582
 40
2.5
 41
1
 50
0
  1
Ｓ
  0
LINE
  8
_1-0_
  6
CONTINUOUS
 62
    7
 10
328.39392999035579
 20
173.01003705110807
 11
328.39392999035579
 21
172.41003259719125
  0
LINE
  8
_1-0_
  6
CONTINUOUS
 62
    7
 10
328.39392999035579
 20
172.41003259719125
 11
328.39392999035579
 21
173.01003705110807
  0
LINE
  8
_1-0_
  6
CONTINUOUS
 62
    7
 10
328.39392999035579
 20
173.01003705110807
 11
323.59394384698589
 21
173.01003705110807
  0
LINE
  8
_1-0_
  6
CONTINUOUS
 62
    7
 10
323.59394384698589
 20
173.01003705110807
 11
323.59394384698589
 21
172.41003259719125
  0
LINE
  8
_1-0_
  6
CONTINUOUS
 62
    7
 10
323.59394384698589
 20
172.41003259719125
 11
328.39392999035579
 21
172.41003259719125
  0
LINE
  8
_1-0_
  6
CONTINUOUS
 62
    7
 10
328.39392999035579
 20
173.01003705110807
 11
323.59394384698589
 21
172.41003259719125
  0
LINE
  8
_1-0_
  6
CONTINUOUS
 62
    7
 10
267.79393790843005
 20
172.41003259719125
 11
267.79393790843005
 21
173.01003705110807
  0
LINE
  8
_1-0_
  6
CONTINUOUS
 62
    7
 10
267.79393790843005
 20
173.01003705110807
 11
262.99395176506016
 21
173.01003705110807
  0
LINE
  8
_1-0_
  6
CONTINUOUS
 62
    7
 10
262.99395176506016
 20
173.01003705110807
 11
262.99395176506016
 21
172.41003259719125
  0
LINE
  8
_1-0_
  6
CONTINUOUS
 62
    7
 10
262.99395176506016
 20
172.41003259719125
 11
267.79393790843005
 21
172.41003259719125
  0
LINE
  8
_1-0_
  6
CONTINUOUS
 62
    7
 10
267.79393790843005
 20
173.01003705110807
 11
262.99395176506016
 21
172.41003259719125
  0
LINE
  8
_1-0_
  6
CONTINUOUS
 62
    7
 10
207.19394582650443
 20
172.41003259719125
 11
207.19394582650443
 21
173.01003705110807
  0
LINE
  8
_1-0_
  6
CONTINUOUS
 62
    7
 10
207.19394582650443
 20
173.01003705110807
 11
202.39395968313448
 21
173.01003705110807
  0
LINE
  8
_1-0_
  6
CONTINUOUS
 62
    7
 10
202.39395968313448
 20
173.01003705110807
 11
202.39395968313448
 21
172.41003259719125
  0
LINE
  8
_1-0_
  6
CONTINUOUS
 62
    7
 10
202.39395968313448
 20
172.41003259719125
 11
207.19394582650443
 21
172.41003259719125
  0
LINE
  8
_1-0_
  6
CONTINUOUS
 62
    7
 10
207.19394582650443
 20
173.01003705110807
 11
202.39395968313448
 21
172.41003259719125
  0
LINE
  8
_1-0_
  6
CONTINUOUS
 62
    7
 10
146.59395374457876
 20
172.41003259719125
 11
146.59395374457876
 21
173.01003705110807
  0
LINE
  8
_1-0_
  6
CONTINUOUS
 62
    7
 10
146.59395374457876
 20
173.01003705110807
 11
141.79396760120881
 21
173.01003705110807
  0
LINE
  8
_1-0_
  6
CONTINUOUS
 62
    7
 10
141.79396760120881
 20
173.01003705110807
 11
141.79396760120881
 21
172.41003259719125
  0
LINE
  8
_1-0_
  6
CONTINUOUS
 62
    7
 10
141.79396760120881
 20
172.41003259719125
 11
146.59395374457876
 21
172.41003259719125
  0
LINE
  8
_1-0_
  6
CONTINUOUS
 62
    7
 10
146.59395374457876
 20
173.01003705110807
 11
141.79396760120881
 21
172.41003259719125
  0
LINE
  8
_1-0_
  6
CONTINUOUS
 62
    7
 10
71.697037174688489
 20
141.90307788857641
 11
79.697038824287347
 21
149.90307953817521
  0
LINE
  8
_1-0_
  6
CONTINUOUS
 62
    7
 10
71.697037174688489
 20
144.73151301315409
 11
79.697038824287347
 21
152.73151466275291
  0
LINE
  8
_1-0_
  6
CONTINUOUS
 62
    7
 10
71.697037174688489
 20
147.55993576574068
 11
79.697038824287347
 21
155.55993741533948
  0
LINE
  8
_1-0_
  6
CONTINUOUS
 62
    7
 10
71.697037174688489
 20
153.2167812709138
 11
79.697038824287347
 21
161.21679529250375
  0
LINE
  8
_1-0_
  6
CONTINUOUS
 62
    7
 10
71.697037174688489
 20
156.04521639549151
 11
79.697038824287347
 21
164.04521804509034
  0
LINE
  8
_1-0_
  6
CONTINUOUS
 62
    7
 10
71.697037174688489
 20
158.87363914807807
 11
79.697038824287347
 21
166.8736407976769
  0
LINE
  8
_1-0_
  6
CONTINUOUS
 62
    7
 10
71.697037174688489
 20
161.70207427265578
 11
79.697038824287347
 21
169.70207592225461
  0
LINE
  8
_1-0_
  6
CONTINUOUS
 62
    7
 10
71.697037174688489
 20
164.53049702524237
 11
79.697038824287347
 21
172.53051104683232
  0
LINE
  8
_1-0_
  6
CONTINUOUS
 62
    7
 10
71.697037174688489
 20
167.35893214982005
 11
79.697038824287347
 21
175.35892142742773
  0
LINE
  8
_1-2_
  6
CONTINUOUS
 62
    7
 10
70.697033875490888
 20
115.23687173491297
 11
71.697037174688489
 21
115.23687173491297
  0
LINE
  8
_1-2_
  6
CONTINUOUS
 62
    7
 10
70.697033875490888
 20
128.64517795983906
 11
70.697033875490888
 21
115.23687173491297
  0
LINE
  8
_1-2_
  6
CONTINUOUS
 62
    7
 10
71.697037174688489
 20
128.64517795983906
 11
71.697037174688489
 21
115.23687173491297
  0
LINE
  8
_1-2_
  6
CONTINUOUS
 62
    7
 10
71.697037174688489
 20
115.23687173491297
 11
79.697038824287347
 21
115.23687173491297
  0
LINE
  8
_1-2_
  6
CONTINUOUS
 62
    7
 10
79.697038824287347
 20
128.64517795983906
 11
79.697038824287347
 21
115.23687173491297
  0
LINE
  8
_1-0_
  6
CONTINUOUS
 62
    7
 10
74.723671597196926
 20
150.93975341908737
 11
56.976767894177556
 21
102.18051154171195
  0
LINE
  8
_1-0_
  6
CONTINUOUS
 62
    7
 10
56.976767894177556
 20
102.18051154171195
 11
52.020968894494274
 21
102.18051154171195
  0
LINE
  8
_1-0_
  6
CONTINUOUS
 62
    7
 10
329.44974952754433
 20
171.21002368935766
 11
79.697038824287347
 21
171.21002368935766
  0
LINE
  8
_1-0_
  6
DASHED1
 62
    3
 10
329.44974952754433
 20
171.81002814327445
 11
80.00158775798667
 21
171.81002814327445
  0
LINE
  8
_1-3_
  6
CONTINUOUS
 62
    7
 10
329.44974952754433
 20
167.61002170983906
 11
79.697038824287347
 21
167.61002170983906
  0
LINE
  8
_1-3_
  6
CONTINUOUS
 62
    7
 10
329.44974952754433
 20
147.61001758584203
 11
79.697038824287347
 21
147.61001758584203
  0
LINE
  8
_1-3_
  6
CONTINUOUS
 62
    7
 10
329.44974952754433
 20
143.6100167610426
 11
79.697038824287347
 21
143.6100167610426
  0
LINE
  8
_1-3_
  6
CONTINUOUS
 62
    7
 10
329.44974952754433
 20
142.41002022520013
 11
79.697038824287347
 21
142.41002022520013
  0
LINE
  8
_1-3_
  6
CONTINUOUS
 62
    7
 10
79.697038824287347
 20
138.41001940040073
 11
71.697037174688489
 21
138.41001940040073
  0
LINE
  8
_1-0_
  6
CONTINUOUS
 62
    7
 10
76.689234572281407
 20
138.41001940040073
 11
79.697038824287347
 21
141.41779890842437
  0
LINE
  8
_1-0_
  6
CONTINUOUS
 62
    7
 10
71.697037174688489
 20
139.0746427639987
 11
79.697038824287347
 21
147.07465678558864
  0
LINE
  8
_1-3_
  6
CONTINUOUS
 62
    7
 10
79.697038824287347
 20
143.6100167610426
 11
77.472950722513701
 21
143.6100167610426
  0
LINE
  8
_1-3_
  6
CONTINUOUS
 62
    7
 10
79.697038824287347
 20
142.41002022520013
 11
77.472950722513701
 21
142.41002022520013
  0
LINE
  8
_1-3_
  6
CONTINUOUS
 62
    7
 10
77.472950722513701
 20
143.6100167610426
 11
77.472950722513701
 21
142.41002022520013
  0
LINE
  8
_1-0_
  6
CONTINUOUS
 62
    7
 10
73.86084893566823
 20
138.41001940040073
 11
77.860837388476511
 21
142.41002022520013
  0
LINE
  8
_1-0_
  6
CONTINUOUS
 62
    7
 10
79.060846296310103
 20
143.6100167610426
 11
79.697038824287347
 21
144.24622166101094
  0
LINE
  8
_1-0_
  6
CONTINUOUS
 62
    7
 10
71.697037174688489
 20
150.38835851832724
 11
79.697038824287347
 21
158.38837253991719
  0
LINE
  8
_1-3_
  6
CONTINUOUS
 62
    3
 10
80.097074785541565
 20
163.61002088503966
 11
79.697063568269584
 21
163.61002088503966
  0
LINE
  8
_1-3_
  6
CONTINUOUS
 62
    3
 10
79.697063568269584
 20
151.61001841064143
 11
80.097074785541565
 21
151.61001841064143
  0
LINE
  8
_1-3_
  6
CONTINUOUS
 62
    3
 10
81.097078084739167
 20
167.21002286455823
 11
88.297032555811839
 21
167.21002286455823
  0
LINE
  8
_1-3_
  6
CONTINUOUS
 62
    3
 10
80.097074785541565
 20
166.2100195653606
 11
80.097074785541565
 21
163.61002088503966
  0
LINE
  8
_1-3_
  6
CONTINUOUS
 62
    3
 10
79.697063568269584
 20
166.61001841064143
 11
79.697063568269584
 21
163.61002088503966
  0
LINE
  8
_1-3_
  6
CONTINUOUS
 62
    3
 10
80.697066867467242
 20
167.61002170983906
 11
88.69704377308382
 21
167.61002170983906
  0
LINE
  8
_1-3_
  6
CONTINUOUS
 62
    3
 10
80.097074785541565
 20
149.01001973032049
 11
80.097074785541565
 21
151.61001841064143
  0
LINE
  8
_1-3_
  6
CONTINUOUS
 62
    3
 10
79.697063568269584
 20
148.61002088503966
 11
79.697063568269584
 21
151.61001841064143
  0
LINE
  8
_1-3_
  6
CONTINUOUS
 62
    3
 10
88.297032555811839
 20
148.01001643112284
 11
81.097078084739167
 21
148.01001643112284
  0
LINE
  8
_1-3_
  6
CONTINUOUS
 62
    3
 10
89.297035855009497
 20
149.01001973032049
 11
89.297035855009497
 21
166.2100195653606
  0
LINE
  8
_1-3_
  6
CONTINUOUS
 62
    3
 10
89.697047072281421
 20
148.61002088503966
 11
89.697047072281421
 21
166.61001841064143
  0
LINE
  8
_1-3_
  6
CONTINUOUS
 62
    3
 10
88.69704377308382
 20
147.61002995783315
 11
80.697066867467242
 21
147.61002995783315
  0
LINE
  8
ADD_LINE
  6
DOT
 62
    3
 10
88.69704377308382
 20
167.61002170983906
 11
90.095301466812671
 21
167.61002170983906
  0
LINE
  8
ADD_LINE
  6
DOT
 62
    3
 10
89.697047072281421
 20
166.61001841064143
 11
89.697047072281421
 21
168.12126949937664
  0
LINE
  8
ADD_LINE
  6
DOT
 62
    3
 10
88.69704377308382
 20
147.61002995783315
 11
90.596342363666579
 21
147.61002995783315
  0
LINE
  8
ADD_LINE
  6
DOT
 62
    3
 10
89.697047072281421
 20
148.61002088503966
 11
89.697047072281421
 21
147.17833407127276
  0
LINE
  8
_1-3_
  6
CONTINUOUS
 62
    3
 10
260.09706241355042
 20
163.61002088503966
 11
259.69705119627849
 21
163.61002088503966
  0
LINE
  8
_1-3_
  6
CONTINUOUS
 62
    3
 10
259.69705119627849
 20
151.61001841064143
 11
260.09706241355042
 21
151.61001841064143
  0
LINE
  8
_1-3_
  6
CONTINUOUS
 62
    3
 10
261.09706571274808
 20
167.21002286455823
 11
268.29702018382068
 21
167.21002286455823
  0
LINE
  8
_1-3_
  6
CONTINUOUS
 62
    3
 10
260.09706241355042
 20
166.2100195653606
 11
260.09706241355042
 21
163.61002088503966
  0
LINE
  8
_1-3_
  6
CONTINUOUS
 62
    3
 10
259.69705119627849
 20
166.61001841064143
 11
259.69705119627849
 21
163.61002088503966
  0
LINE
  8
_1-3_
  6
CONTINUOUS
 62
    3
 10
260.6970544954761
 20
167.61002170983906
 11
268.69703140109266
 21
167.61002170983906
  0
LINE
  8
_1-3_
  6
CONTINUOUS
 62
    3
 10
260.09706241355042
 20
149.01001973032049
 11
260.09706241355042
 21
151.61001841064143
  0
LINE
  8
_1-3_
  6
CONTINUOUS
 62
    3
 10
259.69705119627849
 20
148.61002088503966
 11
259.69705119627849
 21
151.61001841064143
  0
LINE
  8
_1-3_
  6
CONTINUOUS
 62
    3
 10
268.29702018382068
 20
148.01001643112284
 11
261.09706571274808
 21
148.01001643112284
  0
LINE
  8
_1-3_
  6
CONTINUOUS
 62
    3
 10
269.29702348301834
 20
149.01001973032049
 11
269.29702348301834
 21
166.2100195653606
  0
LINE
  8
_1-3_
  6
CONTINUOUS
 62
    3
 10
269.69703470029026
 20
148.61002088503966
 11
269.69703470029026
 21
166.61001841064143
  0
LINE
  8
_1-3_
  6
CONTINUOUS
 62
    3
 10
268.69703140109266
 20
147.61002995783315
 11
260.6970544954761
 21
147.61002995783315
  0
LINE
  8
ADD_LINE
  6
DOT
 62
    3
 10
268.69703140109266
 20
167.61002170983906
 11
270.09528909482151
 21
167.61002170983906
  0
LINE
  8
ADD_LINE
  6
DOT
 62
    3
 10
269.69703470029026
 20
166.61001841064143
 11
269.69703470029026
 21
168.12126949937664
  0
LINE
  8
ADD_LINE
  6
DOT
 62
    3
 10
268.69703140109266
 20
147.61002995783315
 11
270.59632999167542
 21
147.61002995783315
  0
LINE
  8
ADD_LINE
  6
DOT
 62
    3
 10
269.69703470029026
 20
148.61002088503966
 11
269.69703470029026
 21
147.17833407127276
  0
LINE
  8
ADD_LINE
  6
DOT
 62
    7
 10
329.44974952754433
 20
167.61002170983906
 11
329.44974952754433
 21
171.21002368935766
  0
LINE
  8
_1-3_
  6
CONTINUOUS
 62
    7
 10
329.44974952754433
 20
168.13734071585679
 11
328.92243670752214
 21
167.61002170983906
  0
LINE
  8
_1-3_
  6
CONTINUOUS
 62
    7
 10
329.44974952754433
 20
170.96575109645224
 11
326.09401395493558
 21
167.61002170983906
  0
LINE
  8
_1-3_
  6
CONTINUOUS
 62
    7
 10
326.86561792584985
 20
171.21002368935766
 11
323.26559738834459
 21
167.61002170983906
  0
LINE
  8
_1-3_
  6
CONTINUOUS
 62
    7
 10
324.03718280127214
 20
171.21002368935766
 11
320.4371808217536
 21
167.61002170983906
  0
LINE
  8
_1-3_
  6
CONTINUOUS
 62
    7
 10
321.20877242067672
 20
171.21002368935766
 11
317.60875806916704
 21
167.61002170983906
  0
LINE
  8
_1-3_
  6
CONTINUOUS
 62
    7
 10
318.38033729609901
 20
171.21002368935766
 11
314.78034150257599
 21
167.61002170983906
  0
LINE
  8
_1-3_
  6
CONTINUOUS
 62
    7
 10
315.55195165948589
 20
171.21002368935766
 11
311.95192493598501
 21
167.61002170983906
  0
LINE
  8
_1-3_
  6
CONTINUOUS
 62
    7
 10
312.72351653490813
 20
171.21002368935766
 11
309.12350218339839
 21
167.61002170983906
  0
LINE
  8
_1-3_
  6
CONTINUOUS
 62
    7
 10
309.89510615431266
 20
171.21002368935766
 11
306.29507943081182
 21
167.61002170983906
  0
LINE
  8
_1-3_
  6
CONTINUOUS
 62
    7
 10
307.06667102973501
 20
171.21002368935766
 11
303.46666905021641
 21
167.61002170983906
  0
LINE
  8
_1-3_
  6
CONTINUOUS
 62
    7
 10
304.23826064913953
 20
171.21002368935766
 11
300.63824629762985
 21
167.61002170983906
  0
LINE
  8
_1-3_
  6
CONTINUOUS
 62
    7
 10
301.40982552456182
 20
171.21002368935766
 11
297.8098297310388
 21
167.61002170983906
  0
LINE
  8
_1-3_
  6
CONTINUOUS
 62
    7
 10
298.58141514396641
 20
171.21002368935766
 11
294.98141316444782
 21
167.61002170983906
  0
LINE
  8
_1-3_
  6
CONTINUOUS
 62
    7
 10
295.75300476337094
 20
171.21002368935766
 11
292.15299659785683
 21
167.61002170983906
  0
LINE
  8
_1-3_
  6
CONTINUOUS
 62
    7
 10
292.92456963879323
 20
171.21002368935766
 11
289.32456765927463
 21
167.61002170983906
  0
LINE
  8
_1-3_
  6
CONTINUOUS
 62
    7
 10
290.09618400218005
 20
171.21002368935766
 11
286.49615727867922
 21
167.61002170983906
  0
LINE
  8
_1-3_
  6
CONTINUOUS
 62
    7
 10
287.26772413362011
 20
171.21002368935766
 11
283.66773452609266
 21
167.61002170983906
  0
LINE
  8
_1-3_
  6
CONTINUOUS
 62
    7
 10
284.43933849700693
 20
171.21002368935766
 11
280.8393117735061
 21
167.61002170983906
  0
LINE
  8
_1-3_
  6
CONTINUOUS
 62
    7
 10
281.61090337242922
 20
171.21002368935766
 11
278.01088902091954
 21
167.61002170983906
  0
LINE
  8
_1-3_
  6
CONTINUOUS
 62
    7
 10
278.78248061984266
 20
171.21002368935766
 11
275.18247864032406
 21
167.61002170983906
  0
LINE
  8
_1-3_
  6
CONTINUOUS
 62
    7
 10
275.9540578672561
 20
171.21002368935766
 11
272.3540558877375
 21
167.61002170983906
  0
LINE
  8
_1-3_
  6
CONTINUOUS
 62
    7
 10
273.12563511466954
 20
171.21002368935766
 11
269.52563313515094
 21
167.61002170983906
  0
LINE
  8
_1-3_
  6
CONTINUOUS
 62
    7
 10
270.29719999009183
 20
171.21002368935766
 11
266.69719801057323
 21
167.61002170983906
  0
LINE
  8
_1-3_
  6
CONTINUOUS
 62
    7
 10
267.46876486551412
 20
171.21002368935766
 11
263.86876288599552
 21
167.61002170983906
  0
LINE
  8
_1-3_
  6
CONTINUOUS
 62
    7
 10
264.64032974093641
 20
171.21002368935766
 11
261.04034013340896
 21
167.61002170983906
  0
LINE
  8
_1-3_
  6
CONTINUOUS
 62
    7
 10
261.8118946163587
 20
171.21002368935766
 11
258.21189263684016
 21
167.61002170983906
  0
LINE
  8
_1-3_
  6
CONTINUOUS
 62
    7
 10
258.98345949178099
 20
171.21002368935766
 11
255.38344514027128
 21
167.61002170983906
  0
LINE
  8
_1-3_
  6
CONTINUOUS
 62
    7
 10
256.15502436720328
 20
171.21002368935766
 11
252.55502238768472
 21
167.61002170983906
  0
LINE
  8
_1-3_
  6
CONTINUOUS
 62
    7
 10
253.3265892426256
 20
171.21002368935766
 11
249.72659963509815
 21
167.61002170983906
  0
LINE
  8
_1-3_
  6
CONTINUOUS
 62
    7
 10
250.49815411804789
 20
171.21002368935766
 11
246.89813976653818
 21
167.61002170983906
  0
LINE
  8
_1-3_
  6
CONTINUOUS
 62
    7
 10
247.66971899347018
 20
171.21002368935766
 11
244.06971701395162
 21
167.61002170983906
  0
LINE
  8
_1-3_
  6
CONTINUOUS
 62
    7
 10
244.84127149690136
 20
171.21002368935766
 11
241.24126951738276
 21
167.61002170983906
  0
LINE
  8
_1-3_
  6
CONTINUOUS
 62
    7
 10
242.01283637232365
 20
171.21002368935766
 11
238.41283439280511
 21
167.61002170983906
  0
LINE
  8
_1-3_
  6
CONTINUOUS
 62
    7
 10
239.18440124774594
 20
171.21002368935766
 11
235.5843992682274
 21
167.61002170983906
  0
LINE
  8
_1-3_
  6
CONTINUOUS
 62
    7
 10
236.35596612316829
 20
171.21002368935766
 11
232.75596414364969
 21
167.61002170983906
  0
LINE
  8
_1-3_
  6
CONTINUOUS
 62
    7
 10
233.52753099859058
 20
171.21002368935766
 11
229.92752901907198
 21
167.61002170983906
  0
LINE
  8
_1-3_
  6
CONTINUOUS
 62
    7
 10
230.69909587401287
 20
171.21002368935766
 11
227.09909389449427
 21
167.61002170983906
  0
LINE
  8
_1-3_
  6
CONTINUOUS
 62
    7
 10
227.87064837744401
 20
171.21002368935766
 11
224.27065876991657
 21
167.61002170983906
  0
LINE
  8
_1-3_
  6
CONTINUOUS
 62
    7
 10
225.04222562485745
 20
171.21002368935766
 11
221.44222364533886
 21
167.61002170983906
  0
LINE
  8
_1-3_
  6
CONTINUOUS
 62
    7
 10
222.21379050027974
 20
171.21002368935766
 11
218.61378852076115
 21
167.61002170983906
  0
LINE
  8
_1-3_
  6
CONTINUOUS
 62
    7
 10
219.38535537570203
 20
171.21002368935766
 11
215.78535339618344
 21
167.61002170983906
  0
LINE
  8
_1-3_
  6
CONTINUOUS
 62
    7
 10
216.55690787913323
 20
171.21002368935766
 11
212.95691827160579
 21
167.61002170983906
  0
LINE
  8
_1-3_
  6
CONTINUOUS
 62
    7
 10
213.72848512654662
 20
171.21002368935766
 11
210.12845840304578
 21
167.61002170983906
  0
LINE
  8
_1-3_
  6
CONTINUOUS
 62
    7
 10
210.90005000196896
 20
171.21002368935766
 11
207.30004802245037
 21
167.61002170983906
  0
LINE
  8
_1-3_
  6
CONTINUOUS
 62
    7
 10
208.07160250540011
 20
171.21002368935766
 11
204.47158815389037
 21
167.61002170983906
  0
LINE
  8
_1-3_
  6
CONTINUOUS
 62
    7
 10
205.24317975281355
 20
171.21002368935766
 11
201.64315302931266
 21
167.61002170983906
  0
LINE
  8
_1-3_
  6
CONTINUOUS
 62
    7
 10
202.41473225624469
 20
171.21002368935766
 11
198.81474264871724
 21
167.61002170983906
  0
LINE
  8
_1-3_
  6
CONTINUOUS
 62
    7
 10
199.58629713166698
 20
171.21002368935766
 11
195.9862827801573
 21
167.61002170983906
  0
LINE
  8
_1-3_
  6
CONTINUOUS
 62
    7
 10
196.75787437908042
 20
171.21002368935766
 11
193.15784765557959
 21
167.61002170983906
  0
LINE
  8
_1-3_
  6
CONTINUOUS
 62
    7
 10
193.92942688251156
 20
171.21002368935766
 11
190.32941253100188
 21
167.61002170983906
  0
LINE
  8
_1-3_
  6
CONTINUOUS
 62
    7
 10
191.10099175793391
 20
171.21002368935766
 11
187.50097740642417
 21
167.61002170983906
  0
LINE
  8
_1-3_
  6
CONTINUOUS
 62
    7
 10
188.2725566333562
 20
171.21002368935766
 11
184.67254228184646
 21
167.61002170983906
  0
LINE
  8
_1-3_
  6
CONTINUOUS
 62
    7
 10
185.44410913678735
 20
171.21002368935766
 11
181.84410715726875
 21
167.61002170983906
  0
LINE
  8
_1-3_
  6
CONTINUOUS
 62
    7
 10
182.61569875619193
 20
171.21002368935766
 11
179.01567203269104
 21
167.61002170983906
  0
LINE
  8
_1-3_
  6
CONTINUOUS
 62
    7
 10
179.78726363161422
 20
171.21002368935766
 11
176.18723690811333
 21
167.61002170983906
  0
LINE
  8
_1-3_
  6
CONTINUOUS
 62
    7
 10
176.95880376305422
 20
171.21002368935766
 11
173.35880178353568
 21
167.61002170983906
  0
LINE
  8
_1-3_
  6
CONTINUOUS
 62
    7
 10
174.13036863847651
 20
171.21002368935766
 11
170.53036665895797
 21
167.61002170983906
  0
LINE
  8
_1-3_
  6
CONTINUOUS
 62
    7
 10
171.30193351389886
 20
171.21002368935766
 11
167.70190679039797
 21
167.61002170983906
  0
LINE
  8
_1-3_
  6
CONTINUOUS
 62
    7
 10
168.47347364533886
 20
171.21002368935766
 11
164.87347166582026
 21
167.61002170983906
  0
LINE
  8
_1-3_
  6
CONTINUOUS
 62
    7
 10
165.64506326474344
 20
171.21002368935766
 11
162.04506128522485
 21
167.61002170983906
  0
LINE
  8
_1-3_
  6
CONTINUOUS
 62
    7
 10
162.81662814016573
 20
171.21002368935766
 11
159.2166014166649
 21
167.61002170983906
  0
LINE
  8
_1-3_
  6
CONTINUOUS
 62
    7
 10
159.98819301558802
 20
171.21002368935766
 11
156.38816629208719
 21
167.61002170983906
  0
LINE
  8
_1-3_
  6
CONTINUOUS
 62
    7
 10
157.15975789101032
 20
171.21002368935766
 11
153.55975591149172
 21
167.61002170983906
  0
LINE
  8
_1-3_
  6
CONTINUOUS
 62
    7
 10
154.33132276643261
 20
171.21002368935766
 11
150.73129604293177
 21
167.61002170983906
  0
LINE
  8
_1-3_
  6
CONTINUOUS
 62
    7
 10
151.50286289787266
 20
171.21002368935766
 11
147.90286091835407
 21
167.61002170983906
  0
LINE
  8
_1-3_
  6
CONTINUOUS
 62
    7
 10
148.67445251727719
 20
171.21002368935766
 11
145.07442579377636
 21
167.61002170983906
  0
LINE
  8
_1-3_
  6
CONTINUOUS
 62
    7
 10
145.84599264871724
 20
171.21002368935766
 11
142.24599066919865
 21
167.61002170983906
  0
LINE
  8
_1-3_
  6
CONTINUOUS
 62
    7
 10
143.01755752413953
 20
171.21002368935766
 11
139.41755554462094
 21
167.61002170983906
  0
LINE
  8
_1-3_
  6
CONTINUOUS
 62
    7
 10
140.18912239956182
 20
171.21002368935766
 11
136.58912042004323
 21
167.61002170983906
  0
LINE
  8
_1-3_
  6
CONTINUOUS
 62
    7
 10
137.36068727498412
 20
171.21002368935766
 11
133.76068529546552
 21
167.61002170983906
  0
LINE
  8
_1-3_
  6
CONTINUOUS
 62
    7
 10
134.53225215040641
 20
171.21002368935766
 11
130.93225017088781
 21
167.61002170983906
  0
LINE
  8
_1-3_
  6
CONTINUOUS
 62
    7
 10
131.7038170258287
 20
171.21002368935766
 11
128.10381504631016
 21
167.61002170983906
  0
LINE
  8
_1-3_
  6
CONTINUOUS
 62
    7
 10
128.87538190125099
 20
171.21002368935766
 11
125.27537992173247
 21
167.61002170983906
  0
LINE
  8
_1-3_
  6
CONTINUOUS
 62
    7
 10
126.04694677667329
 20
171.21002368935766
 11
122.44694479715476
 21
167.61002170983906
  0
LINE
  8
_1-3_
  6
CONTINUOUS
 62
    7
 10
123.21851165209564
 20
171.21002368935766
 11
119.61850967257705
 21
167.61002170983906
  0
LINE
  8
_1-3_
  6
CONTINUOUS
 62
    7
 10
120.39007652751793
 20
171.21002368935766
 11
116.79009929198158
 21
167.61002170983906
  0
LINE
  8
_1-3_
  6
CONTINUOUS
 62
    7
 10
117.56164140294023
 20
171.21002368935766
 11
113.96163942342163
 21
167.61002170983906
  0
LINE
  8
_1-3_
  6
CONTINUOUS
 62
    7
 10
114.73320627836252
 20
171.21002368935766
 11
111.13320429884392
 21
167.61002170983906
  0
LINE
  8
_1-3_
  6
CONTINUOUS
 62
    7
 10
111.90477115378481
 20
171.21002368935766
 11
108.30479391824851
 21
167.61002170983906
  0
LINE
  8
_1-3_
  6
CONTINUOUS
 62
    7
 10
109.0763360292071
 20
171.21002368935766
 11
105.47633404968849
 21
167.61002170983906
  0
LINE
  8
_1-3_
  6
CONTINUOUS
 62
    7
 10
106.24790090462938
 20
171.21002368935766
 11
102.64792366909307
 21
167.61002170983906
  0
LINE
  8
_1-3_
  6
CONTINUOUS
 62
    7
 10
103.41946578005167
 20
171.21002368935766
 11
99.819463800533129
 21
167.61002170983906
  0
LINE
  8
_1-3_
  6
CONTINUOUS
 62
    7
 10
100.59103065547396
 20
171.21002368935766
 11
96.99102867595542
 21
167.61002170983906
  0
LINE
  8
_1-3_
  6
CONTINUOUS
 62
    7
 10
97.762595530896306
 20
171.21002368935766
 11
94.162593551377725
 21
167.61002170983906
  0
LINE
  8
_1-3_
  6
CONTINUOUS
 62
    7
 10
94.934160406318597
 20
171.21002368935766
 11
91.334133682817722
 21
167.61002170983906
  0
LINE
  8
_1-3_
  6
CONTINUOUS
 62
    7
 10
92.105725281740902
 20
171.21002368935766
 11
88.50569855824007
 21
167.61002170983906
  0
LINE
  8
_1-3_
  6
CONTINUOUS
 62
    7
 10
89.277265413180899
 20
171.21002368935766
 11
85.677288177644598
 21
167.61002170983906
  0
LINE
  8
_1-3_
  6
CONTINUOUS
 62
    7
 10
86.448855032585485
 20
171.21002368935766
 11
82.848828309084652
 21
167.61002170983906
  0
LINE
  8
_1-3_
  6
CONTINUOUS
 62
    7
 10
83.620419908007776
 20
171.21002368935766
 11
80.020393184506929
 21
167.61002170983906
  0
LINE
  8
_1-3_
  6
CONTINUOUS
 62
    7
 10
80.791984783430053
 20
171.21002368935766
 11
79.697038824287347
 21
170.11509010220604
  0
LINE
  8
_1-3_
  6
CONTINUOUS
 62
    7
 10
82.056253813202048
 20
167.61002170983906
 11
79.697038824287347
 21
169.96923669875375
  0
LINE
  8
_1-3_
  6
CONTINUOUS
 62
    7
 10
84.884688937779757
 20
167.61002170983906
 11
81.284686958261148
 21
171.21002368935766
  0
LINE
  8
_1-3_
  6
CONTINUOUS
 62
    7
 10
87.713099318375171
 20
167.61002170983906
 11
84.113097338856576
 21
171.21002368935766
  0
LINE
  8
_1-3_
  6
CONTINUOUS
 62
    7
 10
90.54153444295288
 20
167.61002170983906
 11
86.941557207416579
 21
171.21002368935766
  0
LINE
  8
_1-3_
  6
CONTINUOUS
 62
    7
 10
93.369969567530589
 20
167.61002170983906
 11
89.769992331994288
 21
171.21002368935766
  0
LINE
  8
_1-3_
  6
CONTINUOUS
 62
    7
 10
96.198404692108284
 20
167.61002170983906
 11
92.598402712589703
 21
171.21002368935766
  0
LINE
  8
_1-3_
  6
CONTINUOUS
 62
    7
 10
99.026815072703698
 20
167.61002170983906
 11
95.426813093185103
 21
171.21002368935766
  0
LINE
  8
_1-3_
  6
CONTINUOUS
 62
    7
 10
101.8552749412637
 20
167.61002170983906
 11
98.255248217762812
 21
171.21002368935766
  0
LINE
  8
_1-3_
  6
CONTINUOUS
 62
    7
 10
104.68368532185912
 20
167.61002170983906
 11
101.08368334234052
 21
171.21002368935766
  0
LINE
  8
_1-3_
  6
CONTINUOUS
 62
    7
 10
107.51209570245454
 20
167.61002170983906
 11
103.91209372293599
 21
171.21002368935766
  0
LINE
  8
_1-3_
  6
CONTINUOUS
 62
    7
 10
110.34055557101455
 20
167.61002170983906
 11
106.74055359149595
 21
171.21002368935766
  0
LINE
  8
_1-3_
  6
CONTINUOUS
 62
    7
 10
113.16899069559226
 20
167.61002170983906
 11
109.56898871607366
 21
171.21002368935766
  0
LINE
  8
_1-3_
  6
CONTINUOUS
 62
    7
 10
115.99740107618767
 20
167.61002170983906
 11
112.39739909666908
 21
171.21002368935766
  0
LINE
  8
_1-3_
  6
CONTINUOUS
 62
    7
 10
118.82581145678314
 20
167.61002170983906
 11
115.22580947726455
 21
171.21002368935766
  0
LINE
  8
_1-3_
  6
CONTINUOUS
 62
    7
 10
121.65424658136079
 20
167.61002170983906
 11
118.05424460184226
 21
171.21002368935766
  0
LINE
  8
_1-3_
  6
CONTINUOUS
 62
    7
 10
124.48265696195627
 20
167.61002170983906
 11
120.88265498243767
 21
171.21002368935766
  0
LINE
  8
_1-3_
  6
CONTINUOUS
 62
    7
 10
127.31109208653398
 20
167.61002170983906
 11
123.71111485099767
 21
171.21002368935766
  0
LINE
  8
_1-3_
  6
CONTINUOUS
 62
    7
 10
130.13952721111167
 20
167.61002170983906
 11
126.53952523159309
 21
171.21002368935766
  0
LINE
  8
_1-3_
  6
CONTINUOUS
 62
    7
 10
132.96798707967162
 20
167.61002170983906
 11
129.36798510015302
 21
171.21002368935766
  0
LINE
  8
_1-3_
  6
CONTINUOUS
 62
    7
 10
135.79639746026709
 20
167.61002170983906
 11
132.19639548074849
 21
171.21002368935766
  0
LINE
  8
_1-3_
  6
CONTINUOUS
 62
    7
 10
138.6248078408625
 20
167.61002170983906
 11
135.02480586134391
 21
171.21002368935766
  0
LINE
  8
_1-3_
  6
CONTINUOUS
 62
    7
 10
141.45324296544021
 20
167.61002170983906
 11
137.85324098592162
 21
171.21002368935766
  0
LINE
  8
_1-3_
  6
CONTINUOUS
 62
    7
 10
144.28162860205339
 20
167.61002170983906
 11
140.68165136651709
 21
171.21002368935766
  0
LINE
  8
_1-3_
  6
CONTINUOUS
 62
    7
 10
147.11008847061333
 20
167.61002170983906
 11
143.51011123507703
 21
171.21002368935766
  0
LINE
  8
_1-3_
  6
CONTINUOUS
 62
    7
 10
149.93849885120881
 20
167.61002170983906
 11
146.33852161567251
 21
171.21002368935766
  0
LINE
  8
_1-3_
  6
CONTINUOUS
 62
    7
 10
152.76695871976875
 20
167.61002170983906
 11
149.16695674025016
 21
171.21002368935766
  0
LINE
  8
_1-3_
  6
CONTINUOUS
 62
    7
 10
155.59536910036422
 20
167.61002170983906
 11
151.99534237686333
 21
171.21002368935766
  0
LINE
  8
_1-3_
  6
CONTINUOUS
 62
    7
 10
158.42380422494193
 20
167.61002170983906
 11
154.82380224542334
 21
171.21002368935766
  0
LINE
  8
_1-3_
  6
CONTINUOUS
 62
    7
 10
161.25223934951958
 20
167.61002170983906
 11
157.65223737000105
 21
171.21002368935766
  0
LINE
  8
_1-3_
  6
CONTINUOUS
 62
    7
 10
164.08067447409729
 20
167.61002170983906
 11
160.48067249457876
 21
171.21002368935766
  0
LINE
  8
_1-3_
  6
CONTINUOUS
 62
    7
 10
166.909109598675
 20
167.61002170983906
 11
163.30910761915641
 21
171.21002368935766
  0
LINE
  8
_1-3_
  6
CONTINUOUS
 62
    7
 10
169.73751997927047
 20
167.61002170983906
 11
166.13751799975188
 21
171.21002368935766
  0
LINE
  8
_1-3_
  6
CONTINUOUS
 62
    7
 10
172.56595510384818
 20
167.61002170983906
 11
168.96595312432959
 21
171.21002368935766
  0
LINE
  8
_1-3_
  6
CONTINUOUS
 62
    7
 10
175.3943654844436
 20
167.61002170983906
 11
171.794363504925
 21
171.21002368935766
  0
LINE
  8
_1-3_
  6
CONTINUOUS
 62
    7
 10
178.22280060902131
 20
167.61002170983906
 11
174.62279862950271
 21
171.21002368935766
  0
LINE
  8
_1-3_
  6
CONTINUOUS
 62
    7
 10
181.05123573359901
 20
167.61002170983906
 11
177.45123375408042
 21
171.21002368935766
  0
LINE
  8
_1-3_
  6
CONTINUOUS
 62
    7
 10
183.87967085817672
 20
167.61002170983906
 11
180.27966887865813
 21
171.21002368935766
  0
LINE
  8
_1-3_
  6
CONTINUOUS
 62
    7
 10
186.70808123877214
 20
167.61002170983906
 11
183.10807925925354
 21
171.21002368935766
  0
LINE
  8
_1-3_
  6
CONTINUOUS
 62
    7
 10
189.53651636334985
 20
167.61002170983906
 11
185.93648963984901
 21
171.21002368935766
  0
LINE
  8
_1-3_
  6
CONTINUOUS
 62
    7
 10
192.36495148792756
 20
167.61002170983906
 11
188.76494950840896
 21
171.21002368935766
  0
LINE
  8
_1-3_
  6
CONTINUOUS
 62
    7
 10
195.19336186852297
 20
167.61002170983906
 11
191.59337226099552
 21
171.21002368935766
  0
LINE
  8
_1-3_
  6
CONTINUOUS
 62
    7
 10
198.02179699310068
 20
167.61002170983906
 11
194.42179501358208
 21
171.21002368935766
  0
LINE
  8
_1-3_
  6
CONTINUOUS
 62
    7
 10
200.85023211767839
 20
167.61002170983906
 11
197.25024251015094
 21
171.21002368935766
  0
LINE
  8
_1-3_
  6
CONTINUOUS
 62
    7
 10
203.6786672422561
 20
167.61002170983906
 11
200.07865289074641
 21
171.21002368935766
  0
LINE
  8
_1-3_
  6
CONTINUOUS
 62
    7
 10
206.50707762285151
 20
167.61002170983906
 11
202.90707564333297
 21
171.21002368935766
  0
LINE
  8
_1-3_
  6
CONTINUOUS
 62
    7
 10
209.33551274742922
 20
167.61002170983906
 11
205.73551076791068
 21
171.21002368935766
  0
LINE
  8
_1-3_
  6
CONTINUOUS
 62
    7
 10
212.16392312802469
 20
167.61002170983906
 11
208.56394589248833
 21
171.21002368935766
  0
LINE
  8
_1-3_
  6
CONTINUOUS
 62
    7
 10
214.9923582526024
 20
167.61002170983906
 11
211.39235627308381
 21
171.21002368935766
  0
LINE
  8
_1-3_
  6
CONTINUOUS
 62
    7
 10
217.82079337718011
 20
167.61002170983906
 11
214.22079139766151
 21
171.21002368935766
  0
LINE
  8
_1-3_
  6
CONTINUOUS
 62
    7
 10
220.64920375777552
 20
167.61002170983906
 11
217.04921415024808
 21
171.21002368935766
  0
LINE
  8
_1-3_
  6
CONTINUOUS
 62
    7
 10
223.47763888235323
 20
167.61002170983906
 11
219.87763690283464
 21
171.21002368935766
  0
LINE
  8
_1-3_
  6
CONTINUOUS
 62
    7
 10
226.30606163493979
 20
167.61002170983906
 11
222.70607202741235
 21
171.21002368935766
  0
LINE
  8
_1-3_
  6
CONTINUOUS
 62
    7
 10
229.13448438752636
 20
167.61002170983906
 11
225.53449477999891
 21
171.21002368935766
  0
LINE
  8
_1-3_
  6
CONTINUOUS
 62
    7
 10
231.96291951210407
 20
167.61002170983906
 11
228.36292990457662
 21
171.21002368935766
  0
LINE
  8
_1-3_
  6
CONTINUOUS
 62
    7
 10
234.79135463668177
 20
167.61002170983906
 11
231.19135265716318
 21
171.21002368935766
  0
LINE
  8
_1-3_
  6
CONTINUOUS
 62
    7
 10
237.61978976125948
 20
167.61002170983906
 11
234.01980015373204
 21
171.21002368935766
  0
LINE
  8
_1-3_
  6
CONTINUOUS
 62
    7
 10
240.4482001418549
 20
167.61002170983906
 11
236.84819816233636
 21
171.21002368935766
  0
LINE
  8
_1-3_
  6
CONTINUOUS
 62
    7
 10
243.27662289444149
 20
167.61002170983906
 11
239.67663328691401
 21
171.21002368935766
  0
LINE
  8
_1-3_
  6
CONTINUOUS
 62
    7
 10
246.10504564702805
 20
167.61002170983906
 11
242.50504366750945
 21
171.21002368935766
  0
LINE
  8
_1-3_
  6
CONTINUOUS
 62
    7
 10
248.93348077160576
 20
167.61002170983906
 11
245.33349116407831
 21
171.21002368935766
  0
LINE
  8
_1-3_
  6
CONTINUOUS
 62
    7
 10
251.76191589618344
 20
167.61002170983906
 11
248.16191391666487
 21
171.21002368935766
  0
LINE
  8
_1-3_
  6
CONTINUOUS
 62
    7
 10
254.59032627677888
 20
167.61002170983906
 11
250.99033666925143
 21
171.21002368935766
  0
LINE
  8
_1-3_
  6
CONTINUOUS
 62
    7
 10
257.41876140135662
 20
167.61002170983906
 11
253.81877179382914
 21
171.21002368935766
  0
LINE
  8
_1-3_
  6
CONTINUOUS
 62
    7
 10
260.24719652593433
 20
167.61002170983906
 11
256.64720691840682
 21
171.21002368935766
  0
LINE
  8
_1-3_
  6
CONTINUOUS
 62
    7
 10
263.07560690652974
 20
167.61002170983906
 11
259.47561729900229
 21
171.21002368935766
  0
LINE
  8
_1-3_
  6
CONTINUOUS
 62
    7
 10
265.90404203110745
 20
167.61002170983906
 11
262.30404005158886
 21
171.21002368935766
  0
LINE
  8
_1-3_
  6
CONTINUOUS
 62
    7
 10
268.73247715568516
 20
167.61002170983906
 11
265.13247517616657
 21
171.21002368935766
  0
LINE
  8
_1-3_
  6
CONTINUOUS
 62
    7
 10
271.56091228026287
 20
167.61002170983906
 11
267.96091030074427
 21
171.21002368935766
  0
LINE
  8
_1-3_
  6
CONTINUOUS
 62
    7
 10
274.38932266085828
 20
167.61002170983906
 11
270.78932068133969
 21
171.21002368935766
  0
LINE
  8
_1-3_
  6
CONTINUOUS
 62
    7
 10
277.21775778543599
 20
167.61002170983906
 11
273.61776817790854
 21
171.21002368935766
  0
LINE
  8
_1-3_
  6
CONTINUOUS
 62
    7
 10
280.04618053802255
 20
167.61002170983906
 11
276.44619093049511
 21
171.21002368935766
  0
LINE
  8
_1-3_
  6
CONTINUOUS
 62
    7
 10
282.87460329060912
 20
167.61002170983906
 11
279.27461368308167
 21
171.21002368935766
  0
LINE
  8
_1-3_
  6
CONTINUOUS
 62
    7
 10
285.70303841518682
 20
167.61002170983906
 11
282.10304880765938
 21
171.21002368935766
  0
LINE
  8
_1-3_
  6
CONTINUOUS
 62
    7
 10
288.53147353976453
 20
167.61002170983906
 11
284.93148393223709
 21
171.21002368935766
  0
LINE
  8
_1-3_
  6
CONTINUOUS
 62
    7
 10
291.3598962923511
 20
167.61002170983906
 11
287.75990668482365
 21
171.21002368935766
  0
LINE
  8
_1-3_
  6
CONTINUOUS
 62
    7
 10
294.18832523093323
 20
167.61002170983906
 11
290.58834180940136
 21
171.21002368935766
  0
LINE
  8
_1-3_
  6
CONTINUOUS
 62
    7
 10
297.01675416951537
 20
167.61002170983906
 11
293.41675218999683
 21
171.21002368935766
  0
LINE
  8
_1-3_
  6
CONTINUOUS
 62
    7
 10
299.84517692210193
 20
167.61002170983906
 11
296.24518731457448
 21
171.21002368935766
  0
LINE
  8
_1-3_
  6
CONTINUOUS
 62
    7
 10
302.67359967468849
 20
167.61002170983906
 11
299.07359769516995
 21
171.21002368935766
  0
LINE
  8
_1-3_
  6
CONTINUOUS
 62
    7
 10
305.5020347992662
 20
167.61002170983906
 11
301.90203281974766
 21
171.21002368935766
  0
LINE
  8
_1-3_
  6
CONTINUOUS
 62
    7
 10
308.33045755185282
 20
167.61002170983906
 11
304.73046794432537
 21
171.21002368935766
  0
LINE
  8
_1-3_
  6
CONTINUOUS
 62
    7
 10
311.15888649043495
 20
167.61002170983906
 11
307.55887832492078
 21
171.21002368935766
  0
LINE
  8
_1-3_
  6
CONTINUOUS
 62
    7
 10
313.98731542901714
 20
167.61002170983906
 11
310.38731344949849
 21
171.21002368935766
  0
LINE
  8
_1-3_
  6
CONTINUOUS
 62
    7
 10
316.81573818160371
 20
167.61002170983906
 11
313.2157485740762
 21
171.21002368935766
  0
LINE
  8
_1-3_
  6
CONTINUOUS
 62
    7
 10
319.64416712018578
 20
167.61002170983906
 11
316.04418369865391
 21
171.21002368935766
  0
LINE
  8
_1-3_
  6
CONTINUOUS
 62
    7
 10
322.47260224476349
 20
167.61002170983906
 11
318.87259407924932
 21
171.21002368935766
  0
LINE
  8
_1-3_
  6
CONTINUOUS
 62
    7
 10
325.30101881135454
 20
167.61002170983906
 11
321.70102920382703
 21
171.21002368935766
  0
LINE
  8
_1-3_
  6
CONTINUOUS
 62
    7
 10
328.12944774993662
 20
167.61002170983906
 11
324.52943958442251
 21
171.21002368935766
  0
LINE
  8
_1-3_
  6
CONTINUOUS
 62
    7
 10
329.44974952754433
 20
169.11815505680909
 11
327.35787470900016
 21
171.21002368935766
  0
LINE
  8
_1-0_
  6
CONTINUOUS
 62
    7
 10
79.697038824287347
 20
142.41002022520013
 11
79.697038824287347
 21
138.41001940040073
  0
ARC
  8
_1-3_
  6
CONTINUOUS
 62
    3
 10
88.69704377308382
 20
166.61001841064143
 40
0.9999999162313101
 50
0
 51
90
  0
ARC
  8
_1-3_
  6
CONTINUOUS
 62
    3
 10
88.297032555811839
 20
166.2100195653606
 40
0.9999999162313101
 50
0
 51
90
  0
ARC
  8
_1-3_
  6
CONTINUOUS
 62
    3
 10
81.097078084739167
 20
166.2100195653606
 40
0.9999999162313101
 50
90
 51
180
  0
ARC
  8
_1-3_
  6
CONTINUOUS
 62
    3
 10
80.697066867467242
 20
166.61001841064143
 40
0.9999999162313101
 50
90
 51
180
  0
ARC
  8
_1-3_
  6
CONTINUOUS
 62
    3
 10
81.097078084739167
 20
149.01001973032049
 40
0.9999999162313101
 50
180
 51
270
  0
ARC
  8
_1-3_
  6
CONTINUOUS
 62
    3
 10
80.697066867467242
 20
148.61002088503966
 40
0.9999999162313101
 50
180
 51
270
  0
ARC
  8
_1-3_
  6
CONTINUOUS
 62
    3
 10
88.297032555811839
 20
149.01001973032049
 40
0.9999999162313101
 50
270
 51
0
  0
ARC
  8
_1-3_
  6
CONTINUOUS
 62
    3
 10
88.69704377308382
 20
148.61002088503966
 40
0.9999999162313101
 50
270
 51
0
  0
ARC
  8
_1-3_
  6
CONTINUOUS
 62
    3
 10
268.69703140109266
 20
166.61001841064143
 40
0.9999999162313101
 50
0
 51
90
  0
ARC
  8
_1-3_
  6
CONTINUOUS
 62
    3
 10
268.29702018382068
 20
166.2100195653606
 40
0.9999999162313101
 50
0
 51
90
  0
ARC
  8
_1-3_
  6
CONTINUOUS
 62
    3
 10
261.09706571274808
 20
166.2100195653606
 40
0.9999999162313101
 50
90
 51
180
  0
ARC
  8
_1-3_
  6
CONTINUOUS
 62
    3
 10
260.6970544954761
 20
166.61001841064143
 40
0.9999999162313101
 50
90
 51
180
  0
ARC
  8
_1-3_
  6
CONTINUOUS
 62
    3
 10
261.09706571274808
 20
149.01001973032049
 40
0.9999999162313101
 50
180
 51
270
  0
ARC
  8
_1-3_
  6
CONTINUOUS
 62
    3
 10
260.6970544954761
 20
148.61002088503966
 40
0.9999999162313101
 50
180
 51
270
  0
ARC
  8
_1-3_
  6
CONTINUOUS
 62
    3
 10
268.29702018382068
 20
149.01001973032049
 40
0.9999999162313101
 50
270
 51
0
  0
ARC
  8
_1-3_
  6
CONTINUOUS
 62
    3
 10
268.69703140109266
 20
148.61002088503966
 40
0.9999999162313101
 50
270
 51
0
  0
TEXT
  8
_1-2_
 62
    7
 10
70.572023153098542
 20
115.7368733845118
 40
2.5
 41
1
 50
0
  1
5
  0
TEXT
  8
_1-2_
 62
    7
 10
71.072024802697342
 20
115.7368733845118
 40
2.5
 41
1
 50
0
  1
0
  0
TEXT
  8
_1-2_
 62
    7
 10
74.447037999487918
 20
115.7368733845118
 40
2.5
 41
1
 50
0
  1
40
  0
TEXT
  8
_1-0_
 62
    7
 10
31.535079562779742
 20
100.95515242404937
 40
2.5
 41
1
 50
0
  1
破風板　40ｘ200
  0
POINT
  8
_1-2_
 62
    7
 10
70.697033875490888
 20
115.23687173491297
  0
POINT
  8
_1-2_
 62
    7
 10
71.697037174688489
 20
115.23687173491297
  0
POINT
  8
_1-2_
 62
    7
 10
79.697038824287347
 20
115.23687173491297
  0
LINE
  8
_0-1_
  6
CONTINUOUS
 62
    7
 10
216.90276689122146
 20
127.02637715219548
 11
235.56697950471391
 21
127.02637715219548
  0
LINE
  8
_0-1_
  6
CONTINUOUS
 62
    7
 10
219.45055576896641
 20
120.02637880179429
 11
235.56697950471391
 21
120.02637880179429
  0
LINE
  8
_0-1_
  6
CONTINUOUS
 62
    7
 10
221.9983693906936
 20
113.02638045139311
 11
235.56697950471391
 21
113.02638045139311
  0
LINE
  8
_0-1_
  6
CONTINUOUS
 62
    7
 10
224.54615826843855
 20
106.02638210099192
 11
235.56697950471391
 21
106.02638210099192
  0
LINE
  8
_0-1_
  6
CONTINUOUS
 62
    7
 10
227.0939471461835
 20
99.02637756459518
 11
235.56697950471391
 21
99.02637756459518
  0
TEXT
  8
_0-1_
 62
    7
 10
239.96224895018474
 20
125.08303427318366
 40
2.5
 41
1
 50
0
  1
桟瓦
  0
TEXT
  8
_0-1_
 62
    7
 10
239.96225307418177
 20
110.64808785215325
 40
2.5
 41
1
 50
0
  1
流し桟
  0
TEXT
  8
_1-3_
 62
    7
 10
239.96224895018474
 20
90.074159431545141
 40
2.5
 41
1
 50
0
  1
垂木　　Ｃ－100ｘ50ｘ20ｘ2.3
  0
TEXT
  8
_1-3_
 62
    7
 10
239.96225719817883
 20
103.6795019872356
 40
2.5
 41
1
 50
0
  1
下葺き材
  0
TEXT
  8
_1-3_
 62
    7
 10
253.41421593181482
 20
104.04184049151135
 40
2.5
 41
1
 50
0
  1
ゴムアス系ルーフィング
  0
TEXT
  8
_1-3_
 62
    7
 10
254.51614794194995
 20
97.31510230923729
 40
2.5
 41
1
 50
0
  1
硬質木片セメント板　ｔ＝18
  0
TEXT
  8
_1-3_
 62
    7
 10
239.96225307418177
 20
96.876830709390362
 40
2.5
 41
1
 50
0
  1
野地板
  0
LINE
  8
_1-3_
  6
CONTINUOUS
 62
    7
 10
92.393992675110795
 20
176.01003457670984
 11
329.44974952754433
 21
176.01003457670984
  0
TEXT
  8
_1-3_
 62
    7
 10
399.33840777422932
 20
14.096054386448202
 40
2.5
 41
1
 50
0
  1
31
  0
TEXT
  8
_1-0_
 62
    7
 10
45.397582698512736
 20
13.77361400707349
 40
2.5
 41
1
 50
0
  1
袖　3
  0
LINE
  8
_1-0_
  6
CONTINUOUS
 62
    7
 10
71.697037174688489
 20
173.0157776549932
 11
74.691288947165816
 21
176.01003457670984
  0
LINE
  8
_1-0_
  6
CONTINUOUS
 62
    7
 10
71.697037174688489
 20
170.18735490240664
 11
77.51971684899172
 21
176.01003457670984
  0
LINE
  8
_1-0_
  6
CONTINUOUS
 62
    7
 10
71.697037174688489
 20
176.01003457670984
 11
71.697037174688489
 21
138.41001940040073
  0
LINE
  8
_1-3_
  6
CONTINUOUS
 62
    7
 10
79.697038824287347
 20
176.01003457670984
 11
71.697037174688489
 21
176.01003457670984
  0
LINE
  8
_1-0_
  6
DASHED1
 62
    3
 10
80.00158775798667
 20
176.27753319054335
 11
80.00158775798667
 21
171.81002814327445
  0
LINE
  8
_1-0_
  6
CONTINUOUS
 62
    7
 10
80.277861811472633
 20
173.01003705110807
 11
80.277861811472633
 21
172.41003259719125
  0
LINE
  8
_1-0_
  6
CONTINUOUS
 62
    7
 10
80.277861811472633
 20
172.41003259719125
 11
80.277861811472633
 21
173.01003705110807
  0
LINE
  8
_1-0_
  6
CONTINUOUS
 62
    7
 10
80.277861811472633
 20
173.01003705110807
 11
85.077847954842582
 21
173.01003705110807
  0
LINE
  8
_1-0_
  6
CONTINUOUS
 62
    7
 10
85.077847954842582
 20
173.01003705110807
 11
85.077847954842582
 21
172.41003259719125
  0
LINE
  8
_1-0_
  6
CONTINUOUS
 62
    7
 10
85.077847954842582
 20
172.41003259719125
 11
80.277861811472633
 21
172.41003259719125
  0
LINE
  8
_1-0_
  6
CONTINUOUS
 62
    7
 10
80.277861811472633
 20
173.01003705110807
 11
85.077847954842582
 21
172.41003259719125
  0
LINE
  8
_1-0_
  6
CONTINUOUS
 62
    7
 10
328.39392999035579
 20
172.41003259719125
 11
80.277861811472633
 21
172.41003259719125
  0
LINE
  8
_1-0_
  6
CONTINUOUS
 62
    7
 10
328.39392999035579
 20
173.01003705110807
 11
80.277861811472633
 21
173.01003705110807
  0
LINE
  8
_1-0_
  6
CONTINUOUS
 62
    7
 10
92.393992675110795
 20
176.01003457670984
 11
80.277861811472633
 21
176.01003457670984
  0
LINE
  8
_1-0_
  6
CONTINUOUS
 62
    7
 10
80.277861811472633
 20
173.01003705110807
 11
80.277861811472633
 21
176.01003457670984
  0
LINE
  8
ADD_LINE
  6
DOT
 62
    4
 10
70.697033875490888
 20
128.64517795983906
 11
70.697033875490888
 21
214.88935108153078
  0
LINE
  8
ADD_LINE
  6
DOT
 62
    4
 10
70.697033875490888
 20
214.78278762940471
 11
70.697033875490888
 21
192.02472026638736
  0
LINE
  8
_1-4_
  6
CONTINUOUS
 62
    7
 10
115.69701531750422
 20
181.39808303956096
 11
115.69701531750422
 21
178.99808996787601
  0
LINE
  8
_1-4_
  6
CONTINUOUS
 62
    7
 10
115.69701531750422
 20
181.39808303956096
 11
115.69701531750422
 21
178.99808996787601
  0
LINE
  8
_1-4_
  6
CONTINUOUS
 62
    7
 10
113.49702785445523
 20
179.19808320452086
 11
113.6970334630912
 21
178.99808996787601
  0
LINE
  8
_1-4_
  6
CONTINUOUS
 62
    7
 10
113.6970334630912
 20
178.99808996787601
 11
115.69701531750422
 21
178.99808996787601
  0
LINE
  8
_1-4_
  6
CONTINUOUS
 62
    7
 10
107.6970136679054
 20
178.19809227731434
 11
108.1015282899493
 21
179.19808320452086
  0
LINE
  8
_1-4_
  6
CONTINUOUS
 62
    7
 10
108.1015282899493
 20
179.19808320452086
 11
113.49702785445523
 21
179.19808320452086
  0
LINE
  8
_1-4_
  6
CONTINUOUS
 62
    7
 10
70.697033875490888
 20
178.19809227731434
 11
70.697033875490888
 21
164.39808881315679
  0
LINE
  8
_1-4_
  6
CONTINUOUS
 62
    7
 10
68.297028431814795
 20
164.39808881315679
 11
70.697033875490888
 21
164.39808881315679
  0
LINE
  8
_1-4_
  6
CONTINUOUS
 62
    7
 10
67.697023977897999
 20
164.99809326707361
 11
67.697023977897999
 21
181.39808303956096
  0
LINE
  8
_1-4_
  6
CONTINUOUS
 62
    7
 10
68.297028431814795
 20
164.39808881315679
 11
67.697023977897999
 21
164.99809326707361
  0
LINE
  8
_1-4_
  6
CONTINUOUS
 62
    7
 10
84.497024967657282
 20
178.19809227731434
 11
70.697033875490888
 21
178.19809227731434
  0
LINE
  8
_1-4_
  6
CONTINUOUS
 62
    7
 10
107.6970136679054
 20
178.19809227731434
 11
103.097039319167
 21
178.19809227731434
  0
LINE
  8
_1-4_
  6
CONTINUOUS
 62
    7
 10
101.69702480269741
 20
178.19809227731434
 11
85.897027112135746
 21
178.19809227731434
  0
LINE
  8
_1-4_
  6
CONTINUOUS
 62
    7
 10
67.697023977897999
 20
181.39808303956096
 11
72.690359598675002
 21
181.39808303956096
  0
LINE
  8
_1-4_
  6
CONTINUOUS
 62
    7
 10
77.007355580252295
 20
181.39808303956096
 11
115.69701531750422
 21
181.39808303956096
  0
LINE
  8
_1-4_
  6
CONTINUOUS
 62
    7
 10
102.89703371053102
 20
175.99809244227419
 11
101.89703041133339
 21
175.99809244227419
  0
LINE
  8
_1-4_
  6
CONTINUOUS
 62
    7
 10
85.697033875490902
 20
175.99809244227419
 11
84.697030576293272
 21
175.99809244227419
  0
LINE
  8
_1-4_
  6
CONTINUOUS
 62
    7
 10
84.497024967657282
 20
178.19809227731434
 11
84.697030576293272
 21
175.99809244227419
  0
LINE
  8
_1-4_
  6
CONTINUOUS
 62
    7
 10
85.697033875490902
 20
175.99809244227419
 11
85.897027112135746
 21
178.19809227731434
  0
LINE
  8
_1-4_
  6
CONTINUOUS
 62
    7
 10
101.69702480269741
 20
178.19809227731434
 11
101.89703041133339
 21
175.99809244227419
  0
LINE
  8
_1-4_
  6
CONTINUOUS
 62
    7
 10
102.89703371053102
 20
175.99809244227419
 11
103.097039319167
 21
178.19809227731434
  0
LINE
  8
_1-4_
  6
CONTINUOUS
 62
    7
 10
115.69701531750422
 20
181.39808303956096
 11
176.89702422533782
 21
181.39808303956096
  0
LINE
  8
_1-4_
  6
CONTINUOUS
 62
    7
 10
176.89702422533782
 20
181.39808303956096
 11
176.89702422533782
 21
179.79808765843762
  0
LINE
  8
_1-4_
  6
CONTINUOUS
 62
    7
 10
175.49700970886823
 20
179.79808765843762
 11
175.49700970886823
 21
179.59808204980163
  0
LINE
  8
_1-4_
  6
CONTINUOUS
 62
    7
 10
176.29700739942987
 20
179.79808765843762
 11
176.29700739942987
 21
179.59808204980163
  0
LINE
  8
_1-4_
  6
CONTINUOUS
 62
    7
 10
173.49700311047297
 20
179.79808765843762
 11
173.49700311047297
 21
179.59808204980163
  0
LINE
  8
_1-4_
  6
CONTINUOUS
 62
    7
 10
172.8970110285473
 20
179.79808765843762
 11
172.8970110285473
 21
179.59808204980163
  0
LINE
  8
_1-4_
  6
CONTINUOUS
 62
    7
 10
172.8970110285473
 20
179.59808204980163
 11
173.49700311047297
 21
179.59808204980163
  0
LINE
  8
_1-4_
  6
CONTINUOUS
 62
    7
 10
175.49700970886823
 20
179.59808204980163
 11
176.29700739942987
 21
179.59808204980163
  0
LINE
  8
_1-4_
  6
CONTINUOUS
 62
    7
 10
173.49700311047297
 20
179.79808765843762
 11
175.49700970886823
 21
179.79808765843762
  0
LINE
  8
_1-4_
  6
CONTINUOUS
 62
    7
 10
176.29700739942987
 20
179.79808765843762
 11
176.89702422533782
 21
179.79808765843762
  0
LINE
  8
_1-4_
  6
CONTINUOUS
 62
    7
 10
168.50419948531459
 20
179.79808765843762
 11
168.57290115206925
 21
179.79808765843762
  0
LINE
  8
_1-4_
  6
CONTINUOUS
 62
    7
 10
168.09701251318623
 20
179.79808765843762
 11
168.50419948531459
 21
179.79808765843762
  0
LINE
  8
_1-4_
  6
CONTINUOUS
 62
    7
 10
152.0970092139886
 20
178.39808551395919
 11
165.09701498758446
 21
178.39808551395919
  0
LINE
  8
_1-4_
  6
CONTINUOUS
 62
    7
 10
133.69701284310599
 20
178.39808551395919
 11
134.69701614230362
 21
175.99808007028309
  0
LINE
  8
_1-4_
  6
CONTINUOUS
 62
    7
 10
135.69701944150125
 20
175.99808007028309
 11
136.69701036870777
 21
178.39808551395919
  0
LINE
  8
_1-4_
  6
CONTINUOUS
 62
    7
 10
149.09701168838683
 20
178.39808551395919
 11
150.09701498758446
 21
175.99808007028309
  0
LINE
  8
_1-4_
  6
CONTINUOUS
 62
    7
 10
151.09701828678209
 20
175.99808007028309
 11
152.0970092139886
 21
178.39808551395919
  0
LINE
  8
_1-4_
  6
CONTINUOUS
 62
    7
 10
165.09701498758446
 20
178.39808551395919
 11
166.09701828678209
 21
175.99808007028309
  0
LINE
  8
_1-4_
  6
CONTINUOUS
 62
    7
 10
168.09701251318623
 20
179.79808765843762
 11
172.8970110285473
 21
179.79808765843762
  0
LINE
  8
_1-4_
  6
CONTINUOUS
 62
    7
 10
134.69701614230362
 20
175.99808007028309
 11
135.69701944150125
 21
175.99808007028309
  0
LINE
  8
_1-4_
  6
CONTINUOUS
 62
    7
 10
150.09701498758446
 20
175.99808007028309
 11
151.09701828678209
 21
175.99808007028309
  0
LINE
  8
_1-4_
  6
CONTINUOUS
 62
    7
 10
167.0970092139886
 20
175.99808007028309
 11
167.3953226641575
 21
177.13165138573913
  0
LINE
  8
_1-4_
  6
CONTINUOUS
 62
    7
 10
167.39837854596703
 20
177.1432686854119
 11
168.09701251318623
 21
179.79808765843762
  0
LINE
  8
_1-4_
  6
CONTINUOUS
 62
    7
 10
166.09701828678209
 20
175.99808007028309
 11
167.0970092139886
 21
175.99808007028309
  0
LINE
  8
_1-4_
  6
CONTINUOUS
 62
    7
 10
118.42638790908995
 20
178.39808551395919
 11
133.69701284310599
 21
178.39808551395919
  0
LINE
  8
_1-4_
  6
CONTINUOUS
 62
    7
 10
136.69701036870777
 20
178.39808551395919
 11
149.09701168838683
 21
178.39808551395919
  0
LINE
  8
_1-4_
  6
CONTINUOUS
 62
    7
 10
115.69701531750422
 20
181.39808303956096
 11
115.69701531750422
 21
177.39808221476153
  0
LINE
  8
_1-4_
  6
CONTINUOUS
 62
    7
 10
116.74656844118454
 20
176.27595499110231
 11
117.92018789193412
 21
178.12021059313992
  0
LINE
  8
_1-4_
  6
CONTINUOUS
 62
    7
 10
107.89701927654137
 20
177.99808666867835
 11
108.89702257573902
 21
177.99808666867835
  0
LINE
  8
_1-4_
  6
CONTINUOUS
 62
    7
 10
108.89702257573902
 20
177.99808666867835
 11
108.89702257573902
 21
177.39808221476153
  0
LINE
  8
_1-4_
  6
CONTINUOUS
 62
    7
 10
107.89701927654137
 20
177.99808666867835
 11
107.89701927654137
 21
175.99808007028309
  0
LINE
  8
_1-4_
  6
CONTINUOUS
 62
    7
 10
116.2403684240287
 20
175.99808007028309
 11
107.89701927654137
 21
175.99808007028309
  0
LINE
  8
_1-4_
  6
CONTINUOUS
 62
    7
 10
111.39701845174196
 20
177.99808666867835
 11
112.19701614230361
 21
177.99808666867835
  0
LINE
  8
_1-4_
  6
CONTINUOUS
 62
    7
 10
111.39701845174196
 20
177.99808666867835
 11
111.39701845174196
 21
177.39808221476153
  0
LINE
  8
_1-4_
  6
CONTINUOUS
 62
    7
 10
112.19701614230361
 20
177.99808666867835
 11
112.19701614230361
 21
177.39808221476153
  0
LINE
  8
_1-4_
  6
CONTINUOUS
 62
    7
 10
112.19701614230361
 20
177.39808221476153
 11
115.69701531750422
 21
177.39808221476153
  0
LINE
  8
_1-4_
  6
CONTINUOUS
 62
    7
 10
108.89702257573902
 20
177.39808221476153
 11
111.39701845174196
 21
177.39808221476153
  0
LINE
  8
_1-4_
  6
CONTINUOUS
 62
    7
 10
176.89702422533782
 20
181.39808303956096
 11
238.09702076118035
 21
181.39808303956096
  0
LINE
  8
_1-4_
  6
CONTINUOUS
 62
    7
 10
238.09702076118035
 20
181.39808303956096
 11
238.09702076118035
 21
179.79808765843762
  0
LINE
  8
_1-4_
  6
CONTINUOUS
 62
    7
 10
236.69700624471071
 20
179.79808765843762
 11
236.69700624471071
 21
179.59808204980163
  0
LINE
  8
_1-4_
  6
CONTINUOUS
 62
    7
 10
237.49700393527237
 20
179.79808765843762
 11
237.49700393527237
 21
179.59808204980163
  0
LINE
  8
_1-4_
  6
CONTINUOUS
 62
    7
 10
234.69699964631548
 20
179.79808765843762
 11
234.69699964631548
 21
179.59808204980163
  0
LINE
  8
_1-4_
  6
CONTINUOUS
 62
    7
 10
234.09700756438977
 20
179.79808765843762
 11
234.09700756438977
 21
179.59808204980163
  0
LINE
  8
_1-4_
  6
CONTINUOUS
 62
    7
 10
234.09700756438977
 20
179.59808204980163
 11
234.69699964631548
 21
179.59808204980163
  0
LINE
  8
_1-4_
  6
CONTINUOUS
 62
    7
 10
236.69700624471071
 20
179.59808204980163
 11
237.49700393527237
 21
179.59808204980163
  0
LINE
  8
_1-4_
  6
CONTINUOUS
 62
    7
 10
234.69699964631548
 20
179.79808765843762
 11
236.69700624471071
 21
179.79808765843762
  0
LINE
  8
_1-4_
  6
CONTINUOUS
 62
    7
 10
237.49700393527237
 20
179.79808765843762
 11
238.09702076118035
 21
179.79808765843762
  0
LINE
  8
_1-4_
  6
CONTINUOUS
 62
    7
 10
229.70420839314821
 20
179.79808765843762
 11
229.77289768791172
 21
179.79808765843762
  0
LINE
  8
_1-4_
  6
CONTINUOUS
 62
    7
 10
229.29702142101985
 20
179.79808765843762
 11
229.70420839314821
 21
179.79808765843762
  0
LINE
  8
_1-4_
  6
CONTINUOUS
 62
    7
 10
213.29701812182222
 20
178.39808551395919
 11
226.29701152342693
 21
178.39808551395919
  0
LINE
  8
_1-4_
  6
CONTINUOUS
 62
    7
 10
194.89702175093959
 20
178.39808551395919
 11
195.89702505013724
 21
175.99808007028309
  0
LINE
  8
_1-4_
  6
CONTINUOUS
 62
    7
 10
196.89702834933487
 20
175.99808007028309
 11
197.89701927654141
 21
178.39808551395919
  0
LINE
  8
_1-4_
  6
CONTINUOUS
 62
    7
 10
210.2970082242293
 20
178.39808551395919
 11
211.29701152342693
 21
175.99808007028309
  0
LINE
  8
_1-4_
  6
CONTINUOUS
 62
    7
 10
212.29701482262456
 20
175.99808007028309
 11
213.29701812182222
 21
178.39808551395919
  0
LINE
  8
_1-4_
  6
CONTINUOUS
 62
    7
 10
226.29701152342693
 20
178.39808551395919
 11
227.29701482262456
 21
175.99808007028309
  0
LINE
  8
_1-4_
  6
CONTINUOUS
 62
    7
 10
229.29702142101985
 20
179.79808765843762
 11
234.09700756438977
 21
179.79808765843762
  0
LINE
  8
_1-4_
  6
CONTINUOUS
 62
    7
 10
195.89702505013724
 20
175.99808007028309
 11
196.89702834933487
 21
175.99808007028309
  0
LINE
  8
_1-4_
  6
CONTINUOUS
 62
    7
 10
211.29701152342693
 20
175.99808007028309
 11
212.29701482262456
 21
175.99808007028309
  0
LINE
  8
_1-4_
  6
CONTINUOUS
 62
    7
 10
228.29701812182222
 20
175.99808007028309
 11
228.59533157199112
 21
177.13165138573913
  0
LINE
  8
_1-4_
  6
CONTINUOUS
 62
    7
 10
228.59837508180954
 20
177.1432686854119
 11
229.29702142101985
 21
179.79808765843762
  0
LINE
  8
_1-4_
  6
CONTINUOUS
 62
    7
 10
227.29701482262456
 20
175.99808007028309
 11
228.29701812182222
 21
175.99808007028309
  0
LINE
  8
_1-4_
  6
CONTINUOUS
 62
    7
 10
179.62639681692355
 20
178.39808551395919
 11
194.89702175093959
 21
178.39808551395919
  0
LINE
  8
_1-4_
  6
CONTINUOUS
 62
    7
 10
197.89701927654141
 20
178.39808551395919
 11
210.2970082242293
 21
178.39808551395919
  0
LINE
  8
_1-4_
  6
CONTINUOUS
 62
    7
 10
176.89702422533782
 20
181.39808303956096
 11
176.89702422533782
 21
177.39808221476153
  0
LINE
  8
_1-4_
  6
CONTINUOUS
 62
    7
 10
177.94657734901818
 20
176.27595499110231
 11
179.12019679976771
 21
178.12021059313992
  0
LINE
  8
_1-4_
  6
CONTINUOUS
 62
    7
 10
169.09702818437498
 20
177.99808666867835
 11
170.09703148357261
 21
177.99808666867835
  0
LINE
  8
_1-4_
  6
CONTINUOUS
 62
    7
 10
170.09703148357261
 20
177.99808666867835
 11
170.09703148357261
 21
177.39808221476153
  0
LINE
  8
_1-4_
  6
CONTINUOUS
 62
    7
 10
169.09702818437498
 20
177.99808666867835
 11
169.09702818437498
 21
175.99808007028309
  0
LINE
  8
_1-4_
  6
CONTINUOUS
 62
    7
 10
177.44037733186235
 20
175.99808007028309
 11
169.09702818437498
 21
175.99808007028309
  0
LINE
  8
_1-4_
  6
CONTINUOUS
 62
    7
 10
172.59702735957558
 20
177.99808666867835
 11
173.39702505013724
 21
177.99808666867835
  0
LINE
  8
_1-4_
  6
CONTINUOUS
 62
    7
 10
172.59702735957558
 20
177.99808666867835
 11
172.59702735957558
 21
177.39808221476153
  0
LINE
  8
_1-4_
  6
CONTINUOUS
 62
    7
 10
173.39702505013724
 20
177.99808666867835
 11
173.39702505013724
 21
177.39808221476153
  0
LINE
  8
_1-4_
  6
CONTINUOUS
 62
    7
 10
173.39702505013724
 20
177.39808221476153
 11
176.89702422533782
 21
177.39808221476153
  0
LINE
  8
_1-4_
  6
CONTINUOUS
 62
    7
 10
170.09703148357261
 20
177.39808221476153
 11
172.59702735957558
 21
177.39808221476153
  0
LINE
  8
_1-4_
  6
CONTINUOUS
 62
    7
 10
238.09702076118035
 20
181.39808303956096
 11
299.29702966901391
 21
181.39808303956096
  0
LINE
  8
_1-4_
  6
CONTINUOUS
 62
    7
 10
299.29702966901391
 20
181.39808303956096
 11
299.29702966901391
 21
179.79808765843762
  0
LINE
  8
_1-4_
  6
CONTINUOUS
 62
    7
 10
297.89701515254433
 20
179.79808765843762
 11
297.89701515254433
 21
179.59808204980163
  0
LINE
  8
_1-4_
  6
CONTINUOUS
 62
    7
 10
298.69701284310599
 20
179.79808765843762
 11
298.69701284310599
 21
179.59808204980163
  0
LINE
  8
_1-4_
  6
CONTINUOUS
 62
    7
 10
295.89700855414912
 20
179.79808765843762
 11
295.89700855414912
 21
179.59808204980163
  0
LINE
  8
_1-4_
  6
CONTINUOUS
 62
    7
 10
295.29701647222339
 20
179.79808765843762
 11
295.29701647222339
 21
179.59808204980163
  0
LINE
  8
_1-4_
  6
CONTINUOUS
 62
    7
 10
295.29701647222339
 20
179.59808204980163
 11
295.89700855414912
 21
179.59808204980163
  0
LINE
  8
_1-4_
  6
CONTINUOUS
 62
    7
 10
297.89701515254433
 20
179.59808204980163
 11
298.69701284310599
 21
179.59808204980163
  0
LINE
  8
_1-4_
  6
CONTINUOUS
 62
    7
 10
295.89700855414912
 20
179.79808765843762
 11
297.89701515254433
 21
179.79808765843762
  0
LINE
  8
_1-4_
  6
CONTINUOUS
 62
    7
 10
298.69701284310599
 20
179.79808765843762
 11
299.29702966901391
 21
179.79808765843762
  0
LINE
  8
_1-4_
  6
CONTINUOUS
 62
    7
 10
290.90421730098183
 20
179.79808765843762
 11
290.97290659574537
 21
179.79808765843762
  0
LINE
  8
_1-4_
  6
CONTINUOUS
 62
    7
 10
290.4970303288535
 20
179.79808765843762
 11
290.90421730098183
 21
179.79808765843762
  0
LINE
  8
_1-4_
  6
CONTINUOUS
 62
    7
 10
274.49702702965584
 20
178.39808551395919
 11
287.49702043126058
 21
178.39808551395919
  0
LINE
  8
_1-4_
  6
CONTINUOUS
 62
    7
 10
256.09703065877329
 20
178.39808551395919
 11
257.09703395797084
 21
175.99808007028309
  0
LINE
  8
_1-4_
  6
CONTINUOUS
 62
    7
 10
258.09703725716849
 20
175.99808007028309
 11
259.09701581238392
 21
178.39808551395919
  0
LINE
  8
_1-4_
  6
CONTINUOUS
 62
    7
 10
271.49701713206292
 20
178.39808551395919
 11
272.49702043126058
 21
175.99808007028309
  0
LINE
  8
_1-4_
  6
CONTINUOUS
 62
    7
 10
273.49702373045818
 20
175.99808007028309
 11
274.49702702965584
 21
178.39808551395919
  0
LINE
  8
_1-4_
  6
CONTINUOUS
 62
    7
 10
287.49702043126058
 20
178.39808551395919
 11
288.49702373045818
 21
175.99808007028309
  0
LINE
  8
_1-4_
  6
CONTINUOUS
 62
    7
 10
290.4970303288535
 20
179.79808765843762
 11
295.29701647222339
 21
179.79808765843762
  0
LINE
  8
_1-4_
  6
CONTINUOUS
 62
    7
 10
257.09703395797084
 20
175.99808007028309
 11
258.09703725716849
 21
175.99808007028309
  0
LINE
  8
_1-4_
  6
CONTINUOUS
 62
    7
 10
272.49702043126058
 20
175.99808007028309
 11
273.49702373045818
 21
175.99808007028309
  0
LINE
  8
_1-4_
  6
CONTINUOUS
 62
    7
 10
289.49702702965584
 20
175.99808007028309
 11
289.79534047982474
 21
177.13165138573913
  0
LINE
  8
_1-4_
  6
CONTINUOUS
 62
    7
 10
289.79838398964313
 20
177.1432686854119
 11
290.4970303288535
 21
179.79808765843762
  0
LINE
  8
_1-4_
  6
CONTINUOUS
 62
    7
 10
288.49702373045818
 20
175.99808007028309
 11
289.49702702965584
 21
175.99808007028309
  0
LINE
  8
_1-4_
  6
CONTINUOUS
 62
    7
 10
240.82640572475717
 20
178.39808551395919
 11
256.09703065877329
 21
178.39808551395919
  0
LINE
  8
_1-4_
  6
CONTINUOUS
 62
    7
 10
259.09701581238392
 20
178.39808551395919
 11
271.49701713206292
 21
178.39808551395919
  0
LINE
  8
_1-4_
  6
CONTINUOUS
 62
    7
 10
238.09702076118035
 20
181.39808303956096
 11
238.09702076118035
 21
177.39808221476153
  0
LINE
  8
_1-4_
  6
CONTINUOUS
 62
    7
 10
239.1465862568518
 20
176.27595499110231
 11
240.32019333561021
 21
178.12021059313992
  0
LINE
  8
_1-4_
  6
CONTINUOUS
 62
    7
 10
230.29702472021748
 20
177.99808666867835
 11
231.29702801941514
 21
177.99808666867835
  0
LINE
  8
_1-4_
  6
CONTINUOUS
 62
    7
 10
231.29702801941514
 20
177.99808666867835
 11
231.29702801941514
 21
177.39808221476153
  0
LINE
  8
_1-4_
  6
CONTINUOUS
 62
    7
 10
230.29702472021748
 20
177.99808666867835
 11
230.29702472021748
 21
175.99808007028309
  0
LINE
  8
_1-4_
  6
CONTINUOUS
 62
    7
 10
238.6403738677048
 20
175.99808007028309
 11
230.29702472021748
 21
175.99808007028309
  0
LINE
  8
_1-4_
  6
CONTINUOUS
 62
    7
 10
233.79703626740923
 20
177.99808666867835
 11
234.59703395797089
 21
177.99808666867835
  0
LINE
  8
_1-4_
  6
CONTINUOUS
 62
    7
 10
233.79703626740923
 20
177.99808666867835
 11
233.79703626740923
 21
177.39808221476153
  0
LINE
  8
_1-4_
  6
CONTINUOUS
 62
    7
 10
234.59703395797089
 20
177.99808666867835
 11
234.59703395797089
 21
177.39808221476153
  0
LINE
  8
_1-4_
  6
CONTINUOUS
 62
    7
 10
234.59703395797089
 20
177.39808221476153
 11
238.09702076118035
 21
177.39808221476153
  0
LINE
  8
_1-4_
  6
CONTINUOUS
 62
    7
 10
231.29702801941514
 20
177.39808221476153
 11
233.79703626740923
 21
177.39808221476153
  0
LINE
  8
_1-4_
  6
CONTINUOUS
 62
    7
 10
317.29703956660683
 20
178.39808551395919
 11
318.29704286580454
 21
175.99808007028309
  0
LINE
  8
_1-4_
  6
CONTINUOUS
 62
    7
 10
319.29704616500209
 20
175.99808007028309
 11
320.29702472021745
 21
178.39808551395919
  0
LINE
  8
_1-4_
  6
CONTINUOUS
 62
    7
 10
318.29704286580454
 20
175.99808007028309
 11
319.29704616500209
 21
175.99808007028309
  0
LINE
  8
_1-4_
  6
CONTINUOUS
 62
    7
 10
302.02641463259079
 20
178.39808551395919
 11
317.29703956660683
 21
178.39808551395919
  0
LINE
  8
_1-4_
  6
CONTINUOUS
 62
    7
 10
299.29702966901391
 20
181.39808303956096
 11
299.29702966901391
 21
177.39808221476153
  0
LINE
  8
_1-4_
  6
CONTINUOUS
 62
    7
 10
300.34659516468537
 20
176.27595499110231
 11
301.5202022434438
 21
178.12021059313992
  0
LINE
  8
_1-4_
  6
CONTINUOUS
 62
    7
 10
291.4970336280511
 20
177.99808666867835
 11
292.4970369272487
 21
177.99808666867835
  0
LINE
  8
_1-4_
  6
CONTINUOUS
 62
    7
 10
292.4970369272487
 20
177.99808666867835
 11
292.4970369272487
 21
177.39808221476153
  0
LINE
  8
_1-4_
  6
CONTINUOUS
 62
    7
 10
291.4970336280511
 20
177.99808666867835
 11
291.4970336280511
 21
175.99808007028309
  0
LINE
  8
_1-4_
  6
CONTINUOUS
 62
    7
 10
299.8403827755385
 20
175.99808007028309
 11
291.4970336280511
 21
175.99808007028309
  0
LINE
  8
_1-4_
  6
CONTINUOUS
 62
    7
 10
294.99704517524287
 20
177.99808666867835
 11
295.79704286580454
 21
177.99808666867835
  0
LINE
  8
_1-4_
  6
CONTINUOUS
 62
    7
 10
294.99704517524287
 20
177.99808666867835
 11
294.99704517524287
 21
177.39808221476153
  0
LINE
  8
_1-4_
  6
CONTINUOUS
 62
    7
 10
295.79704286580454
 20
177.99808666867835
 11
295.79704286580454
 21
177.39808221476153
  0
LINE
  8
_1-4_
  6
CONTINUOUS
 62
    7
 10
295.79704286580454
 20
177.39808221476153
 11
299.29702966901391
 21
177.39808221476153
  0
LINE
  8
_1-4_
  6
CONTINUOUS
 62
    7
 10
292.4970369272487
 20
177.39808221476153
 11
294.99704517524287
 21
177.39808221476153
  0
LINE
  8
_1-4_
  6
CONTINUOUS
 62
    7
 10
77.696320836402009
 20
174.3577025101057
 11
64.535677129951409
 21
210.51628174363611
  0
LINE
  8
_1-4_
  6
CONTINUOUS
 62
    7
 10
68.611462586428388
 20
175.40595657471721
 11
60.974195344821567
 21
196.38918757793721
  0
LINE
  8
_1-4_
  6
CONTINUOUS
 62
    7
 10
60.974195344821567
 20
196.38918757793721
 11
56.803256904550238
 21
196.38918757793721
  0
LINE
  8
_1-4_
  6
CONTINUOUS
 62
    7
 10
64.535677129951409
 20
210.51628174363611
 11
60.058748419013909
 21
210.51628174363611
  0
LINE
  8
_1-4_
  6
CONTINUOUS
 62
    7
 10
115.69701531750422
 20
220.87163832091653
 11
115.69701531750422
 21
190.47230756315679
  0
LINE
  8
_1-4_
  6
CONTINUOUS
 62
    7
 10
176.89702422533782
 20
220.87163832091653
 11
176.89702422533782
 21
190.47230756315679
  0
LINE
  8
_1-4_
  6
CONTINUOUS
 62
    7
 10
115.69701531750422
 20
220.87163832091653
 11
176.89702422533782
 21
220.87163832091653
  0
LINE
  8
_1-4_
  6
CONTINUOUS
 62
    7
 10
238.09702076118035
 20
220.87163832091653
 11
238.09702076118035
 21
190.47230756315679
  0
LINE
  8
_1-4_
  6
CONTINUOUS
 62
    7
 10
176.89702422533782
 20
220.87163832091653
 11
238.09702076118035
 21
220.87163832091653
  0
LINE
  8
_1-4_
  6
CONTINUOUS
 62
    7
 10
299.29702966901391
 20
220.87163832091653
 11
299.29702966901391
 21
190.47230756315679
  0
LINE
  8
_1-4_
  6
CONTINUOUS
 62
    7
 10
238.09702076118035
 20
220.87163832091653
 11
299.29702966901391
 21
220.87163832091653
  0
ARC
  8
_1-4_
  6
CONTINUOUS
 62
    7
 10
74.848863775459222
 20
182.94328287196169
 40
2.6545699867042338
 50
215.59771728515625
 51
324.40225219726562
  0
ARC
  8
_1-4_
  6
CONTINUOUS
 62
    7
 10
118.42638790908995
 20
177.79808106004236
 40
0.6000000077324945
 50
90
 51
147.52879333496094
  0
ARC
  8
_1-4_
  6
CONTINUOUS
 62
    7
 10
116.2403684240287
 20
176.59808452419986
 40
0.6000000077324945
 50
270
 51
327.52879333496094
  0
ARC
  8
_1-4_
  6
CONTINUOUS
 62
    7
 10
179.62639681692355
 20
177.79808106004236
 40
0.6000000077324945
 50
90
 51
147.52879333496094
  0
ARC
  8
_1-4_
  6
CONTINUOUS
 62
    7
 10
177.44037733186235
 20
176.59808452419986
 40
0.6000000077324945
 50
270
 51
327.52879333496094
  0
ARC
  8
_1-4_
  6
CONTINUOUS
 62
    7
 10
240.82640572475717
 20
177.79808106004236
 40
0.6000000077324945
 50
90
 51
147.52879333496094
  0
ARC
  8
_1-4_
  6
CONTINUOUS
 62
    7
 10
238.6403738677048
 20
176.59808452419986
 40
0.6000000077324945
 50
270
 51
327.52879333496094
  0
ARC
  8
_1-4_
  6
CONTINUOUS
 62
    7
 10
302.02641463259079
 20
177.79808106004236
 40
0.6000000077324945
 50
90
 51
147.52879333496094
  0
ARC
  8
_1-4_
  6
CONTINUOUS
 62
    7
 10
299.8403827755385
 20
176.59808452419986
 40
0.6000000077324945
 50
270
 51
327.52879333496094
  0
TEXT
  8
_1-4_
 62
    7
 10
43.622031359852713
 20
195.1901189414296
 40
2.5
 41
1
 50
0
  1
一体左袖瓦
  0
TEXT
  8
_1-4_
 62
    7
 10
144.42201977142102
 20
221.37163997051533
 40
2.5
 41
1
 50
0
  1
306
  0
TEXT
  8
_1-4_
 62
    7
 10
205.62202867925464
 20
221.37163997051533
 40
2.5
 41
1
 50
0
  1
306
  0
TEXT
  8
_1-4_
 62
    7
 10
266.82203758708829
 20
221.37163997051533
 40
2.5
 41
1
 50
0
  1
306
  0
TEXT
  8
_1-4_
 62
    7
 10
39.712697125563494
 20
208.98097950414075
 40
2.5
 41
1
 50
0
  1
瓦桟木と同じ高さ
  0
POINT
  8
_1-4_
 62
    7
 10
115.69701531750422
 20
220.87163832091653
  0
POINT
  8
_1-4_
 62
    7
 10
176.89702422533782
 20
220.87163832091653
  0
POINT
  8
_1-4_
 62
    7
 10
238.09702076118035
 20
220.87163832091653
  0
POINT
  8
_1-4_
 62
    7
 10
299.29702966901391
 20
220.87163832091653
  0
LINE
  8
_1-3_
  6
DASHED1
 62
    3
 10
71.468037235695334
 20
176.27753319054335
 11
71.468037235695334
 21
170.39461732502241
  0
LINE
  8
_1-3_
  6
DASHED1
 62
    3
 10
71.468037235695334
 20
176.27753319054335
 11
80.00158775798667
 21
176.27753319054335
  0
LINE
  8
_1-2_
  6
CONTINUOUS
 62
    7
 10
229.64173602392839
 20
92.026379214193994
 11
230.61564059900167
 21
92.026379214193994
  0
LINE
  8
_1-2_
  6
CONTINUOUS
 62
    7
 10
230.61564059900167
 20
92.026379214193994
 11
235.56697950471391
 21
92.026379214193994
  0
LINE
  8
_1-3_
  6
CONTINUOUS
 62
    7
 10
229.64173602392839
 20
92.026379214193994
 11
197.66121413918199
 21
179.95423920192735
  0
LINE
  8
_1-4_
  6
CONTINUOUS
 62
    7
 10
299.29702966901391
 20
181.39808303956096
 11
329.44974952754433
 21
181.39808303956096
  0
LINE
  8
_1-4_
  6
CONTINUOUS
 62
    7
 10
320.29702472021745
 20
178.39808551395919
 11
329.44974952754433
 21
178.39808551395919
  0
TEXT
  8
_1-3_
 62
    7
 10
239.96225307418177
 20
117.78259449013888
 40
2.5
 41
1
 50
0
  1
瓦桟　
  0
TEXT
  8
_1-3_
 62
    7
 10
252.5677280472151
 20
117.21538592716658
 40
2.5
 41
1
 50
0
  1
15×30　（樹脂桟木）
  0
TEXT
  8
_1-3_
 62
    7
 10
252.98192782306211
 20
114.03130774200929
 40
2.5
 41
1
 50
0
  1
※　地域により瓦桟木の大きさは、異なります
  0
ENDSEC
  0
EOF
