  0
SECTION
  2
HEADER
  9
$ACADVER
  1
AC1009
  9
$INSBASE
 10
0
 20
0
 30
0
  9
$EXTMIN
 10
0
 20
0
  9
$EXTMAX
 10
420
 20
297
  9
$LIMMIN
 10
0
 20
0
  9
$LIMMAX
 10
420
 20
297
  9
$LTSCALE
 40
1
  0
ENDSEC
  0
SECTION
  2
TABLES
  0
TABLE
  2
LTYPE
 70
     9
  0
LTYPE
  2
CONTINUOUS
 70
    64
  3
実線
 72
    65
 73
     0
 40
0.0
  0
LTYPE
  2
DASHED1
 70
    64
  3
--  --  --  --  --  --  --  --  
 72
    65
 73
     2
 40
2.5
 49
1.25
 49
-1.25
  0
LTYPE
  2
DASHED2
 70
    64
  3
----    ----    ----    ----    
 72
    65
 73
     2
 40
5.0
 49
2.5
 49
-2.5
  0
LTYPE
  2
DASHED3
 70
    64
  3
------  ------  ------  ------  
 72
    65
 73
     2
 40
5.0
 49
3.75
 49
-1.25
  0
LTYPE
  2
CENTER1
 70
    64
  3
----- - ----- - ----- - ----- - 
 72
    65
 73
     4
 40
10.0
 49
6.25
 49
-1.25
 49
1.25
 49
-1.25
  0
LTYPE
  2
CENTER2
 70
    64
  3
----------  --  ----------  --  
 72
    65
 73
     4
 40
20.0
 49
12.5
 49
-2.5
 49
2.5
 49
-2.5
  0
LTYPE
  2
PHANTOM1
 70
    64
  3
--- - - --- - - --- - - --- - - 
 72
    65
 73
     6
 40
10.0
 49
3.25
 49
-1.25
 49
1.25
 49
-1.25
 49
1.25
 49
-1.25
  0
LTYPE
  2
PHANTOM2
 70
    64
  3
--------  -  -  --------  -  -  
 72
    65
 73
     6
 40
20.0
 49
10.0
 49
-2.5
 49
1.25
 49
-2.5
 49
1.25
 49
-2.5
  0
LTYPE
  2
DOT
 70
    64
  3
-   -   -   -   -   -   -   -   
 72
    65
 73
     2
 40
2.5
 49
0.625
 49
-1.875
  0
LTYPE
  2
DUMMY
 70
    64
  3
ダミー
 72
    65
 73
     0
 40
0.0
  0
LTYPE
  2
RAND1
 70
    64
  3
ランダム線1
 72
    65
 73
     4
 40
10.0
 49
1.0
 49
-2.0
 49
3.0
 49
-4.0
  0
LTYPE
  2
RAND2
 70
    64
  3
ランダム線2
 72
    65
 73
     4
 40
14.0
 49
2.0
 49
-3.0
 49
4.0
 49
-5.0
  0
LTYPE
  2
RAND3
 70
    64
  3
ランダム線3
 72
    65
 73
     4
 40
18.0
 49
3.0
 49
-4.0
 49
5.0
 49
-6.0
  0
LTYPE
  2
RAND4
 70
    64
  3
ランダム線4
 72
    65
 73
     4
 40
22.0
 49
4.0
 49
-5.0
 49
6.0
 49
-7.0
  0
LTYPE
  2
RAND5
 70
    64
  3
ランダム線5
 72
    65
 73
     4
 40
26.0
 49
5.0
 49
-6.0
 49
7.0
 49
-8.0
  0
LTYPE
  2
LONG1
 70
    64
  3
----------  --  ----------  --  
 72
    65
 73
     4
 40
40.0
 49
32.5
 49
-2.5
 49
2.5
 49
-2.5
  0
LTYPE
  2
LONG2
 70
    64
  3
--------  -  -  --------  -  -  
 72
    65
 73
     6
 40
40.0
 49
30.0
 49
-2.5
 49
1.25
 49
-2.5
 49
1.25
 49
-2.5
  0
LTYPE
  2
LONG3
 70
    64
  3
+++++++++++++++..+++++++++++++++
 72
    65
 73
     2
 40
40.0
 49
37.5
 49
-2.5
  0
LTYPE
  2
LONG4
 70
    64
  3
+++++++++++++++..+++++++++++++++
 72
    65
 73
     2
 40
80.0
 49
75.0
 49
-5.0
  0
LTYPE
  2
LONG5
 70
    64
  3
----------  --  ----------  --  
 72
    65
 73
     4
 40
60.0
 49
37.5
 49
-7.5
 49
7.5
 49
-7.5
  0
LTYPE
  2
dashed
 70
   64
  3
-------   -------------   ------
 72
   65
 73
    2
 40
7.5
 49
6
 49
-1.5
  0
LTYPE
  2
dashed_spaced
 70
   64
  3
----        --------        ----
 72
   65
 73
    2
 40
12
 49
6
 49
-6
  0
LTYPE
  2
long_dashed_dotted
 70
   64
  3
------------- --- --------------
 72
   65
 73
    4
 40
15.25
 49
12
 49
-1.5
 49
0.25
 49
-1.5
  0
LTYPE
  2
long_dashed_double-dotted
 70
   64
  3
----------- --- --- ------------
 72
   65
 73
    6
 40
17
 49
12
 49
-1.5
 49
0.25
 49
-1.5
 49
0.25
 49
-1.5
  0
LTYPE
  2
long_dashed_triplicate-dotted
 70
   64
  3
--------- --- --- --- ----------
 72
   65
 73
    8
 40
18.75
 49
12
 49
-1.5
 49
0.25
 49
-1.5
 49
0.25
 49
-1.5
 49
0.25
 49
-1.5
  0
LTYPE
  2
dotted
 70
   64
  3
   -       -       -       -    
 72
   65
 73
    2
 40
1.75
 49
0.25
 49
-1.5
  0
LTYPE
  2
chain
 70
   64
  3
-------------- -- --------------
 72
   65
 73
    4
 40
18.5
 49
12
 49
-1.5
 49
3.5
 49
-1.5
  0
LTYPE
  2
chain_double_dash
 70
   64
  3
------------ -- -- -------------
 72
   65
 73
    6
 40
23.5
 49
12
 49
-1.5
 49
3.5
 49
-1.5
 49
3.5
 49
-1.5
  0
LTYPE
  2
dashed_dotted
 70
   64
  3
-----------     -     ----------
 72
   65
 73
    4
 40
9.25
 49
6
 49
-1.5
 49
0.25
 49
-1.5
  0
LTYPE
  2
double-dashed_dotted
 70
   64
  3
------   -----------   -   -----
 72
   65
 73
    6
 40
16.75
 49
6
 49
-1.5
 49
6
 49
-1.5
 49
0.25
 49
-1.5
  0
LTYPE
  2
dashed_double-dotted
 70
   64
  3
---------    -    -    ---------
 72
   65
 73
    6
 40
11
 49
6
 49
-1.5
 49
0.25
 49
-1.5
 49
0.25
 49
-1.5
  0
LTYPE
  2
double-dashed_double-dotted
 70
   64
  3
-----   ---------   -   -   ----
 72
   65
 73
    8
 40
18.5
 49
6
 49
-1.5
 49
6
 49
-1.5
 49
0.25
 49
-1.5
 49
0.25
 49
-1.5
  0
LTYPE
  2
dashed_triplicate-dotted
 70
   64
  3
-------    -    -    -    ------
 72
   65
 73
    8
 40
12.75
 49
6
 49
-1.5
 49
0.25
 49
-1.5
 49
0.25
 49
-1.5
 49
0.25
 49
-1.5
  0
LTYPE
  2
double-dashed_triplicate-dotted
 70
   64
  3
-----  ---------  -  -  -  -----
 72
   65
 73
   10
 40
20.25
 49
6
 49
-1.5
 49
6
 49
-1.5
 49
0.25
 49
-1.5
 49
0.25
 49
-1.5
 49
0.25
 49
-1.5
  0
LTYPE
  2
undefined
 70
   64
  3
--------------------------------
 72
   65
 73
    0
 40
0
  0
ENDTAB
  0
TABLE
  2
STYLE
  5
3
100
AcDbSymbolTable
 70
     1
  0
STYLE
  5
10
100
AcDbSymbolTableRecord
100
AcDbTextStyleTableRecord
  2
STANDARD
 70
     0
 40
0.0
 41
1.0
 50
0.0
 71
     0
 42
0.2
  3
txt
  4
bigfont.shx
  0
STYLE
  5
26
100
AcDbSymbolTableRecord
100
AcDbTextStyleTableRecord
  2
TATEGAKI
 70
    68
 40
0.0
 41
1.0
 50
0.0
 71
     0
 42
1.0
  3
txt
  4
bigfont.shx
  0
ENDTAB
  0
TABLE
  2
LAYER
 70
    8
  0
LAYER
  2
_0-0_
 70
   64
 62
    7
  6
CONTINUOUS
  0
LAYER
  2
_0-1_
 70
   64
 62
    7
  6
CONTINUOUS
  0
LAYER
  2
_1-0_
 70
   64
 62
    7
  6
CONTINUOUS
  0
LAYER
  2
_1-1_
 70
   64
 62
    7
  6
CONTINUOUS
  0
LAYER
  2
_1-2_
 70
   64
 62
    7
  6
CONTINUOUS
  0
LAYER
  2
_1-3_
 70
   64
 62
    7
  6
CONTINUOUS
  0
LAYER
  2
_1-4_
 70
   64
 62
    7
  6
CONTINUOUS
  0
LAYER
  2
ADD_LINE
 70
   64
 62
    7
  6
CONTINUOUS
  0
ENDTAB
  0
ENDSEC
  0
SECTION
  2
BLOCKS
  0
ENDSEC
  0
SECTION
  2
ENTITIES
  0
LINE
  8
_1-3_
  6
CONTINUOUS
 62
    2
 10
246.22109104108981
 20
168.29484488526023
 11
262.19965754328547
 21
175.40823212626151
  0
LINE
  8
_1-2_
  6
CONTINUOUS
 62
    3
 10
255.49527554898651
 20
163.37210577887458
 11
256.82618012299412
 21
163.80643689954604
  0
LINE
  8
_0-0_
  6
CONTINUOUS
 62
    5
 10
12.432428308435391
 20
278.51351351351354
 11
412.43244892842063
 21
278.51351351351354
  0
LINE
  8
_0-0_
  6
CONTINUOUS
 62
    5
 10
412.43244892842063
 20
28.513511451515001
 11
12.432415936444272
 21
28.513511451515001
  0
LINE
  8
_0-0_
  6
CONTINUOUS
 62
    5
 10
377.43248192039698
 20
8.5135135135135158
 11
377.43248192039698
 21
28.513511451515001
  0
LINE
  8
_0-0_
  6
CONTINUOUS
 62
    5
 10
142.70271507469386
 20
28.513511451515001
 11
142.70271507469386
 21
8.5135135135135158
  0
LINE
  8
_0-0_
  6
CONTINUOUS
 62
    5
 10
220.54054054054055
 20
28.513511451515001
 11
220.54054054054055
 21
8.5135135135135158
  0
LINE
  8
_0-0_
  6
CONTINUOUS
 62
    5
 10
142.70271507469386
 20
18.513512482514244
 11
220.54054054054055
 21
18.513512482514244
  0
LINE
  8
_0-0_
  6
CONTINUOUS
 62
    5
 10
402.16218690614443
 20
24.324325870823216
 11
389.59456985061234
 21
11.756758303255651
  0
LINE
  8
_0-0_
  6
CONTINUOUS
 62
    5
 10
412.43244892842063
 20
8.5135135135135158
 11
12.432428308435391
 21
8.5135135135135158
  0
LINE
  8
_1-1_
  6
CONTINUOUS
 62
    7
 10
100.0611196981894
 20
84.343562770534206
 11
98.83001997664168
 21
87.079331681535052
  0
LINE
  8
_1-1_
  6
CONTINUOUS
 62
    7
 10
98.83001997664168
 20
87.079331681535052
 11
103.20726755503063
 21
89.049088761613177
  0
LINE
  8
_1-1_
  6
CONTINUOUS
 62
    7
 10
103.20726755503063
 20
89.049088761613177
 11
104.43834871859164
 21
86.313319850612331
  0
LINE
  8
_1-1_
  6
CONTINUOUS
 62
    7
 10
104.43834871859164
 20
86.313319850612331
 11
100.0611196981894
 21
84.343562770534206
  0
LINE
  8
_1-1_
  6
CONTINUOUS
 62
    7
 10
100.0611196981894
 20
84.343562770534206
 11
103.20726755503063
 21
89.049088761613177
  0
LINE
  8
_1-1_
  6
CONTINUOUS
 62
    7
 10
151.1287091229413
 20
107.32397955817146
 11
149.89762177338471
 21
110.05974846917231
  0
LINE
  8
_1-1_
  6
CONTINUOUS
 62
    7
 10
149.89762177338471
 20
110.05974846917231
 11
154.27485697978253
 21
112.02950554925043
  0
LINE
  8
_1-1_
  6
CONTINUOUS
 62
    7
 10
154.27485697978253
 20
112.02950554925043
 11
155.50594432933912
 21
109.29373663824958
  0
LINE
  8
_1-1_
  6
CONTINUOUS
 62
    7
 10
155.50594432933912
 20
109.29373663824958
 11
151.1287091229413
 21
107.32397955817146
  0
LINE
  8
_1-1_
  6
CONTINUOUS
 62
    7
 10
151.1287091229413
 20
107.32397955817146
 11
154.27485697978253
 21
112.02950554925043
  0
LINE
  8
_1-1_
  6
CONTINUOUS
 62
    7
 10
202.19630473368878
 20
130.30442108979096
 11
200.96521738413219
 21
133.04019000079182
  0
LINE
  8
_1-1_
  6
CONTINUOUS
 62
    7
 10
200.96521738413219
 20
133.04019000079182
 11
205.34245259053
 21
135.0099347088788
  0
LINE
  8
_1-1_
  6
CONTINUOUS
 62
    7
 10
205.34245259053
 20
135.0099347088788
 11
206.57353994008659
 21
132.27416579787797
  0
LINE
  8
_1-1_
  6
CONTINUOUS
 62
    7
 10
206.57353994008659
 20
132.27416579787797
 11
202.19630473368878
 21
130.30442108979096
  0
LINE
  8
_1-1_
  6
CONTINUOUS
 62
    7
 10
202.19630473368878
 20
130.30442108979096
 11
205.34245259053
 21
135.0099347088788
  0
LINE
  8
_1-1_
  6
CONTINUOUS
 62
    7
 10
253.26391271642737
 20
153.28485024941935
 11
252.03282536687078
 21
156.02061916042018
  0
LINE
  8
_1-1_
  6
CONTINUOUS
 62
    7
 10
252.03282536687078
 20
156.02061916042018
 11
256.41006057326859
 21
157.99036386850719
  0
LINE
  8
_1-1_
  6
CONTINUOUS
 62
    7
 10
256.41006057326859
 20
157.99036386850719
 11
257.64114792282516
 21
155.25459495750636
  0
LINE
  8
_1-1_
  6
CONTINUOUS
 62
    7
 10
253.26391271642737
 20
153.28485024941935
 11
256.41006057326859
 21
157.99036386850719
  0
LINE
  8
_0-1_
  6
CONTINUOUS
 62
    7
 10
81.262374053130287
 20
142.99370430611276
 11
87.350432937209675
 21
142.99370430611276
  0
LINE
  8
_0-1_
  6
CONTINUOUS
 62
    7
 10
71.071218542150547
 20
170.9936977077175
 11
87.350432937209675
 21
170.9936977077175
  0
LINE
  8
_0-1_
  6
CONTINUOUS
 62
    7
 10
73.619007419895468
 20
163.9936993573163
 11
87.350432937209675
 21
163.9936993573163
  0
LINE
  8
_0-1_
  6
CONTINUOUS
 62
    7
 10
76.166796297640417
 20
156.99370100691513
 11
87.350432937209675
 21
156.99370100691513
  0
LINE
  8
_0-1_
  6
CONTINUOUS
 62
    7
 10
78.714585175385366
 20
149.99370265651393
 11
87.350432937209675
 21
149.99370265651393
  0
LINE
  8
_1-2_
  6
CONTINUOUS
 62
    3
 10
102.28493561615815
 20
94.429543984902878
 11
103.61522159060917
 21
94.865743276235222
  0
LINE
  8
_1-2_
  6
CONTINUOUS
 62
    3
 10
100.95153189994194
 20
93.360888506915117
 11
102.16440767855258
 21
93.758586161845443
  0
LINE
  8
_1-2_
  6
CONTINUOUS
 62
    3
 10
102.28493561615815
 20
94.429543984902878
 11
102.16440767855258
 21
93.758586161845443
  0
LINE
  8
_1-2_
  6
CONTINUOUS
 62
    3
 10
100.95153189994194
 20
93.360888506915117
 11
100.56213585106103
 21
91.338909252269858
  0
LINE
  8
_1-2_
  6
CONTINUOUS
 62
    3
 10
103.8582755423881
 20
92.840671023807019
 11
104.23836785393793
 21
92.965306462468334
  0
LINE
  8
_1-2_
  6
CONTINUOUS
 62
    7
 10
103.61522159060917
 20
94.865743276235222
 11
104.23836785393793
 21
92.965306462468334
  0
LINE
  8
_1-2_
  6
CONTINUOUS
 62
    3
 10
103.8582755423881
 20
92.840671023807019
 11
104.9176396550359
 21
89.60992349160685
  0
LINE
  8
_1-2_
  6
CONTINUOUS
 62
    7
 10
103.20726755503063
 20
89.049088761613177
 11
104.52517535235431
 21
86.955512794288438
  0
LINE
  8
_1-2_
  6
CONTINUOUS
 62
    7
 10
104.52517535235431
 20
86.955512794288438
 11
106.04551985457137
 21
87.454029804951446
  0
LINE
  8
_1-2_
  6
CONTINUOUS
 62
    3
 10
103.61522159060917
 20
94.865743276235222
 11
104.23836785393793
 21
92.965306462468334
  0
LINE
  8
_1-2_
  6
CONTINUOUS
 62
    7
 10
104.23836785393793
 20
92.965306462468334
 11
106.04551985457137
 21
87.454029804951446
  0
LINE
  8
ADD_LINE
  6
DOT
 62
    4
 10
102.0979948301573
 20
94.999682452227617
 11
103.42828080460832
 21
95.435881743559975
  0
LINE
  8
ADD_LINE
  6
DOT
 62
    4
 10
103.42828080460832
 20
95.435881743559975
 11
154.27485697978253
 21
112.02950554925043
  0
LINE
  8
_1-2_
  6
CONTINUOUS
 62
    3
 10
153.36007195550044
 20
117.41124745961783
 11
154.69097652950802
 21
117.84559095228042
  0
LINE
  8
_1-2_
  6
CONTINUOUS
 62
    3
 10
152.02515885636615
 20
116.34446015229096
 11
153.23860374656886
 21
116.74046284443624
  0
LINE
  8
_1-2_
  6
CONTINUOUS
 62
    3
 10
153.36007195550044
 20
117.41124745961783
 11
153.23860374656886
 21
116.74046284443624
  0
LINE
  8
_1-2_
  6
CONTINUOUS
 62
    3
 10
152.02515885636615
 20
116.34446015229096
 11
151.63294199350719
 21
114.32303763724663
  0
LINE
  8
_1-2_
  6
CONTINUOUS
 62
    3
 10
154.93119110932221
 20
115.82017228410051
 11
155.31145662874789
 21
115.94426335515203
  0
LINE
  8
_1-2_
  6
CONTINUOUS
 62
    7
 10
154.69097652950802
 20
117.84559095228042
 11
155.31145662874789
 21
115.94426335515203
  0
LINE
  8
_1-2_
  6
CONTINUOUS
 62
    3
 10
154.93119110932221
 20
115.82017228410051
 11
155.98602707321581
 21
112.58794011296453
  0
LINE
  8
_1-2_
  6
CONTINUOUS
 62
    7
 10
154.27485697978253
 20
112.02950554925043
 11
155.58982642921242
 21
109.93407378325591
  0
LINE
  8
_1-2_
  6
CONTINUOUS
 62
    7
 10
155.58982642921242
 20
109.93407378325591
 11
157.11086376293287
 21
110.43046281144426
  0
LINE
  8
_1-2_
  6
CONTINUOUS
 62
    3
 10
90.751035535657735
 20
88.142988875105573
 11
89.777582529428841
 21
93.08483226879224
  0
LINE
  8
_1-2_
  6
CONTINUOUS
 62
    3
 10
92.692188572239232
 20
95.087894748997044
 11
151.63294199350719
 21
114.32303763724663
  0
LINE
  8
_1-2_
  6
CONTINUOUS
 62
    3
 10
90.751035535657735
 20
88.142988875105573
 11
92.22405717179582
 21
88.786505621832774
  0
LINE
  8
_1-2_
  6
CONTINUOUS
 62
    3
 10
93.099771448083828
 20
92.065194619668503
 11
155.98602707321581
 21
112.58794011296453
  0
LINE
  8
_1-2_
  6
CONTINUOUS
 62
    3
 10
92.413076452306811
 20
91.192857896959467
 11
92.22405717179582
 21
88.786505621832774
  0
LINE
  8
_1-2_
  6
CONTINUOUS
 62
    3
 10
154.69097652950802
 20
117.84559095228042
 11
155.31145662874789
 21
115.94426335515203
  0
LINE
  8
_1-2_
  6
CONTINUOUS
 62
    7
 10
155.31145662874789
 20
115.94426335515203
 11
157.11086376293287
 21
110.43046281144426
  0
LINE
  8
_1-2_
  6
CONTINUOUS
 62
    3
 10
204.42766756624789
 20
140.3916766192462
 11
205.7585721402555
 21
140.82600773991766
  0
LINE
  8
_1-2_
  6
CONTINUOUS
 62
    3
 10
203.09275446711362
 20
139.32488931191935
 11
204.3061993573163
 21
139.72089200406461
  0
LINE
  8
_1-2_
  6
CONTINUOUS
 62
    3
 10
204.42766756624789
 20
140.3916766192462
 11
204.3061993573163
 21
139.72089200406461
  0
LINE
  8
_1-2_
  6
CONTINUOUS
 62
    3
 10
203.09275446711362
 20
139.32488931191935
 11
202.70053760425466
 21
137.30345442488388
  0
LINE
  8
_1-2_
  6
CONTINUOUS
 62
    3
 10
205.99878672006969
 20
138.80058907173776
 11
206.37905223949537
 21
138.92470488677154
  0
LINE
  8
_1-2_
  6
CONTINUOUS
 62
    7
 10
205.7585721402555
 20
140.82600773991766
 11
206.37905223949537
 21
138.92470488677154
  0
LINE
  8
_1-2_
  6
CONTINUOUS
 62
    3
 10
205.99878672006969
 20
138.80058907173776
 11
207.05362268396328
 21
135.56835690060177
  0
LINE
  8
_1-2_
  6
CONTINUOUS
 62
    7
 10
205.34245259053
 20
135.0099347088788
 11
206.6574220399599
 21
132.91451531487542
  0
LINE
  8
_1-2_
  6
CONTINUOUS
 62
    7
 10
206.6574220399599
 20
132.91451531487542
 11
208.17847174567146
 21
133.41090434306378
  0
LINE
  8
_1-2_
  6
CONTINUOUS
 62
    3
 10
141.81863733240075
 20
111.12341803473396
 11
140.84515958218961
 21
116.06526142842061
  0
LINE
  8
_1-2_
  6
CONTINUOUS
 62
    3
 10
143.75977799699115
 20
118.06832390862543
 11
202.70053760425466
 21
137.30345442488388
  0
LINE
  8
_1-2_
  6
CONTINUOUS
 62
    3
 10
141.81863733240075
 20
111.12341803473396
 11
143.29164659654774
 21
111.76693478146116
  0
LINE
  8
_1-2_
  6
CONTINUOUS
 62
    3
 10
144.16736087283573
 20
115.04562377929687
 11
207.05362268396328
 21
135.56835690060177
  0
LINE
  8
_1-2_
  6
CONTINUOUS
 62
    3
 10
143.4806658770587
 20
114.17328705658784
 11
143.29164659654774
 21
111.76693478146116
  0
LINE
  8
_1-2_
  6
CONTINUOUS
 62
    3
 10
205.7585721402555
 20
140.82600773991766
 11
206.37905223949537
 21
138.92470488677154
  0
LINE
  8
_1-2_
  6
CONTINUOUS
 62
    7
 10
206.37905223949537
 20
138.92470488677154
 11
208.17847174567146
 21
133.41090434306378
  0
LINE
  8
_1-2_
  6
CONTINUOUS
 62
    3
 10
254.16036244985222
 20
162.30531847154774
 11
255.37380734005492
 21
162.701321163693
  0
LINE
  8
_1-2_
  6
CONTINUOUS
 62
    3
 10
255.49527554898651
 20
163.37210577887458
 11
255.37380734005492
 21
162.701321163693
  0
LINE
  8
_1-2_
  6
CONTINUOUS
 62
    3
 10
254.16036244985222
 20
162.30531847154774
 11
253.76814558699326
 21
160.28388358451227
  0
LINE
  8
_1-2_
  6
CONTINUOUS
 62
    3
 10
257.06639470280828
 20
161.78101823136615
 11
257.44666022223396
 21
161.90513404639992
  0
LINE
  8
_1-2_
  6
CONTINUOUS
 62
    7
 10
256.82618012299412
 20
163.80643689954604
 11
257.44666022223396
 21
161.90513404639992
  0
LINE
  8
_1-2_
  6
CONTINUOUS
 62
    3
 10
257.06639470280828
 20
161.78101823136615
 11
258.12123066670188
 21
158.54878606023016
  0
LINE
  8
_1-2_
  6
CONTINUOUS
 62
    7
 10
256.41006057326859
 20
157.99036386850719
 11
257.72503002269849
 21
155.8949444745038
  0
LINE
  8
_1-2_
  6
CONTINUOUS
 62
    7
 10
257.72503002269849
 20
155.8949444745038
 11
259.24606735641891
 21
156.39133350269216
  0
LINE
  8
_1-2_
  6
CONTINUOUS
 62
    3
 10
192.88620819916596
 20
134.10385956635346
 11
191.91277993691935
 21
139.04570296004013
  0
LINE
  8
_1-2_
  6
CONTINUOUS
 62
    3
 10
194.82737360773862
 20
141.0487530682538
 11
253.76814558699326
 21
160.28388358451227
  0
LINE
  8
_1-2_
  6
CONTINUOUS
 62
    3
 10
192.88620819916596
 20
134.10385956635346
 11
194.35924220729521
 21
134.74735156909841
  0
LINE
  8
_1-2_
  6
CONTINUOUS
 62
    3
 10
195.2349564835832
 20
138.02605293892526
 11
258.12123066670188
 21
158.54878606023016
  0
LINE
  8
_1-2_
  6
CONTINUOUS
 62
    3
 10
194.54826148780617
 20
137.15370384422511
 11
194.35924220729521
 21
134.74735156909841
  0
LINE
  8
_1-2_
  6
CONTINUOUS
 62
    3
 10
256.82618012299412
 20
163.80643689954604
 11
257.44666022223396
 21
161.90513404639992
  0
LINE
  8
_1-2_
  6
CONTINUOUS
 62
    7
 10
257.44666022223396
 20
161.90513404639992
 11
259.24606735641891
 21
156.39133350269216
  0
LINE
  8
_1-2_
  6
CONTINUOUS
 62
    3
 10
79.95230391218854
 20
81.423822351404141
 11
104.9176396550359
 21
89.60992349160685
  0
LINE
  8
_1-2_
  6
CONTINUOUS
 62
    3
 10
79.95230391218854
 20
84.580975094357058
 11
100.56213585106103
 21
91.338909252269858
  0
LINE
  8
_1-1_
  6
CONTINUOUS
 62
    7
 10
258.15688674514359
 20
155.48666876715583
 11
253.26391271642737
 21
153.28485024941935
  0
LINE
  8
_1-0_
  6
CONTINUOUS
 62
    7
 10
79.95230391218854
 20
74.636646992451446
 11
258.40313885663011
 21
154.93950508736276
  0
LINE
  8
_1-0_
  6
CONTINUOUS
 62
    7
 10
79.95230391218854
 20
75.294595666833828
 11
258.15688674514359
 21
155.48666876715583
  0
LINE
  8
_1-0_
  6
CONTINUOUS
 62
    7
 10
258.15688674514359
 20
155.48666876715583
 11
258.40313885663011
 21
154.93950508736276
  0
LINE
  8
_1-4_
  6
CONTINUOUS
 62
    7
 10
329.22811147328969
 20
157.12045205605997
 11
329.22811147328969
 21
217.12045205605997
  0
LINE
  8
_1-4_
  6
CONTINUOUS
 62
    7
 10
277.73066340266047
 20
157.12045205605997
 11
329.22811147328969
 21
157.12045205605997
  0
LINE
  8
_1-4_
  6
CONTINUOUS
 62
    7
 10
277.73066340266047
 20
217.12045205605997
 11
329.22811147328969
 21
217.12045205605997
  0
LINE
  8
_1-4_
  6
CONTINUOUS
 62
    7
 10
225.24605415962839
 20
102.06399041253168
 11
230.28217212573904
 21
104.97158153637037
  0
LINE
  8
ADD_LINE
  6
DOT
 62
    7
 10
221.84420199007602
 20
102.06399041253168
 11
234.00636415223818
 21
102.06399041253168
  0
LINE
  8
_1-4_
  6
CONTINUOUS
 62
    7
 10
225.24605415962839
 20
102.06399041253168
 11
230.28217212573904
 21
99.156399288692995
  0
LINE
  8
ADD_LINE
  6
DOT
 62
    7
 10
221.84420199007602
 20
102.06399041253168
 11
223.17624478726776
 21
102.06399041253168
  0
LINE
  8
ADD_LINE
  6
DOT
 62
    7
 10
223.69747677364867
 20
102.06399041253168
 11
234.00636415223818
 21
102.06399041253168
  0
LINE
  8
_1-4_
  6
CONTINUOUS
 62
    7
 10
280.76311266100083
 20
102.06399041253168
 11
225.24605415962839
 21
102.06399041253168
  0
LINE
  8
_1-4_
  6
CONTINUOUS
 62
    7
 10
225.24605415962839
 20
114.22615257469384
 11
225.24605415962839
 21
94.795655946473829
  0
LINE
  8
_1-4_
  6
CONTINUOUS
 62
    7
 10
290.76312090899495
 20
217.12045205605997
 11
288.79592483108109
 21
213.7131809543919
  0
LINE
  8
_1-4_
  6
CONTINUOUS
 62
    7
 10
290.76312090899495
 20
217.12045205605997
 11
292.7303169869088
 21
213.7131809543919
  0
LINE
  8
_1-4_
  6
CONTINUOUS
 62
    7
 10
290.76312090899495
 20
112.06398628853464
 11
290.76312090899495
 21
217.12045205605997
  0
LINE
  8
_1-4_
  6
CONTINUOUS
 62
    7
 10
248.37868355415964
 20
167.38435487489443
 11
235.38537102776607
 21
203.0832032899599
  0
LINE
  8
_1-4_
  6
CONTINUOUS
 62
    7
 10
240.88417671822214
 20
161.67423557590794
 11
231.06049408783784
 21
188.66460026921453
  0
LINE
  8
_1-4_
  6
CONTINUOUS
 62
    7
 10
238.3334185626056
 20
222.96822212837839
 11
234.33343010979732
 21
222.96822212837839
  0
LINE
  8
_1-4_
  6
CONTINUOUS
 62
    7
 10
235.38537102776607
 20
203.0832032899599
 11
231.38538257495779
 21
203.0832032899599
  0
LINE
  8
_1-4_
  6
CONTINUOUS
 62
    7
 10
231.06049408783784
 20
188.66460026921453
 11
227.06048089104732
 21
188.66460026921453
  0
LINE
  8
_1-4_
  6
CONTINUOUS
 62
    7
 10
105.89824367213895
 20
75.307233655774922
 11
71.071218542150547
 21
170.9936977077175
  0
LINE
  8
_1-4_
  6
CONTINUOUS
 62
    7
 10
249.72235602301521
 20
240.81330995301943
 11
245.72236757020693
 21
240.81330995301943
  0
LINE
  8
_1-4_
  6
CONTINUOUS
 62
    7
 10
290.76312090899495
 20
118.85701359929266
 11
295.31806739600933
 21
121.5085911106419
  0
LINE
  8
_1-4_
  6
CONTINUOUS
 62
    7
 10
290.76312090899495
 20
118.85701359929266
 11
301.00000329919766
 21
118.85701359929266
  0
LINE
  8
_1-4_
  6
CONTINUOUS
 62
    7
 10
81.429618629249376
 20
70.037829424883867
 11
266.72337712468328
 21
153.4200142525338
  0
LINE
  8
_1-4_
  6
CONTINUOUS
 62
    7
 10
89.636912990260768
 20
51.799398886190886
 11
274.93065911370354
 21
135.18158371384081
  0
LINE
  8
_1-4_
  6
CONTINUOUS
 62
    7
 10
83.071072552655195
 20
66.390145791543503
 11
268.36481867609797
 21
149.77233061919341
  0
LINE
  8
_1-4_
  6
CONTINUOUS
 62
    7
 10
87.995459066854949
 20
55.44708251953125
 11
273.28919281830662
 21
138.82926734718117
  0
LINE
  8
ADD_LINE
  6
DOT
 62
    7
 10
81.618390469937708
 20
69.618344693570521
 11
266.91214896537161
 21
153.00052952122044
  0
LINE
  8
ADD_LINE
  6
DOT
 62
    7
 10
89.448141149572436
 20
52.218883617504218
 11
274.74188727301521
 21
135.60106844515414
  0
LINE
  8
ADD_LINE
  6
DOT
 62
    7
 10
79.95230391218854
 20
75.294595666833828
 11
84.396075686892956
 21
65.419550715266055
  0
LINE
  8
_1-4_
  6
CONTINUOUS
 62
    7
 10
81.422183062579165
 20
72.028192056191941
 11
82.797156668998099
 21
70.653218449773021
  0
LINE
  8
_1-4_
  6
CONTINUOUS
 62
    7
 10
82.025231026314401
 20
74.253560659047722
 11
84.74779902277767
 21
71.5310050345756
  0
LINE
  8
_1-4_
  6
CONTINUOUS
 62
    7
 10
83.975873380093972
 20
75.1313472438503
 11
86.698429004566094
 21
72.408791619378178
  0
LINE
  8
_1-4_
  6
CONTINUOUS
 62
    7
 10
85.926503361882396
 20
76.009133828652878
 11
88.649058986354518
 21
73.286578204180742
  0
LINE
  8
_1-4_
  6
CONTINUOUS
 62
    7
 10
87.877145715661953
 20
76.886920413455456
 11
90.599701340134089
 21
74.16436478898332
  0
LINE
  8
_1-4_
  6
CONTINUOUS
 62
    7
 10
89.827775697450392
 20
77.764700812262461
 11
92.550331321922513
 21
75.042145187790339
  0
LINE
  8
_1-4_
  6
CONTINUOUS
 62
    7
 10
91.778418051229949
 20
78.64248739706504
 11
94.500961303710938
 21
75.919931772592903
  0
LINE
  8
_1-4_
  6
CONTINUOUS
 62
    7
 10
93.72903566102724
 20
79.520267795872044
 11
96.451591285499376
 21
76.797712171399922
  0
LINE
  8
_1-4_
  6
CONTINUOUS
 62
    7
 10
95.67969038679793
 20
80.398060566670196
 11
98.402233639278933
 21
77.67550494219806
  0
LINE
  8
_1-4_
  6
CONTINUOUS
 62
    7
 10
97.630307996595235
 20
81.275840965477201
 11
100.35286362106736
 21
78.553285341005065
  0
LINE
  8
_1-4_
  6
CONTINUOUS
 62
    7
 10
99.580937978383659
 20
82.153621364284206
 11
102.3034936028558
 21
79.431071925807643
  0
LINE
  8
_1-4_
  6
CONTINUOUS
 62
    7
 10
101.53158033216323
 20
83.031414135082358
 11
104.25412977063979
 21
80.308858510610222
  0
LINE
  8
_1-4_
  6
CONTINUOUS
 62
    7
 10
103.48221031395165
 20
83.909200719884922
 11
106.20475975242822
 21
81.1866450954128
  0
LINE
  8
_1-4_
  6
CONTINUOUS
 62
    7
 10
105.43284648173565
 20
84.7869873046875
 11
108.15538973421664
 21
82.064431680215378
  0
LINE
  8
_1-4_
  6
CONTINUOUS
 62
    7
 10
107.38346409153294
 20
85.664767703494519
 11
110.10603208799621
 21
82.942212079022383
  0
LINE
  8
_1-4_
  6
CONTINUOUS
 62
    7
 10
109.33409407332138
 20
86.542548102301524
 11
112.05666206978464
 21
83.819998663824961
  0
LINE
  8
_1-4_
  6
CONTINUOUS
 62
    7
 10
111.28473642710094
 20
87.420340873099661
 11
114.00729205157306
 21
84.69778524862754
  0
LINE
  8
_1-4_
  6
CONTINUOUS
 62
    7
 10
113.2353787808805
 20
88.29812745790224
 11
115.95793440535263
 21
85.575571833430118
  0
LINE
  8
_1-4_
  6
CONTINUOUS
 62
    7
 10
115.1859963906778
 20
89.175907856709259
 11
117.90855201514992
 21
86.453352232237123
  0
LINE
  8
_1-4_
  6
CONTINUOUS
 62
    7
 10
117.13665111644849
 20
90.053700627507396
 11
119.85920674092061
 21
87.331138817039701
  0
LINE
  8
_1-4_
  6
CONTINUOUS
 62
    7
 10
119.08728109823691
 20
90.931481026314401
 11
121.80983672270905
 21
88.208925401842279
  0
LINE
  8
_1-4_
  6
CONTINUOUS
 62
    7
 10
121.03791108002534
 20
91.809267611116979
 11
123.76045433250634
 21
89.086711986644858
  0
LINE
  8
_1-4_
  6
CONTINUOUS
 62
    7
 10
122.98855343380491
 20
92.687054195919558
 11
125.7110966862859
 21
89.964498571447436
  0
LINE
  8
_1-4_
  6
CONTINUOUS
 62
    7
 10
124.93918341559333
 20
93.564834594726563
 11
127.66172666807434
 21
90.842278970254441
  0
LINE
  8
_1-4_
  6
CONTINUOUS
 62
    7
 10
126.88980102539062
 20
94.442614993533581
 11
129.61235664986276
 21
91.720065555057019
  0
LINE
  8
_1-4_
  6
CONTINUOUS
 62
    7
 10
128.84044337917018
 20
95.320407764331719
 11
131.56299900364232
 21
92.597852139859597
  0
LINE
  8
_1-4_
  6
CONTINUOUS
 62
    7
 10
130.79108573294977
 20
96.198194349134297
 11
133.51362898543076
 21
93.475638724662161
  0
LINE
  8
_1-4_
  6
CONTINUOUS
 62
    7
 10
132.74170334274706
 20
97.075974747941302
 11
135.46425896721917
 21
94.35341912346918
  0
LINE
  8
_1-4_
  6
CONTINUOUS
 62
    7
 10
134.69234569652662
 20
97.953761332743881
 11
137.41490132099875
 21
95.231211894267318
  0
LINE
  8
_1-4_
  6
CONTINUOUS
 62
    7
 10
136.64297567831505
 20
98.831547917546459
 11
139.36553130278716
 21
96.108992293074323
  0
LINE
  8
_1-4_
  6
CONTINUOUS
 62
    7
 10
138.59361803209461
 20
99.709334502349037
 11
141.31617365656672
 21
96.986778877876901
  0
LINE
  8
_1-4_
  6
CONTINUOUS
 62
    7
 10
140.5442356418919
 20
100.58711490115604
 11
143.26680363835516
 21
97.864565462679479
  0
LINE
  8
_1-4_
  6
CONTINUOUS
 62
    7
 10
142.49487799567146
 20
101.46490148595862
 11
145.21743362014359
 21
98.742345861486498
  0
LINE
  8
_1-4_
  6
CONTINUOUS
 62
    7
 10
144.4455079774599
 20
102.34268188476562
 11
147.168063601932
 21
99.620132446289063
  0
LINE
  8
_1-4_
  6
CONTINUOUS
 62
    7
 10
146.39615033123945
 20
103.22047465556378
 11
149.11870595571159
 21
100.49791903109164
  0
LINE
  8
_1-4_
  6
CONTINUOUS
 62
    7
 10
148.34678031302789
 20
104.09826742636191
 11
151.0693359375
 21
101.37570561589422
  0
LINE
  8
_1-4_
  6
CONTINUOUS
 62
    7
 10
150.2974102948163
 20
104.97604782516892
 11
153.01996591928844
 21
102.25347982870566
  0
LINE
  8
_1-4_
  6
CONTINUOUS
 62
    7
 10
152.24804027660474
 20
105.85382822397594
 11
154.97059590107688
 21
103.1312725995038
  0
LINE
  8
_1-4_
  6
CONTINUOUS
 62
    7
 10
154.19867025839318
 20
106.73160862278294
 11
156.92123825485643
 21
104.00906537030195
  0
LINE
  8
_1-4_
  6
CONTINUOUS
 62
    7
 10
156.14931261217274
 20
107.60940139358108
 11
158.87186823664484
 21
104.88684576910896
  0
LINE
  8
_1-4_
  6
CONTINUOUS
 62
    7
 10
158.09994259396115
 20
108.4871817923881
 11
160.82249821843328
 21
105.76462616791596
  0
LINE
  8
_1-4_
  6
CONTINUOUS
 62
    7
 10
160.05058494774073
 20
109.36497456318624
 11
162.77312820022172
 21
106.64241893871412
  0
LINE
  8
_1-4_
  6
CONTINUOUS
 62
    7
 10
162.00122730152029
 20
110.24276733398437
 11
164.72377055400128
 21
107.52019933752112
  0
LINE
  8
_1-4_
  6
CONTINUOUS
 62
    7
 10
163.9518572833087
 20
111.12054773279139
 11
166.67442527977198
 21
108.39799210831926
  0
LINE
  8
_1-4_
  6
CONTINUOUS
 62
    7
 10
165.90252438107052
 20
111.99834050358953
 11
168.62506763355154
 21
109.27578487911741
  0
LINE
  8
_1-4_
  6
CONTINUOUS
 62
    7
 10
167.85316673485011
 20
112.87613327438767
 11
170.57572235932221
 21
110.15357764991555
  0
LINE
  8
_1-4_
  6
CONTINUOUS
 62
    7
 10
169.80380908862966
 20
113.75391367319469
 11
172.52637708509292
 21
111.03137042071369
  0
LINE
  8
_1-4_
  6
CONTINUOUS
 62
    7
 10
171.75446381440034
 20
114.63171881598396
 11
174.47700706688136
 21
111.90916319151184
  0
LINE
  8
_1-4_
  6
CONTINUOUS
 62
    7
 10
173.7051061681799
 20
115.5095115867821
 11
176.42764942066091
 21
112.78694359031884
  0
LINE
  8
_1-4_
  6
CONTINUOUS
 62
    7
 10
175.6557608939506
 20
116.38729198558912
 11
178.37830414643159
 21
113.66473636111698
  0
LINE
  8
_1-4_
  6
CONTINUOUS
 62
    7
 10
177.60640324773016
 20
117.26508475638725
 11
180.32895887220229
 21
114.54252913191513
  0
LINE
  8
_1-4_
  6
CONTINUOUS
 62
    7
 10
179.55704560150971
 20
118.14287752718539
 11
182.27960122598185
 21
115.42032190271327
  0
LINE
  8
_1-4_
  6
CONTINUOUS
 62
    7
 10
181.50768795528927
 20
119.02067029798354
 11
184.23024357976141
 21
116.29811467351141
  0
LINE
  8
_1-4_
  6
CONTINUOUS
 62
    7
 10
183.45833030906886
 20
119.89846306878168
 11
186.18088593354096
 21
117.17590744430954
  0
LINE
  8
_1-4_
  6
CONTINUOUS
 62
    7
 10
185.40897266284841
 20
120.77624346758869
 11
188.13152828732052
 21
118.0537002151077
  0
LINE
  8
_1-4_
  6
CONTINUOUS
 62
    7
 10
187.35963976061024
 20
121.65404861037797
 11
190.08217064110011
 21
118.93149298590583
  0
LINE
  8
_1-4_
  6
CONTINUOUS
 62
    7
 10
189.31025737040753
 20
122.53182900918497
 11
192.03283773886193
 21
119.80927338471284
  0
LINE
  8
_1-4_
  6
CONTINUOUS
 62
    7
 10
191.26089972418708
 20
123.40962177998311
 11
193.98348009264149
 21
120.68706615551099
  0
LINE
  8
_1-4_
  6
CONTINUOUS
 62
    7
 10
193.21154207796664
 20
124.28740217879013
 11
195.93412244642104
 21
121.56485892630913
  0
LINE
  8
_1-4_
  6
CONTINUOUS
 62
    7
 10
195.16220917572846
 20
125.16519494958827
 11
197.8847648002006
 21
122.44263932511613
  0
LINE
  8
_1-4_
  6
CONTINUOUS
 62
    7
 10
197.11285152950802
 20
126.04298772038641
 11
199.83540715398016
 21
123.32043209591428
  0
LINE
  8
_1-4_
  6
CONTINUOUS
 62
    7
 10
199.06349388328761
 20
126.92078049118454
 11
201.78602476377745
 21
124.19822486671242
  0
LINE
  8
_1-4_
  6
CONTINUOUS
 62
    7
 10
201.01413623706716
 20
127.7985732619827
 11
203.7366918615393
 21
125.07601763751056
  0
LINE
  8
_1-4_
  6
CONTINUOUS
 62
    7
 10
202.96477859084672
 20
128.67636603278083
 11
205.68733421531886
 21
125.95381040830871
  0
LINE
  8
_1-4_
  6
CONTINUOUS
 62
    7
 10
204.91542094462628
 20
129.55414643158784
 11
207.63798894108953
 21
126.83160317910685
  0
LINE
  8
_1-4_
  6
CONTINUOUS
 62
    7
 10
206.8660880423881
 20
130.43195157437711
 11
209.58865603885135
 21
127.70939594990499
  0
LINE
  8
_1-4_
  6
CONTINUOUS
 62
    7
 10
208.8167427681588
 20
131.30973197318414
 11
211.53929839263091
 21
128.58718872070312
  0
LINE
  8
_1-4_
  6
CONTINUOUS
 62
    7
 10
210.76738512193836
 20
132.18752474398227
 11
213.4899407464105
 21
129.46498149150128
  0
LINE
  8
_1-4_
  6
CONTINUOUS
 62
    7
 10
212.71802747571792
 20
133.06531751478042
 11
215.44058310019005
 21
130.34276189030828
  0
LINE
  8
_1-4_
  6
CONTINUOUS
 62
    7
 10
214.66866982949747
 20
133.94311028557854
 11
217.39122545396961
 21
131.22054228911529
  0
LINE
  8
_1-4_
  6
CONTINUOUS
 62
    7
 10
216.61931218327703
 20
134.82089068438557
 11
219.34186780774917
 21
132.09833505991344
  0
LINE
  8
_1-4_
  6
CONTINUOUS
 62
    7
 10
218.56997928103885
 20
135.69869582717484
 11
221.29253490551099
 21
132.97614020270271
  0
LINE
  8
_1-4_
  6
CONTINUOUS
 62
    7
 10
220.52062163481841
 20
136.57648859797297
 11
223.24317725929055
 21
133.85393297350086
  0
LINE
  8
_1-4_
  6
CONTINUOUS
 62
    7
 10
222.471263988598
 20
137.45426899678
 11
225.1938196130701
 21
134.73171337230787
  0
LINE
  8
_1-4_
  6
CONTINUOUS
 62
    7
 10
224.42190634237755
 20
138.33206176757813
 11
227.14446196684966
 21
135.60950614310602
  0
LINE
  8
_1-4_
  6
CONTINUOUS
 62
    7
 10
226.37254869615711
 20
139.20985453837628
 11
229.09510432062925
 21
136.48729891390414
  0
LINE
  8
_1-4_
  6
CONTINUOUS
 62
    7
 10
228.32319104993667
 20
140.08764730917443
 11
231.0457466744088
 21
137.36509168470229
  0
LINE
  8
_1-4_
  6
CONTINUOUS
 62
    7
 10
230.27385814769849
 20
140.96544007997255
 11
232.99641377217063
 21
138.24288445550042
  0
LINE
  8
_1-4_
  6
CONTINUOUS
 62
    7
 10
232.22450050147805
 20
141.8432328507707
 11
234.94703138196792
 21
139.12067722629857
  0
LINE
  8
_1-4_
  6
CONTINUOUS
 62
    7
 10
234.1751428552576
 20
142.72101324957771
 11
236.89769847972974
 21
139.99846999709672
  0
LINE
  8
_1-4_
  6
CONTINUOUS
 62
    7
 10
236.12578520903716
 20
143.59880602037586
 11
238.8483408335093
 21
140.87625039590372
  0
LINE
  8
_1-4_
  6
CONTINUOUS
 62
    7
 10
238.07642756281675
 20
144.47659879117398
 11
240.79898318728885
 21
141.75404316670188
  0
LINE
  8
_1-4_
  6
CONTINUOUS
 62
    7
 10
240.0270699165963
 20
145.35439156197214
 11
242.74962554106844
 21
142.63182356550888
  0
LINE
  8
_1-4_
  6
CONTINUOUS
 62
    7
 10
241.97771227037586
 20
146.23218433277029
 11
244.700267894848
 21
143.509616336307
  0
LINE
  8
_1-4_
  6
CONTINUOUS
 62
    7
 10
243.92835462415542
 20
147.10996473157729
 11
246.65093499260982
 21
144.38740910710516
  0
LINE
  8
_1-4_
  6
CONTINUOUS
 62
    7
 10
245.87902172191724
 20
147.98775750237544
 11
248.60155260240711
 21
145.26520187790331
  0
LINE
  8
_1-4_
  6
CONTINUOUS
 62
    7
 10
247.8296640756968
 20
148.86555027317357
 11
250.55221970016893
 21
146.14299464870143
  0
LINE
  8
_1-4_
  6
CONTINUOUS
 62
    7
 10
249.78030642947635
 20
149.74334304397172
 11
252.50286205394849
 21
147.02078741949958
  0
LINE
  8
_1-4_
  6
CONTINUOUS
 62
    7
 10
251.73094878325594
 20
150.62113581476984
 11
254.45350440772805
 21
147.89858019029774
  0
LINE
  8
_1-4_
  6
CONTINUOUS
 62
    7
 10
253.6815911370355
 20
151.498928585568
 11
256.4041467615076
 21
148.77637296109586
  0
LINE
  8
_1-4_
  6
CONTINUOUS
 62
    7
 10
255.63223349081505
 20
152.376708984375
 11
258.35478911528719
 21
149.65416573189401
  0
LINE
  8
_1-4_
  6
CONTINUOUS
 62
    7
 10
257.58287584459458
 20
153.25450175517315
 11
260.30545621304901
 21
150.53195850269216
  0
LINE
  8
_1-4_
  6
CONTINUOUS
 62
    7
 10
259.53351819837417
 20
154.1322945259713
 11
262.2560738228463
 21
151.40973890149917
  0
LINE
  8
_1-4_
  6
CONTINUOUS
 62
    7
 10
261.48418529613599
 20
155.01008729676943
 11
264.20671617662583
 21
152.28751930030617
  0
LINE
  8
_1-4_
  6
CONTINUOUS
 62
    7
 10
253.4051513671875
 20
147.42682379645271
 11
260.58281151024073
 21
154.60447156751479
  0
LINE
  8
_1-4_
  6
CONTINUOUS
 62
    7
 10
248.26256004539698
 20
145.11265522724875
 11
255.44019544446792
 21
152.29030299831081
  0
LINE
  8
_1-4_
  6
CONTINUOUS
 62
    7
 10
243.11996872360643
 20
142.79848665804477
 11
250.29762886665964
 21
149.97613442910685
  0
LINE
  8
_1-4_
  6
CONTINUOUS
 62
    7
 10
237.97737740181589
 20
140.48431808884081
 11
245.15498805690459
 21
147.66195348791175
  0
LINE
  8
_1-4_
  6
CONTINUOUS
 62
    7
 10
232.8347613360431
 20
138.1701371476457
 11
240.01239673511404
 21
145.34778491870779
  0
LINE
  8
_1-4_
  6
CONTINUOUS
 62
    7
 10
227.69214527027029
 20
135.85596857844172
 11
234.86980541332349
 21
143.0336163495038
  0
LINE
  8
_1-4_
  6
CONTINUOUS
 62
    7
 10
222.54957869246201
 20
133.54181238122888
 11
229.72723883551521
 21
140.71946015229096
  0
LINE
  8
_1-4_
  6
CONTINUOUS
 62
    7
 10
217.40698737067146
 20
131.22764381202492
 11
224.58462276974242
 21
138.40529158308701
  0
LINE
  8
_1-4_
  6
CONTINUOUS
 62
    7
 10
212.26437130489867
 20
128.91346287082982
 11
219.44200670396961
 21
136.0911106418919
  0
LINE
  8
_1-4_
  6
CONTINUOUS
 62
    7
 10
207.12176761111698
 20
126.59930667361698
 11
214.29944012616133
 21
133.77694207268792
  0
LINE
  8
_1-4_
  6
CONTINUOUS
 62
    7
 10
201.97917628932646
 20
124.28512573242187
 11
209.15682406038852
 21
131.46277350348396
  0
LINE
  8
_1-4_
  6
CONTINUOUS
 62
    7
 10
196.83658496753591
 20
121.97096953520905
 11
204.01422036660685
 21
129.14860493428
  0
LINE
  8
_1-4_
  6
CONTINUOUS
 62
    7
 10
191.6939689017631
 20
119.65678859401395
 11
198.8716290448163
 21
126.83443636507602
  0
LINE
  8
_1-4_
  6
CONTINUOUS
 62
    7
 10
186.55140232395482
 20
117.34263239680111
 11
193.72903772302578
 21
124.52028016786318
  0
LINE
  8
_1-4_
  6
CONTINUOUS
 62
    7
 10
181.40881100216427
 20
115.02847619958827
 11
188.58644640123524
 21
122.20611159865922
  0
LINE
  8
_1-4_
  6
CONTINUOUS
 62
    7
 10
176.26617019240922
 20
112.71428288640203
 11
183.44383033546242
 21
119.89193065746412
  0
LINE
  8
_1-4_
  6
CONTINUOUS
 62
    7
 10
171.12360361460094
 20
110.40011431719806
 11
178.30123901367187
 21
117.57777446025128
  0
LINE
  8
_1-4_
  6
CONTINUOUS
 62
    7
 10
165.98098754882812
 20
108.08595811998522
 11
173.15864769188136
 21
115.26359351905617
  0
LINE
  8
_1-4_
  6
CONTINUOUS
 62
    7
 10
160.83842097101984
 20
105.77178955078125
 11
168.01605637009081
 21
112.94943732184333
  0
LINE
  8
_1-4_
  6
CONTINUOUS
 62
    7
 10
155.69581727723818
 20
103.45762098157729
 11
162.87346504830026
 21
110.63526875263936
  0
LINE
  8
_1-4_
  6
CONTINUOUS
 62
    7
 10
150.55321358345651
 20
101.14345241237332
 11
157.73086135451859
 21
108.32110018343539
  0
LINE
  8
_1-4_
  6
CONTINUOUS
 62
    7
 10
145.41062226166596
 20
98.82928384316935
 11
152.58827003272805
 21
106.00693161423142
  0
LINE
  8
_1-4_
  6
CONTINUOUS
 62
    7
 10
140.26803093987542
 20
96.515115273965378
 11
147.4456787109375
 21
103.69276304502746
  0
LINE
  8
_1-4_
  6
CONTINUOUS
 62
    7
 10
135.12541487410263
 20
94.200940518765847
 11
142.30306264516472
 21
101.37858828982792
  0
LINE
  8
_1-4_
  6
CONTINUOUS
 62
    7
 10
129.98284829629435
 20
91.886778135557435
 11
137.16049606735643
 21
99.064425906619519
  0
LINE
  8
_1-4_
  6
CONTINUOUS
 62
    7
 10
124.84023223052155
 20
89.572603380357904
 11
132.01788000158362
 21
96.750251151419974
  0
LINE
  8
_1-4_
  6
CONTINUOUS
 62
    7
 10
119.697640908731
 20
87.258440997149492
 11
126.87528867979309
 21
94.436088768211576
  0
LINE
  8
_1-4_
  6
CONTINUOUS
 62
    7
 10
114.55503721494934
 20
84.944266241949961
 11
121.73267261402027
 21
92.121914013012045
  0
LINE
  8
_1-4_
  6
CONTINUOUS
 62
    7
 10
109.41245826514992
 20
82.630103858741563
 11
116.59010603621201
 21
89.807751629803633
  0
LINE
  8
_1-4_
  6
CONTINUOUS
 62
    7
 10
104.26985457136824
 20
80.315935289537592
 11
111.44751471442146
 21
87.493589246595235
  0
LINE
  8
_1-4_
  6
CONTINUOUS
 62
    7
 10
99.127257063582135
 20
78.001760534338047
 11
106.30489864864866
 21
85.179408305400131
  0
LINE
  8
_1-4_
  6
CONTINUOUS
 62
    7
 10
93.984665741791602
 20
75.687598151129649
 11
101.16231351285369
 21
82.865245922191733
  0
LINE
  8
_1-4_
  6
CONTINUOUS
 62
    7
 10
88.842062048009936
 20
73.373429581925677
 11
96.019709819072006
 21
80.551071166992188
  0
LINE
  8
_1-4_
  6
CONTINUOUS
 62
    7
 10
83.699470726219388
 20
71.059261012721706
 11
90.877106125290339
 21
78.236902597788216
  0
LINE
  8
_1-4_
  6
CONTINUOUS
 62
    7
 10
81.551841529640001
 20
71.740060754724453
 11
85.734539547482058
 21
75.922746400575377
  0
LINE
  8
_1-4_
  6
CONTINUOUS
 62
    7
 10
259.35122928103885
 20
216.35816419446792
 11
249.72235602301521
 21
240.81330995301943
  0
LINE
  8
_1-4_
  6
CONTINUOUS
 62
    7
 10
309.59947740709464
 20
175.61129595782307
 11
277.73066340266047
 21
175.61129595782307
  0
LINE
  8
_1-4_
  6
CONTINUOUS
 62
    7
 10
309.59947740709464
 20
199.61130090661953
 11
277.73066340266047
 21
199.61130090661953
  0
LINE
  8
_1-4_
  6
CONTINUOUS
 62
    7
 10
309.59947740709464
 20
175.61129595782307
 11
309.59947740709464
 21
199.61130090661953
  0
LINE
  8
_1-4_
  6
CONTINUOUS
 62
    7
 10
309.59947740709464
 20
199.61130090661953
 11
309.59947740709464
 21
217.12045205605997
  0
LINE
  8
_1-4_
  6
CONTINUOUS
 62
    7
 10
309.59947740709464
 20
217.12045205605997
 11
307.63228132918078
 21
213.7131809543919
  0
LINE
  8
_1-4_
  6
CONTINUOUS
 62
    7
 10
309.59947740709464
 20
217.12045205605997
 11
311.56667348500844
 21
213.7131809543919
  0
LINE
  8
_1-4_
  6
CONTINUOUS
 62
    7
 10
309.59947740709464
 20
199.61130090661953
 11
307.63228132918078
 21
203.01857200828761
  0
LINE
  8
_1-4_
  6
CONTINUOUS
 62
    7
 10
309.59947740709464
 20
199.61130090661953
 11
311.56667348500844
 21
203.01857200828761
  0
LINE
  8
_1-4_
  6
CONTINUOUS
 62
    7
 10
225.24605415962839
 20
107.14341034760346
 11
225.24605415962839
 21
120.85991524361276
  0
LINE
  8
_1-4_
  6
CONTINUOUS
 62
    7
 10
264.71171611064193
 20
107.14341034760346
 11
264.71171611064193
 21
120.85991524361276
  0
LINE
  8
_1-4_
  6
CONTINUOUS
 62
    7
 10
225.24605415962839
 20
107.14341034760346
 11
264.71171611064193
 21
107.14341034760346
  0
LINE
  8
_1-4_
  6
CONTINUOUS
 62
    7
 10
309.5578580289274
 20
206.19780256941513
 11
316.84471336570948
 21
233.39271339210305
  0
LINE
  8
_1-4_
  6
CONTINUOUS
 62
    7
 10
316.84471336570948
 20
233.39271339210305
 11
320.05103858741558
 21
233.39271339210305
  0
LINE
  8
_1-4_
  6
CONTINUOUS
 62
    7
 10
321.90386797930745
 20
140.99948779956716
 11
325.32274400865714
 21
140.99948779956716
  0
LINE
  8
_1-4_
  6
CONTINUOUS
 62
    7
 10
309.59947740709464
 20
186.92008765968117
 11
321.90386797930745
 21
140.99948779956716
  0
LINE
  8
_1-0_
  6
DASHED1
 62
    3
 10
79.95230391218854
 20
73.97869831806905
 11
263.11162175358953
 21
156.40041454418287
  0
LINE
  8
_1-0_
  6
DASHED1
 62
    3
 10
263.11162175358953
 20
156.40041454418287
 11
263.11162175358953
 21
217.12045205605997
  0
LINE
  8
_1-0_
  6
CONTINUOUS
 62
    7
 10
79.95230391218854
 20
73.320743457691094
 11
263.6459680505701
 21
155.98289695945948
  0
LINE
  8
_1-0_
  6
CONTINUOUS
 62
    7
 10
263.6459680505701
 20
155.98289695945948
 11
263.6459680505701
 21
239.90184062236065
  0
LINE
  8
_1-4_
  6
CONTINUOUS
 62
    7
 10
258.54774268897808
 20
149.74099236565669
 11
263.92975678315037
 21
155.12299408783784
  0
LINE
  8
_1-1_
  6
CONTINUOUS
 62
    7
 10
256.7116402290963
 20
180.6113000818201
 11
259.11163330078125
 21
180.6113000818201
  0
LINE
  8
_1-1_
  6
CONTINUOUS
 62
    7
 10
256.7116402290963
 20
180.6113000818201
 11
256.7116402290963
 21
239.90184062236065
  0
LINE
  8
_1-1_
  6
CONTINUOUS
 62
    7
 10
259.11163330078125
 20
180.6113000818201
 11
259.11163330078125
 21
239.90184062236065
  0
LINE
  8
_1-1_
  6
CONTINUOUS
 62
    7
 10
259.11163330078125
 20
208.419750316723
 11
262.78579299514359
 21
208.419750316723
  0
LINE
  8
_1-1_
  6
CONTINUOUS
 62
    7
 10
259.11163330078125
 20
200.41976103911529
 11
262.78579299514359
 21
200.41976103911529
  0
LINE
  8
_1-1_
  6
CONTINUOUS
 62
    7
 10
259.11163330078125
 20
208.419750316723
 11
262.78579299514359
 21
200.41976103911529
  0
LINE
  8
_1-4_
  6
CONTINUOUS
 62
    7
 10
262.78579299514359
 20
208.419750316723
 11
262.78579299514359
 21
200.41976103911529
  0
ARC
  8
_1-2_
  6
CONTINUOUS
 62
    3
 10
94.488601684570313
 20
89.351992220491979
 40
6.01062568458351
 50
107.389892578125
 51
141.6080322265625
  0
ARC
  8
_1-2_
  6
CONTINUOUS
 62
    3
 10
93.410011497703763
 20
91.114543193095443
 40
0.9999999162313101
 50
108.07392883300781
 51
175.50869750976562
  0
ARC
  8
_1-2_
  6
CONTINUOUS
 62
    3
 10
145.55619110932221
 20
112.33242138012037
 40
6.01062568458351
 50
107.389892578125
 51
141.6080322265625
  0
ARC
  8
_1-2_
  6
CONTINUOUS
 62
    3
 10
144.47760092245568
 20
114.09497235272383
 40
0.9999999162313101
 50
108.07392883300781
 51
175.50869750976562
  0
ARC
  8
_1-2_
  6
CONTINUOUS
 62
    3
 10
196.62378672006969
 20
135.31285053974875
 40
6.01062568458351
 50
107.389892578125
 51
141.6080322265625
  0
ARC
  8
_1-2_
  6
CONTINUOUS
 62
    3
 10
195.54519653320312
 20
137.07538914036107
 40
0.9999999162313101
 50
108.07392883300781
 51
175.50869750976562
  0
ARC
  8
_1-4_
  6
CONTINUOUS
 62
    7
 10
280.76311266100083
 20
112.06398628853464
 40
9.9999997422501856
 50
270
 51
0
  0
TEXT
  8
_0-0_
 62
    7
 10
147.56756962956609
 20
22.702702702702709
 40
2.5
 41
1
 50
0
  1
図名
  0
TEXT
  8
_0-0_
 62
    7
 10
147.56756962956609
 20
12.972972972972968
 40
2.5
 41
1
 50
0
  1
縮尺
  0
TEXT
  8
_0-0_
 62
    7
 10
382.77784605284
 20
21.243871740392734
 40
2.5
 41
1
 50
0
  1
ＮＯ
  0
TEXT
  8
_0-0_
 62
    7
 10
20.270270012520456
 20
22.702702702702709
 40
2.5
 41
1
 50
0
  1
Ｆ形
  0
TEXT
  8
_0-0_
 62
    7
 10
389.99062615471917
 20
16.178650211643514
 40
2.5
 41
1
 50
0
  1
Ｆ
  0
TEXT
  8
_0-0_
 62
    7
 10
171.37221877639359
 20
12.362518826046511
 40
2.5
 41
1
 50
0
  1
1/5
  0
TEXT
  8
_1-4_
 62
    7
 10
45.397583729511979
 20
13.77361400707349
 40
2.5
 41
1
 50
0
  1
壁際　3
  0
TEXT
  8
_1-4_
 62
    7
 10
31.231869362496042
 20
18.589955922719582
 40
2.5
 41
1
 50
0
  1
Ｓ
  0
TEXT
  8
_0-1_
 62
    7
 10
93.836921485694688
 20
169.10531121331294
 40
2.5
 41
1
 50
0
  1
瓦桟
  0
TEXT
  8
_0-1_
 62
    7
 10
93.836919423696159
 20
161.60140166411529
 40
2.5
 41
1
 50
0
  1
流し桟
  0
TEXT
  8
_0-1_
 62
    7
 10
93.836920454695417
 20
154.31818369272594
 40
2.5
 41
1
 50
0
  1
下葺き材
  0
TEXT
  8
_0-1_
 62
    7
 10
93.836919423696159
 20
147.69708994272594
 40
2.5
 41
1
 50
0
  1
野地板
  0
TEXT
  8
_0-1_
 62
    7
 10
93.836921485694688
 20
141.07598382073479
 40
2.5
 41
1
 50
0
  1
垂木
  0
TEXT
  8
_1-4_
 62
    7
 10
232.01533549540756
 20
239.47765453441724
 40
2.5
 41
1
 50
0
  1
外壁
  0
TEXT
  8
_1-4_
 62
    7
 10
221.67203748548354
 20
221.74624056429477
 40
2.5
 41
1
 50
0
  1
水切鉄板
  0
TEXT
  8
_1-4_
 62
    7
 10
208.0040720346812
 20
201.0596156764675
 40
2.5
 41
1
 50
0
  1
発泡弾性シール材
  0
TEXT
  8
_1-4_
 62
    7
 10
311.06625531170823
 20
113.63682514912374
 40
2.5
 41
1
 50
0
  1
２重貼り
  0
TEXT
  8
_1-4_
 62
    7
 10
108.21861473289697
 20
141.07598382073479
 40
2.5
 41
1
 50
0
  1
Ｃ－100ｘ50ｘ20ｘ2.3
  0
TEXT
  8
_1-4_
 62
    7
 10
108.21861473289697
 20
147.69708994272594
 40
2.5
 41
1
 50
0
  1
硬質木片セメント板　ｔ＝18
  0
TEXT
  8
_1-4_
 62
    7
 10
331.26375353014146
 20
184.82317125475086
 40
2.5
 41
1
 50
0
  1
下葺き材立上がり寸法
  0
TEXT
  8
_1-4_
 62
    7
 10
304.29493672138938
 20
117.34468614732897
 40
2.5
 41
1
 50
0
  1
下葺き材　　　ゴムアス系ルーフィング
  0
TEXT
  8
_1-4_
 62
    7
 10
309.09947575749578
 20
185.7362984322213
 40
2.5
 41
1
 50
90
  1
120
  0
TEXT
  8
_1-4_
 62
    7
 10
328.72810982369089
 20
181.49543968406886
 40
2.5
 41
1
 50
90
  1
300　以上
  0
TEXT
  8
_1-4_
 62
    7
 10
321.11841562631969
 20
231.84094403241133
 40
2.5
 41
1
 50
0
  1
水切鉄板上端より
  0
TEXT
  8
_1-4_
 62
    7
 10
321.60532770930115
 20
229.11423141891893
 40
2.5
 41
1
 50
0
  1
50ｍｍ以上
  0
TEXT
  8
_1-4_
 62
    7
 10
320.27606118691938
 20
244.822998046875
 40
3
 41
1
 50
0
  1
下葺き材立上げ長さは、300ｍｍ以上かつ
  0
TEXT
  8
_1-4_
 62
    7
 10
320.66268426018792
 20
239.1759016707137
 40
3
 41
1
 50
0
  1
水切鉄板上端より50mm以上とする
  0
TEXT
  8
_1-4_
 62
    7
 10
327.20991392393375
 20
140.41457717483109
 40
2.5
 41
1
 50
0
  1
水切り鉄板立上がり寸法
  0
TEXT
  8
_1-4_
 62
    7
 10
399.34781048748948
 20
13.797872388685079
 40
2.5
 41
1
 50
0
  1
35
  0
TEXT
  8
_1-4_
 62
    7
 10
108.21860854690141
 20
169.10531121331294
 40
2.5
 41
1
 50
0
  1
15×21　以上　（防腐処理）
  0
TEXT
  8
_1-4_
 62
    7
 10
108.07804004566091
 20
165.87189133102831
 40
2.5
 41
1
 50
0
  1
※　地域により瓦桟木の大きさは、異なります
  0
TEXT
  8
_1-4_
 62
    7
 10
108.2436515189506
 20
154.79949126372466
 40
2.5
 41
1
 50
0
  1
アスファルトルーフィング９４０
  0
TEXT
  8
_1-4_
 62
    7
 10
243.10388513513516
 20
107.64341199720229
 40
2.5
 41
1
 50
0
  1
200
  0
POINT
  8
_1-4_
 62
    7
 10
329.22811147328969
 20
157.12045205605997
  0
POINT
  8
_1-4_
 62
    7
 10
329.22811147328969
 20
217.12045205605997
  0
POINT
  8
_1-4_
 62
    7
 10
309.59947740709464
 20
175.61129595782307
  0
POINT
  8
_1-4_
 62
    7
 10
309.59947740709464
 20
199.61130090661953
  0
POINT
  8
_1-4_
 62
    7
 10
225.24605415962839
 20
107.14341034760346
  0
POINT
  8
_1-4_
 62
    7
 10
264.71171611064193
 20
107.14341034760346
  0
LINE
  8
_1-3_
  6
CONTINUOUS
 62
    3
 10
241.56224457255095
 20
161.98710892664536
 11
242.63125883828152
 21
156.69398758875474
  0
LINE
  8
_1-3_
  6
CONTINUOUS
 62
    3
 10
261.65651089698088
 20
166.04543131763987
 11
260.94383471982712
 21
169.57418300023068
  0
LINE
  8
_1-3_
  6
CONTINUOUS
 62
    7
 10
247.97979432445129
 20
165.41067394063396
 11
246.82872901353491
 21
168.18105968282146
  0
LINE
  8
_1-3_
  6
CONTINUOUS
 62
    7
 10
246.82872901353491
 20
168.18105968282146
 11
249.59911475572241
 21
169.33212499373784
  0
LINE
  8
_1-3_
  6
CONTINUOUS
 62
    7
 10
249.59911475572241
 20
169.33212499373784
 11
250.75018006663879
 21
166.56173925155034
  0
LINE
  8
_1-3_
  6
CONTINUOUS
 62
    7
 10
250.75018006663879
 20
166.56173925155034
 11
247.97979432445129
 21
165.41067394063396
  0
LINE
  8
_1-3_
  6
CONTINUOUS
 62
    7
 10
247.63991098407968
 20
166.2287099942657
 11
248.4536910727621
 21
165.60756180750474
  0
LINE
  8
_1-3_
  6
CONTINUOUS
 62
    7
 10
247.18066267326887
 20
167.33406079795026
 11
249.09401584577731
 21
165.87360910480203
  0
LINE
  8
_1-3_
  6
CONTINUOUS
 62
    7
 10
246.97840536224689
 20
168.24325368224081
 11
249.73434061879252
 21
166.13965640209932
  0
LINE
  8
_1-3_
  6
CONTINUOUS
 62
    7
 10
247.6187301352621
 20
168.5093009795381
 11
250.3746653918077
 21
166.40570369939661
  0
LINE
  8
_1-3_
  6
CONTINUOUS
 62
    7
 10
248.25905490827731
 20
168.77534827683539
 11
250.56027000276632
 21
167.01883483590422
  0
LINE
  8
_1-3_
  6
CONTINUOUS
 62
    7
 10
248.89937968129252
 20
169.04138320214156
 11
250.10102169195551
 21
168.12418563958877
  0
LINE
  8
_1-3_
  6
CONTINUOUS
 62
    7
 10
249.5397044543077
 20
169.30743049943885
 11
249.64174863716244
 21
169.2295364432733
  0
LINE
  8
_1-3_
  6
CONTINUOUS
 62
    7
 10
250.18171181811684
 20
166.32554556885398
 11
250.61334584472155
 21
166.89104453950432
  0
LINE
  8
_1-3_
  6
CONTINUOUS
 62
    7
 10
249.07634864244116
 20
165.86627251406091
 11
250.34732329140652
 21
167.53138168451065
  0
LINE
  8
_1-3_
  6
CONTINUOUS
 62
    7
 10
247.97766634197663
 20
165.41577120098023
 11
250.08125125012697
 21
168.17170645752586
  0
LINE
  8
_1-3_
  6
CONTINUOUS
 62
    7
 10
247.71161904467934
 20
166.05610834598659
 11
249.81520395282968
 21
168.81204360253219
  0
LINE
  8
_1-3_
  6
CONTINUOUS
 62
    7
 10
247.44559649136428
 20
166.69644549099291
 11
249.39156223249606
 21
169.24587984355836
  0
LINE
  8
_1-3_
  6
CONTINUOUS
 62
    7
 10
247.17952445008473
 20
167.33678263599924
 11
248.28617431283811
 21
168.78661916075643
  0
LINE
  8
_1-3_
  6
CONTINUOUS
 62
    7
 10
246.91345240880517
 20
167.97711978100557
 11
247.18078639318017
 21
168.32734610596336
  0
LINE
  8
_1-3_
  6
CONTINUOUS
 62
    2
 10
246.22109104108981
 20
168.29484488526023
 11
246.22109104108981
 21
164.76053817865127
  0
LINE
  8
_1-3_
  6
CONTINUOUS
 62
    2
 10
246.22109104108981
 20
164.76053817865127
 11
247.15549804330686
 21
165.89210523154401
  0
ARC
  8
_1-3_
  6
CONTINUOUS
 62
    3
 10
269.89430221613202
 20
125.25695607481893
 40
41.612016832506335
 50
101.41804504394531
 51
130.93269348144531
  0
ARC
  8
_1-3_
  6
CONTINUOUS
 62
    3
 10
272.85509290183728
 20
110.59695076311073
 40
60.168024011560398
 50
101.41804504394531
 51
121.33833312988281
  0
CIRCLE
  8
_1-3_
  6
CONTINUOUS
 62
    7
 10
260.88944744681191
 20
163.74158098903979
 40
0.283231268057952
  0
CIRCLE
  8
_1-3_
  6
CONTINUOUS
 62
    7
 10
259.0390677091641
 20
162.96782429166859
 40
0.283231268057952
  0
CIRCLE
  8
_1-3_
  6
CONTINUOUS
 62
    7
 10
262.89546683289723
 20
162.03293478179739
 40
0.283231268057952
  0
CIRCLE
  8
_1-3_
  6
CONTINUOUS
 62
    7
 10
262.9538873750214
 20
160.33846687639198
 40
0.283231268057952
  0
CIRCLE
  8
_1-3_
  6
CONTINUOUS
 62
    7
 10
261.72685803855603
 20
159.05300462581133
 40
0.283231268057952
  0
CIRCLE
  8
_1-3_
  6
CONTINUOUS
 62
    7
 10
261.43470583997072
 20
158.76085242722601
 40
0.283231268057952
  0
CIRCLE
  8
_1-3_
  6
CONTINUOUS
 62
    7
 10
261.25941946961598
 20
156.42365958252586
 40
0.283231268057952
  0
CIRCLE
  8
_1-3_
  6
CONTINUOUS
 62
    7
 10
259.85710376279587
 20
160.04631467780666
 40
0.283231268057952
  0
CIRCLE
  8
_1-3_
  6
CONTINUOUS
 62
    7
 10
260.67511507244535
 20
161.03962472980203
 40
0.283231268057952
  0
CIRCLE
  8
_1-3_
  6
CONTINUOUS
 62
    7
 10
261.02568781315483
 20
156.54051303876528
 40
0.283231268057952
  0
CIRCLE
  8
_1-3_
  6
CONTINUOUS
 62
    7
 10
252.96234156896142
 20
161.91608132555794
 40
0.283231268057952
  0
CIRCLE
  8
_1-3_
  6
CONTINUOUS
 62
    7
 10
252.31961662966665
 20
160.68905198909258
 40
0.283231268057952
  0
CIRCLE
  8
_1-3_
  6
CONTINUOUS
 62
    7
 10
250.44986235390652
 20
160.63061907497729
 40
0.283231268057952
  0
CIRCLE
  8
_1-3_
  6
CONTINUOUS
 62
    7
 10
261.55157166820129
 20
164.13642071401867
 40
0.283231268057952
  0
CIRCLE
  8
_1-3_
  6
CONTINUOUS
 62
    7
 10
262.72018046254254
 20
165.30502950835989
 40
0.283231268057952
  0
CIRCLE
  8
_1-3_
  6
CONTINUOUS
 62
    7
 10
262.89546683289723
 20
166.76577812929528
 40
0.283231268057952
  0
CIRCLE
  8
_1-3_
  6
CONTINUOUS
 62
    7
 10
262.72018046254254
 20
168.86926406151656
 40
0.283231268057952
  0
CIRCLE
  8
_1-3_
  6
CONTINUOUS
 62
    7
 10
262.72018046254254
 20
169.39513554457187
 40
0.283231268057952
  0
CIRCLE
  8
_1-3_
  6
CONTINUOUS
 62
    7
 10
261.78527858068014
 20
171.14803636409258
 40
0.283231268057952
  0
CIRCLE
  8
_1-3_
  6
CONTINUOUS
 62
    7
 10
260.79198090067598
 20
171.08960344997729
 40
0.283231268057952
  0
CIRCLE
  8
_1-3_
  6
CONTINUOUS
 62
    7
 10
260.79198090067598
 20
171.73232838927206
 40
0.283231268057952
  0
CIRCLE
  8
_1-3_
  6
CONTINUOUS
 62
    7
 10
261.55157166820129
 20
172.14134641608791
 40
0.283231268057952
  0
CIRCLE
  8
_1-3_
  6
CONTINUOUS
 62
    7
 10
262.9538873750214
 20
174.59540508901867
 40
0.283231268057952
  0
CIRCLE
  8
_1-3_
  6
CONTINUOUS
 62
    7
 10
260.67511507244535
 20
160.22161342015255
 40
0.283231268057952
  0
CIRCLE
  8
_1-3_
  6
CONTINUOUS
 62
    7
 10
260.32454233173593
 20
162.26666643825854
 40
0.283231268057952
  0
CIRCLE
  8
_1-3_
  6
CONTINUOUS
 62
    7
 10
262.2527171496202
 20
161.21492347214789
 40
0.283231268057952
  0
CIRCLE
  8
_1-3_
  6
CONTINUOUS
 62
    7
 10
259.56495156421056
 20
161.21492347214789
 40
0.283231268057952
  0
CIRCLE
  8
_1-3_
  6
CONTINUOUS
 62
    7
 10
260.55824924421484
 20
157.59225600487594
 40
0.283231268057952
  0
CIRCLE
  8
_1-3_
  6
CONTINUOUS
 62
    7
 10
260.55824924421484
 20
156.13150738394054
 40
0.283231268057952
  0
CIRCLE
  8
_1-3_
  6
CONTINUOUS
 62
    7
 10
261.8437238667866
 20
161.7407949552032
 40
0.283231268057952
  0
CIRCLE
  8
_1-3_
  6
CONTINUOUS
 62
    7
 10
262.36958297785077
 20
163.90270142954864
 40
0.283231268057952
  0
CIRCLE
  8
_1-3_
  6
CONTINUOUS
 62
    7
 10
260.4414081599665
 20
164.31171945636453
 40
0.283231268057952
  0
CIRCLE
  8
_1-3_
  6
CONTINUOUS
 62
    7
 10
260.14925596138119
 20
164.60385928295869
 40
0.283231268057952
  0
CIRCLE
  8
_1-3_
  6
CONTINUOUS
 62
    7
 10
258.63007442633051
 20
164.07798779990338
 40
0.283231268057952
  0
CIRCLE
  8
_1-3_
  6
CONTINUOUS
 62
    7
 10
254.59838893224267
 20
162.96782429166859
 40
0.283231268057952
  0
CIRCLE
  8
_1-3_
  6
CONTINUOUS
 62
    7
 10
251.91059860285077
 20
161.44864275661791
 40
0.283231268057952
  0
CIRCLE
  8
_1-3_
  6
CONTINUOUS
 62
    7
 10
251.09258729320129
 20
160.10474759192195
 40
0.283231268057952
  0
CIRCLE
  8
_1-3_
  6
CONTINUOUS
 62
    7
 10
249.39811938779587
 20
160.10474759192195
 40
0.283231268057952
  0
CIRCLE
  8
_1-3_
  6
CONTINUOUS
 62
    7
 10
248.75539444850111
 20
159.52044319475135
 40
0.283231268057952
  0
CIRCLE
  8
_1-3_
  6
CONTINUOUS
 62
    7
 10
262.07743077926546
 20
167.87594163753008
 40
0.283231268057952
  0
LINE
  8
_1-1_
  6
CONTINUOUS
 62
    2
 10
262.19965754328547
 20
175.40823212626151
 11
262.19965754328547
 21
199.61130090661953
  0
LINE
  8
_1-4_
  6
CONTINUOUS
 62
    7
 10
256.55796829022114
 20
172.89664760177195
 11
238.3334185626056
 21
222.96822212837839
  0
LINE
  8
_1-2_
  6
CONTINUOUS
 62
    7
 10
240.88417671822214
 20
161.67423557590794
 11
242.22171311818073
 21
161.37060390198255
  0
TEXT
  8
_1-4_
 62
    7
 10
221.36421272366357
 20
187.65105439907421
 40
2.5
 41
1
 50
0
  1
のし
  0
LINE
  8
_1-2_
  6
CONTINUOUS
 62
    7
 10
293.9730652983564
 20
99.650099187412565
 11
299.76065800580994
 21
99.650099187412565
  0
TEXT
  8
_1-2_
 62
    7
 10
301.22798027803333
 20
98.115291827562487
 40
2.5
 41
1
 50
0
  1
南蛮漆喰
  0
LINE
  8
_1-2_
  6
CONTINUOUS
 62
    7
 10
293.9730652983564
 20
99.650099187412565
 11
261.21609560773106
 21
159.85666013903665
  0
ENDSEC
  0
EOF
