  0
SECTION
  2
HEADER
  9
$ACADVER
  1
AC1009
  9
$INSBASE
 10
0
 20
0
 30
0
  9
$EXTMIN
 10
0
 20
0
  9
$EXTMAX
 10
420
 20
297
  9
$LIMMIN
 10
0
 20
0
  9
$LIMMAX
 10
420
 20
297
  9
$LTSCALE
 40
1
  0
ENDSEC
  0
SECTION
  2
TABLES
  0
TABLE
  2
LTYPE
 70
     9
  0
LTYPE
  2
CONTINUOUS
 70
    64
  3
実線
 72
    65
 73
     0
 40
0.0
  0
LTYPE
  2
DASHED1
 70
    64
  3
--  --  --  --  --  --  --  --  
 72
    65
 73
     2
 40
2.5
 49
1.25
 49
-1.25
  0
LTYPE
  2
DASHED2
 70
    64
  3
----    ----    ----    ----    
 72
    65
 73
     2
 40
5.0
 49
2.5
 49
-2.5
  0
LTYPE
  2
DASHED3
 70
    64
  3
------  ------  ------  ------  
 72
    65
 73
     2
 40
5.0
 49
3.75
 49
-1.25
  0
LTYPE
  2
CENTER1
 70
    64
  3
----- - ----- - ----- - ----- - 
 72
    65
 73
     4
 40
10.0
 49
6.25
 49
-1.25
 49
1.25
 49
-1.25
  0
LTYPE
  2
CENTER2
 70
    64
  3
----------  --  ----------  --  
 72
    65
 73
     4
 40
20.0
 49
12.5
 49
-2.5
 49
2.5
 49
-2.5
  0
LTYPE
  2
PHANTOM1
 70
    64
  3
--- - - --- - - --- - - --- - - 
 72
    65
 73
     6
 40
10.0
 49
3.25
 49
-1.25
 49
1.25
 49
-1.25
 49
1.25
 49
-1.25
  0
LTYPE
  2
PHANTOM2
 70
    64
  3
--------  -  -  --------  -  -  
 72
    65
 73
     6
 40
20.0
 49
10.0
 49
-2.5
 49
1.25
 49
-2.5
 49
1.25
 49
-2.5
  0
LTYPE
  2
DOT
 70
    64
  3
-   -   -   -   -   -   -   -   
 72
    65
 73
     2
 40
2.5
 49
0.625
 49
-1.875
  0
LTYPE
  2
DUMMY
 70
    64
  3
ダミー
 72
    65
 73
     0
 40
0.0
  0
LTYPE
  2
RAND1
 70
    64
  3
ランダム線1
 72
    65
 73
     4
 40
10.0
 49
1.0
 49
-2.0
 49
3.0
 49
-4.0
  0
LTYPE
  2
RAND2
 70
    64
  3
ランダム線2
 72
    65
 73
     4
 40
14.0
 49
2.0
 49
-3.0
 49
4.0
 49
-5.0
  0
LTYPE
  2
RAND3
 70
    64
  3
ランダム線3
 72
    65
 73
     4
 40
18.0
 49
3.0
 49
-4.0
 49
5.0
 49
-6.0
  0
LTYPE
  2
RAND4
 70
    64
  3
ランダム線4
 72
    65
 73
     4
 40
22.0
 49
4.0
 49
-5.0
 49
6.0
 49
-7.0
  0
LTYPE
  2
RAND5
 70
    64
  3
ランダム線5
 72
    65
 73
     4
 40
26.0
 49
5.0
 49
-6.0
 49
7.0
 49
-8.0
  0
LTYPE
  2
LONG1
 70
    64
  3
----------  --  ----------  --  
 72
    65
 73
     4
 40
40.0
 49
32.5
 49
-2.5
 49
2.5
 49
-2.5
  0
LTYPE
  2
LONG2
 70
    64
  3
--------  -  -  --------  -  -  
 72
    65
 73
     6
 40
40.0
 49
30.0
 49
-2.5
 49
1.25
 49
-2.5
 49
1.25
 49
-2.5
  0
LTYPE
  2
LONG3
 70
    64
  3
+++++++++++++++..+++++++++++++++
 72
    65
 73
     2
 40
40.0
 49
37.5
 49
-2.5
  0
LTYPE
  2
LONG4
 70
    64
  3
+++++++++++++++..+++++++++++++++
 72
    65
 73
     2
 40
80.0
 49
75.0
 49
-5.0
  0
LTYPE
  2
LONG5
 70
    64
  3
----------  --  ----------  --  
 72
    65
 73
     4
 40
60.0
 49
37.5
 49
-7.5
 49
7.5
 49
-7.5
  0
LTYPE
  2
dashed
 70
   64
  3
-------   -------------   ------
 72
   65
 73
    2
 40
7.5
 49
6
 49
-1.5
  0
LTYPE
  2
dashed_spaced
 70
   64
  3
----        --------        ----
 72
   65
 73
    2
 40
12
 49
6
 49
-6
  0
LTYPE
  2
long_dashed_dotted
 70
   64
  3
------------- --- --------------
 72
   65
 73
    4
 40
15.25
 49
12
 49
-1.5
 49
0.25
 49
-1.5
  0
LTYPE
  2
long_dashed_double-dotted
 70
   64
  3
----------- --- --- ------------
 72
   65
 73
    6
 40
17
 49
12
 49
-1.5
 49
0.25
 49
-1.5
 49
0.25
 49
-1.5
  0
LTYPE
  2
long_dashed_triplicate-dotted
 70
   64
  3
--------- --- --- --- ----------
 72
   65
 73
    8
 40
18.75
 49
12
 49
-1.5
 49
0.25
 49
-1.5
 49
0.25
 49
-1.5
 49
0.25
 49
-1.5
  0
LTYPE
  2
dotted
 70
   64
  3
   -       -       -       -    
 72
   65
 73
    2
 40
1.75
 49
0.25
 49
-1.5
  0
LTYPE
  2
chain
 70
   64
  3
-------------- -- --------------
 72
   65
 73
    4
 40
18.5
 49
12
 49
-1.5
 49
3.5
 49
-1.5
  0
LTYPE
  2
chain_double_dash
 70
   64
  3
------------ -- -- -------------
 72
   65
 73
    6
 40
23.5
 49
12
 49
-1.5
 49
3.5
 49
-1.5
 49
3.5
 49
-1.5
  0
LTYPE
  2
dashed_dotted
 70
   64
  3
-----------     -     ----------
 72
   65
 73
    4
 40
9.25
 49
6
 49
-1.5
 49
0.25
 49
-1.5
  0
LTYPE
  2
double-dashed_dotted
 70
   64
  3
------   -----------   -   -----
 72
   65
 73
    6
 40
16.75
 49
6
 49
-1.5
 49
6
 49
-1.5
 49
0.25
 49
-1.5
  0
LTYPE
  2
dashed_double-dotted
 70
   64
  3
---------    -    -    ---------
 72
   65
 73
    6
 40
11
 49
6
 49
-1.5
 49
0.25
 49
-1.5
 49
0.25
 49
-1.5
  0
LTYPE
  2
double-dashed_double-dotted
 70
   64
  3
-----   ---------   -   -   ----
 72
   65
 73
    8
 40
18.5
 49
6
 49
-1.5
 49
6
 49
-1.5
 49
0.25
 49
-1.5
 49
0.25
 49
-1.5
  0
LTYPE
  2
dashed_triplicate-dotted
 70
   64
  3
-------    -    -    -    ------
 72
   65
 73
    8
 40
12.75
 49
6
 49
-1.5
 49
0.25
 49
-1.5
 49
0.25
 49
-1.5
 49
0.25
 49
-1.5
  0
LTYPE
  2
double-dashed_triplicate-dotted
 70
   64
  3
-----  ---------  -  -  -  -----
 72
   65
 73
   10
 40
20.25
 49
6
 49
-1.5
 49
6
 49
-1.5
 49
0.25
 49
-1.5
 49
0.25
 49
-1.5
 49
0.25
 49
-1.5
  0
LTYPE
  2
undefined
 70
   64
  3
--------------------------------
 72
   65
 73
    0
 40
0
  0
ENDTAB
  0
TABLE
  2
STYLE
  5
3
100
AcDbSymbolTable
 70
     1
  0
STYLE
  5
10
100
AcDbSymbolTableRecord
100
AcDbTextStyleTableRecord
  2
STANDARD
 70
     0
 40
0.0
 41
1.0
 50
0.0
 71
     0
 42
0.2
  3
txt
  4
bigfont.shx
  0
STYLE
  5
26
100
AcDbSymbolTableRecord
100
AcDbTextStyleTableRecord
  2
TATEGAKI
 70
    68
 40
0.0
 41
1.0
 50
0.0
 71
     0
 42
1.0
  3
txt
  4
bigfont.shx
  0
ENDTAB
  0
TABLE
  2
LAYER
 70
    7
  0
LAYER
  2
_0-0_
 70
   64
 62
    7
  6
CONTINUOUS
  0
LAYER
  2
_0-1_
 70
   64
 62
    7
  6
CONTINUOUS
  0
LAYER
  2
_1-0_
 70
   64
 62
    7
  6
CONTINUOUS
  0
LAYER
  2
_1-1_
 70
   64
 62
    7
  6
CONTINUOUS
  0
LAYER
  2
_1-2_
 70
   64
 62
    7
  6
CONTINUOUS
  0
LAYER
  2
_1-4_
 70
   64
 62
    7
  6
CONTINUOUS
  0
LAYER
  2
ADD_LINE
 70
   64
 62
    7
  6
CONTINUOUS
  0
ENDTAB
  0
ENDSEC
  0
SECTION
  2
BLOCKS
  0
ENDSEC
  0
SECTION
  2
ENTITIES
  0
LINE
  8
_1-0_
  6
CONTINUOUS
 62
    7
 10
122.13233741554055
 20
120.11152112806167
 11
367.47137121252115
 21
230.51409747149495
  0
LINE
  8
_1-0_
  6
CONTINUOUS
 62
    7
 10
127.05671155774917
 20
109.16845785604941
 11
372.39574535472974
 21
219.57104657147383
  0
LINE
  8
_1-0_
  6
CONTINUOUS
 62
    7
 10
128.698165481155
 20
105.52077422270904
 11
374.03723639410896
 21
215.92336293813347
  0
LINE
  8
_1-0_
  6
CONTINUOUS
 62
    7
 10
129.19060784417229
 20
104.42647160710516
 11
374.5296911291174
 21
214.82906032252959
  0
LINE
  8
_1-0_
  6
CONTINUOUS
 62
    7
 10
128.698165481155
 20
105.52077422270904
 11
127.73728241791596
 21
105.08837313265414
  0
LINE
  8
_1-0_
  6
CONTINUOUS
 62
    7
 10
127.73728241791596
 20
105.08837313265414
 11
128.22972478093328
 21
103.99407051705026
  0
LINE
  8
_1-0_
  6
CONTINUOUS
 62
    7
 10
129.19060784417229
 20
104.42647160710516
 11
128.22972478093328
 21
103.99407051705026
  0
LINE
  8
_1-0_
  6
CONTINUOUS
 62
    7
 10
130.91414992873734
 20
100.59640626649599
 11
126.53692709433066
 21
98.626655372413438
  0
LINE
  8
_1-0_
  6
CONTINUOUS
 62
    7
 10
129.19062021616344
 20
104.42647160710516
 11
130.91414992873734
 21
100.59640626649599
  0
LINE
  8
_1-0_
  6
CONTINUOUS
 62
    7
 10
117.755126953125
 20
118.14177641997468
 11
126.53692709433066
 21
98.626655372413438
  0
LINE
  8
_1-0_
  6
CONTINUOUS
 62
    7
 10
122.13233741554055
 20
120.11152112806167
 11
128.69817785314612
 21
105.52077422270904
  0
LINE
  8
_1-0_
  6
CONTINUOUS
 62
    7
 10
122.13233741554055
 20
120.11152112806167
 11
115.01935804212417
 21
116.91067669842695
  0
LINE
  8
_1-0_
  6
CONTINUOUS
 62
    7
 10
130.44908678209461
 20
126.48586788692991
 11
366.48648648648651
 21
232.70270270270271
  0
LINE
  8
_1-0_
  6
CONTINUOUS
 62
    7
 10
128.69817785314612
 20
105.52077422270904
 11
127.0567239297403
 21
109.16845785604941
  0
LINE
  8
_1-0_
  6
CONTINUOUS
 62
    7
 10
127.0567239297403
 20
109.16845785604941
 11
134.35209119642104
 21
112.4513780748522
  0
LINE
  8
_1-0_
  6
CONTINUOUS
 62
    7
 10
134.35209119642104
 20
112.4513780748522
 11
135.993557491818
 21
108.80369444151184
  0
LINE
  8
_1-0_
  6
CONTINUOUS
 62
    7
 10
135.993557491818
 20
108.80369444151184
 11
128.69817785314612
 21
105.52077422270904
  0
LINE
  8
_1-0_
  6
CONTINUOUS
 62
    7
 10
183.41344472524284
 20
130.14265730574326
 11
181.77199080183701
 21
133.79034093908362
  0
LINE
  8
_1-0_
  6
CONTINUOUS
 62
    7
 10
181.77199080183701
 20
133.79034093908362
 11
189.06735806851773
 21
137.07326115788641
  0
LINE
  8
_1-0_
  6
CONTINUOUS
 62
    7
 10
189.06735806851773
 20
137.07326115788641
 11
190.70882436391472
 21
133.42557752454604
  0
LINE
  8
_1-0_
  6
CONTINUOUS
 62
    7
 10
190.70882436391472
 20
133.42557752454604
 11
183.41344472524284
 21
130.14265730574326
  0
LINE
  8
_1-0_
  6
CONTINUOUS
 62
    7
 10
238.12876108530406
 20
154.76454038877745
 11
236.48729478990711
 21
158.41222402211784
  0
LINE
  8
_1-0_
  6
CONTINUOUS
 62
    7
 10
236.48729478990711
 20
158.41222402211784
 11
243.78266205658784
 21
161.69514424092063
  0
LINE
  8
_1-0_
  6
CONTINUOUS
 62
    7
 10
243.78266205658784
 20
161.69514424092063
 11
245.42412835198482
 21
158.04746060758023
  0
LINE
  8
_1-0_
  6
CONTINUOUS
 62
    7
 10
245.42412835198482
 20
158.04746060758023
 11
238.12876108530406
 21
154.76454038877745
  0
LINE
  8
_1-0_
  6
CONTINUOUS
 62
    7
 10
292.84404032939193
 20
179.38642347181167
 11
291.20257403399495
 21
183.03410710515203
  0
LINE
  8
_1-0_
  6
CONTINUOUS
 62
    7
 10
291.20257403399495
 20
183.03410710515203
 11
298.49794130067568
 21
186.31702732395482
  0
LINE
  8
_1-0_
  6
CONTINUOUS
 62
    7
 10
298.49794130067568
 20
186.31702732395482
 11
300.13940759607266
 21
182.66934369061445
  0
LINE
  8
_1-0_
  6
CONTINUOUS
 62
    7
 10
300.13940759607266
 20
182.66934369061445
 11
292.84404032939193
 21
179.38642347181167
  0
LINE
  8
_1-0_
  6
CONTINUOUS
 62
    7
 10
134.35209119642104
 20
112.4513780748522
 11
128.698165481155
 21
105.52077422270904
  0
LINE
  8
_1-0_
  6
CONTINUOUS
 62
    7
 10
189.06735806851773
 20
137.07324878589529
 11
183.41345709723396
 21
130.14266967773437
  0
LINE
  8
_1-0_
  6
CONTINUOUS
 62
    7
 10
243.78266205658784
 20
161.69514424092063
 11
238.1287363413218
 21
154.76456513275971
  0
LINE
  8
_1-0_
  6
CONTINUOUS
 62
    7
 10
298.49794130067568
 20
186.31702732395482
 11
292.84401558540964
 21
179.38646058778505
  0
LINE
  8
_1-0_
  6
CONTINUOUS
 62
    7
 10
128.24544958166175
 20
99.395488017314193
 11
130.45862558725719
 21
101.60867639490077
  0
LINE
  8
_1-0_
  6
CONTINUOUS
 62
    7
 10
126.30188400680954
 20
99.148976094013946
 11
129.93196229676943
 21
102.77905438397383
  0
LINE
  8
_1-0_
  6
CONTINUOUS
 62
    7
 10
125.77520834433066
 20
100.31936645507812
 11
129.40528663429055
 21
103.94944474503801
  0
LINE
  8
_1-0_
  6
CONTINUOUS
 62
    7
 10
125.24853268185178
 20
101.48975063014676
 11
128.08173102301521
 21
104.32294278531462
  0
LINE
  8
_1-0_
  6
CONTINUOUS
 62
    7
 10
124.72185701937289
 20
102.66013480521538
 11
128.35193530933279
 21
106.29020072318413
  0
LINE
  8
_1-0_
  6
CONTINUOUS
 62
    7
 10
124.19519372888514
 20
103.83051279428844
 11
127.82525964685389
 21
107.46059108424832
  0
LINE
  8
_1-0_
  6
CONTINUOUS
 62
    7
 10
123.66851806640625
 20
105.0008907833615
 11
127.29859635636613
 21
108.63096907332138
  0
LINE
  8
_1-0_
  6
CONTINUOUS
 62
    7
 10
123.14184240392737
 20
106.17128114442568
 11
126.77192069388725
 21
109.80134706239443
  0
LINE
  8
_1-0_
  6
CONTINUOUS
 62
    7
 10
122.61517911343962
 20
107.34165913349874
 11
126.24524503140837
 21
110.97172505146749
  0
LINE
  8
_1-0_
  6
CONTINUOUS
 62
    7
 10
122.08850345096073
 20
108.51204949456293
 11
125.71856936892948
 21
112.14211541253168
  0
LINE
  8
_1-0_
  6
CONTINUOUS
 62
    7
 10
121.56182778848185
 20
109.68242748363599
 11
125.1918937064506
 21
113.31249340160474
  0
LINE
  8
_1-0_
  6
CONTINUOUS
 62
    7
 10
121.03515212600296
 20
110.85281784470017
 11
124.66523041596284
 21
114.48288376266892
  0
LINE
  8
_1-0_
  6
CONTINUOUS
 62
    7
 10
120.50848883551521
 20
112.02319583377323
 11
124.13855475348396
 21
115.65326175174198
  0
LINE
  8
_1-0_
  6
CONTINUOUS
 62
    7
 10
119.98181317303633
 20
113.19357382284629
 11
123.61187909100508
 21
116.82363974081504
  0
LINE
  8
_1-0_
  6
CONTINUOUS
 62
    7
 10
119.45513751055744
 20
114.36396418391048
 11
123.08520342852619
 21
117.99403010187923
  0
LINE
  8
_1-0_
  6
CONTINUOUS
 62
    7
 10
118.92847422006969
 20
115.53435454497468
 11
122.55854013803844
 21
119.16442046294343
  0
LINE
  8
_1-0_
  6
CONTINUOUS
 62
    7
 10
118.40179855759079
 20
116.70473253404772
 11
121.5436904494827
 21
119.84663679793076
  0
LINE
  8
_1-0_
  6
CONTINUOUS
 62
    7
 10
117.87512289511191
 20
117.87512289511191
 11
118.45814060520482
 21
118.45812823321369
  0
LINE
  8
_1-0_
  6
CONTINUOUS
 62
    7
 10
129.71042942356419
 20
128.12732181033573
 11
129.95664441907729
 21
127.58017050253379
  0
LINE
  8
_1-1_
  6
CONTINUOUS
 62
    7
 10
156.33850510055956
 20
140.10995400918497
 11
155.10740537901182
 21
142.84572292018581
  0
LINE
  8
_1-1_
  6
CONTINUOUS
 62
    7
 10
155.10740537901182
 20
142.84572292018581
 11
159.48464058540964
 21
144.81548000026393
  0
LINE
  8
_1-1_
  6
CONTINUOUS
 62
    7
 10
159.48464058540964
 20
144.81548000026393
 11
160.71574030695734
 21
142.0797110892631
  0
LINE
  8
_1-1_
  6
CONTINUOUS
 62
    7
 10
160.71574030695734
 20
142.0797110892631
 11
156.33850510055956
 21
140.10995400918497
  0
LINE
  8
_1-1_
  6
CONTINUOUS
 62
    7
 10
156.33850510055956
 20
140.10995400918497
 11
159.48464058540964
 21
144.81548000026393
  0
LINE
  8
_1-1_
  6
CONTINUOUS
 62
    7
 10
207.40611308329815
 20
163.09038316881336
 11
206.17501336175044
 21
165.82615207981419
  0
LINE
  8
_1-1_
  6
CONTINUOUS
 62
    7
 10
206.17501336175044
 20
165.82615207981419
 11
210.55226094013938
 21
167.79590915989232
  0
LINE
  8
_1-1_
  6
CONTINUOUS
 62
    7
 10
210.55226094013938
 20
167.79590915989232
 11
211.78334828969597
 21
165.06014024889149
  0
LINE
  8
_1-1_
  6
CONTINUOUS
 62
    7
 10
211.78334828969597
 20
165.06014024889149
 11
207.40611308329815
 21
163.09038316881336
  0
LINE
  8
_1-1_
  6
CONTINUOUS
 62
    7
 10
207.40611308329815
 20
163.09038316881336
 11
210.55226094013938
 21
167.79590915989232
  0
LINE
  8
_1-1_
  6
CONTINUOUS
 62
    7
 10
258.47370869404563
 20
186.0707999564506
 11
257.24262134448901
 21
188.80656886745146
  0
LINE
  8
_1-1_
  6
CONTINUOUS
 62
    7
 10
257.24262134448901
 20
188.80656886745146
 11
261.61985655088682
 21
190.77632594752959
  0
LINE
  8
_1-1_
  6
CONTINUOUS
 62
    7
 10
261.61985655088682
 20
190.77632594752959
 11
262.85094390044344
 21
188.04055703652872
  0
LINE
  8
_1-1_
  6
CONTINUOUS
 62
    7
 10
262.85094390044344
 20
188.04055703652872
 11
258.47370869404563
 21
186.0707999564506
  0
LINE
  8
_1-1_
  6
CONTINUOUS
 62
    7
 10
258.47370869404563
 20
186.0707999564506
 11
261.61985655088682
 21
190.77632594752959
  0
LINE
  8
_1-1_
  6
CONTINUOUS
 62
    7
 10
309.54130430479307
 20
209.0512414880701
 11
308.31021695523651
 21
211.78701039907097
  0
LINE
  8
_1-1_
  6
CONTINUOUS
 62
    7
 10
308.31021695523651
 20
211.78701039907097
 11
312.68745216163433
 21
213.75675510715794
  0
LINE
  8
_1-1_
  6
CONTINUOUS
 62
    7
 10
312.68745216163433
 20
213.75675510715794
 11
313.91853951119089
 21
211.02098619615711
  0
LINE
  8
_1-1_
  6
CONTINUOUS
 62
    7
 10
313.91853951119089
 20
211.02098619615711
 11
309.54130430479307
 21
209.0512414880701
  0
LINE
  8
_1-1_
  6
CONTINUOUS
 62
    7
 10
309.54130430479307
 20
209.0512414880701
 11
312.68745216163433
 21
213.75675510715794
  0
LINE
  8
_1-1_
  6
CONTINUOUS
 62
    7
 10
360.60889991554058
 20
232.03167064769849
 11
359.37781256598396
 21
234.76743955869935
  0
LINE
  8
_1-1_
  6
CONTINUOUS
 62
    7
 10
359.37781256598396
 20
234.76743955869935
 11
363.75504777238177
 21
236.73718426678633
  0
LINE
  8
_1-1_
  6
CONTINUOUS
 62
    7
 10
363.75504777238177
 20
236.73718426678633
 11
364.98613512193839
 21
234.0014153557855
  0
LINE
  8
_1-1_
  6
CONTINUOUS
 62
    7
 10
364.98613512193839
 20
234.0014153557855
 11
360.60889991554058
 21
232.03167064769849
  0
LINE
  8
_1-1_
  6
CONTINUOUS
 62
    7
 10
360.60889991554058
 20
232.03167064769849
 11
363.75504777238177
 21
236.73718426678633
  0
LINE
  8
_1-2_
  6
CONTINUOUS
 62
    3
 10
335.66486255542657
 20
63.77838134765625
 11
337.06485232791385
 21
63.77838134765625
  0
LINE
  8
_1-2_
  6
CONTINUOUS
 62
    3
 10
334.06486717430323
 20
63.178364521748307
 11
335.34128549936656
 21
63.178364521748307
  0
LINE
  8
_1-2_
  6
CONTINUOUS
 62
    3
 10
335.66486255542657
 20
63.77838134765625
 11
335.34128549936656
 21
63.178364521748307
  0
LINE
  8
_1-2_
  6
CONTINUOUS
 62
    3
 10
334.06486717430323
 20
63.178364521748307
 11
333.06486387510557
 21
61.37838827597129
  0
LINE
  8
_1-2_
  6
CONTINUOUS
 62
    3
 10
336.66484111064193
 20
61.77837474926099
 11
337.06485232791385
 21
61.77837474926099
  0
LINE
  8
_1-2_
  6
CONTINUOUS
 62
    7
 10
337.06485232791385
 20
63.77838134765625
 11
337.06485232791385
 21
61.77837474926099
  0
LINE
  8
_1-2_
  6
CONTINUOUS
 62
    3
 10
336.66484111064193
 20
61.77837474926099
 11
336.66484111064193
 21
58.378378378378386
  0
LINE
  8
_1-2_
  6
CONTINUOUS
 62
    7
 10
334.8648648648649
 20
58.378378378378386
 11
335.46485694679058
 21
55.978385306693411
  0
LINE
  8
_1-2_
  6
CONTINUOUS
 62
    7
 10
335.46485694679058
 20
55.978385306693411
 11
337.06485232791385
 21
55.978385306693411
  0
LINE
  8
_1-2_
  6
CONTINUOUS
 62
    3
 10
267.06484407991979
 20
55.378368480785468
 11
267.6726057722762
 21
60.378384976773646
  0
LINE
  8
_1-2_
  6
CONTINUOUS
 62
    3
 10
271.06483253272808
 20
61.37838827597129
 11
333.06486387510557
 21
61.37838827597129
  0
LINE
  8
_1-2_
  6
CONTINUOUS
 62
    3
 10
267.06484407991979
 20
55.378368480785468
 11
268.66483946104307
 21
55.53314208984375
  0
LINE
  8
_1-2_
  6
CONTINUOUS
 62
    3
 10
269.59108094911318
 20
57.762104756123307
 11
268.66483946104307
 21
55.53314208984375
  0
LINE
  8
_1-2_
  6
CONTINUOUS
 62
    3
 10
337.06485232791385
 20
63.77838134765625
 11
337.06485232791385
 21
61.77837474926099
  0
LINE
  8
_1-2_
  6
CONTINUOUS
 62
    7
 10
337.06485232791385
 20
61.77837474926099
 11
337.06485232791385
 21
55.978385306693411
  0
LINE
  8
ADD_LINE
  6
DOT
 62
    4
 10
110.46250626847551
 20
125.97405098580026
 11
112.26865613782729
 21
126.78681657120988
  0
LINE
  8
ADD_LINE
  6
DOT
 62
    4
 10
110.86029052734375
 20
126.15306132548565
 11
159.48464058540964
 21
144.81548000026393
  0
LINE
  8
_1-2_
  6
CONTINUOUS
 62
    3
 10
158.29657064901818
 20
150.14357695708404
 11
159.60359728014149
 21
150.64522408150339
  0
LINE
  8
_1-2_
  6
CONTINUOUS
 62
    3
 10
157.01782638962206
 20
149.01009224556589
 11
158.20948420344172
 21
149.46746001372466
  0
LINE
  8
_1-2_
  6
CONTINUOUS
 62
    3
 10
158.29657064901818
 20
150.14357695708404
 11
158.20948420344172
 21
149.46746001372466
  0
LINE
  8
_1-2_
  6
CONTINUOUS
 62
    3
 10
157.01782638962206
 20
149.01009224556589
 11
156.72918783651818
 21
146.9713118269637
  0
LINE
  8
_1-2_
  6
CONTINUOUS
 62
    3
 10
159.94679631413641
 20
148.634688918655
 11
160.32024486644849
 21
148.77803080790753
  0
LINE
  8
_1-2_
  6
CONTINUOUS
 62
    7
 10
159.60359728014149
 20
150.64522408150339
 11
160.32024486644849
 21
148.77803080790753
  0
LINE
  8
_1-2_
  6
CONTINUOUS
 62
    3
 10
159.94679631413641
 20
148.634688918655
 11
161.16509102486276
 21
145.46046901393581
  0
LINE
  8
_1-2_
  6
CONTINUOUS
 62
    7
 10
159.48464058540964
 20
144.81549237225508
 11
160.90475958746833
 21
142.78985100823479
  0
LINE
  8
_1-2_
  6
CONTINUOUS
 62
    7
 10
160.90475958746833
 20
142.78985100823479
 11
162.39851668074326
 21
143.36316907728042
  0
LINE
  8
_1-2_
  6
CONTINUOUS
 62
    3
 10
98.846091193121836
 20
124.75531088339316
 11
156.72918783651818
 21
146.9713118269637
  0
LINE
  8
_1-2_
  6
CONTINUOUS
 62
    3
 10
97.261653590846706
 20
117.72042351800043
 11
98.699947047877956
 21
118.43823407147383
  0
LINE
  8
_1-2_
  6
CONTINUOUS
 62
    3
 10
99.407297082849453
 20
121.75731762035474
 11
161.16509102486276
 21
145.46046901393581
  0
LINE
  8
_1-2_
  6
CONTINUOUS
 62
    3
 10
98.765994922534844
 20
120.85108164194469
 11
98.699947047877956
 21
118.43823407147383
  0
LINE
  8
_1-2_
  6
CONTINUOUS
 62
    3
 10
159.60359728014149
 20
150.64522408150339
 11
160.32024486644849
 21
148.77803080790753
  0
LINE
  8
_1-2_
  6
CONTINUOUS
 62
    7
 10
160.32024486644849
 20
148.77803080790753
 11
162.39851668074326
 21
143.36316907728042
  0
LINE
  8
ADD_LINE
  6
DOT
 62
    4
 10
159.38434085330448
 20
150.7737566973712
 11
159.7880389239337
 21
150.92870351430534
  0
LINE
  8
ADD_LINE
  6
DOT
 62
    4
 10
159.53244595914273
 20
150.83060599662164
 11
210.55226094013938
 21
167.79590915989232
  0
LINE
  8
_1-2_
  6
CONTINUOUS
 62
    3
 10
209.60746146537164
 20
173.17246720597552
 11
210.93594112911742
 21
173.61422152132602
  0
LINE
  8
_1-2_
  6
CONTINUOUS
 62
    3
 10
208.2785364099451
 20
172.09825670396961
 11
209.48975434174409
 21
172.50101450327281
  0
LINE
  8
_1-2_
  6
CONTINUOUS
 62
    3
 10
209.60746146537164
 20
173.17246720597552
 11
209.48975434174409
 21
172.50101450327281
  0
LINE
  8
_1-2_
  6
CONTINUOUS
 62
    3
 10
208.2785364099451
 20
172.09825670396961
 11
207.89757805901607
 21
170.07469383445948
  0
LINE
  8
_1-2_
  6
CONTINUOUS
 62
    3
 10
211.18743896484375
 20
171.59016377217063
 11
211.56701165276607
 21
171.7163828256968
  0
LINE
  8
_1-2_
  6
CONTINUOUS
 62
    7
 10
210.93594112911742
 20
173.61422152132602
 11
211.56701165276607
 21
171.7163828256968
  0
LINE
  8
_1-2_
  6
CONTINUOUS
 62
    3
 10
211.18743896484375
 20
171.59016377217063
 11
212.26026380384292
 21
168.36387015677789
  0
LINE
  8
_1-2_
  6
CONTINUOUS
 62
    7
 10
210.55223619615711
 20
167.79590915989232
 11
211.87886006123313
 21
165.7078387286212
  0
LINE
  8
_1-2_
  6
CONTINUOUS
 62
    7
 10
211.87886006123313
 20
165.7078387286212
 11
213.39712606894005
 21
166.21270257073482
  0
LINE
  8
_1-2_
  6
CONTINUOUS
 62
    3
 10
147.16249620592274
 20
143.55577623521961
 11
146.16151551942568
 21
148.4921388368349
  0
LINE
  8
_1-2_
  6
CONTINUOUS
 62
    3
 10
149.0649125382707
 20
150.51142099741344
 11
207.89757805901607
 21
170.07469383445948
  0
LINE
  8
_1-2_
  6
CONTINUOUS
 62
    3
 10
147.16249620592274
 20
143.55577623521961
 11
148.63191759264149
 21
144.20750798405828
  0
LINE
  8
_1-2_
  6
CONTINUOUS
 62
    3
 10
149.48933369404563
 20
147.49103443042654
 11
212.26026380384292
 21
168.36387015677789
  0
LINE
  8
_1-2_
  6
CONTINUOUS
 62
    3
 10
148.80751326277451
 20
146.61486239046664
 11
148.63191759264149
 21
144.20750798405828
  0
LINE
  8
_1-2_
  6
CONTINUOUS
 62
    3
 10
210.93594112911742
 20
173.61422152132602
 11
211.56701165276607
 21
171.7163828256968
  0
LINE
  8
_1-2_
  6
CONTINUOUS
 62
    7
 10
211.56701165276607
 20
171.7163828256968
 11
213.39712606894005
 21
166.21270257073482
  0
LINE
  8
ADD_LINE
  6
DOT
 62
    4
 10
210.44838570259714
 20
174.08440667229732
 11
211.1241438582137
 21
174.30910677523227
  0
LINE
  8
ADD_LINE
  6
DOT
 62
    4
 10
210.74662492081927
 20
174.18356818121833
 11
261.61985655088682
 21
190.77632594752959
  0
LINE
  8
_1-2_
  6
CONTINUOUS
 62
    3
 10
260.70598705394849
 20
196.15822869378169
 11
262.03696585990286
 21
196.59233711861276
  0
LINE
  8
_1-2_
  6
CONTINUOUS
 62
    3
 10
259.37090074693833
 20
195.09165171030406
 11
260.58439512510557
 21
195.48744407860011
  0
LINE
  8
_1-2_
  6
CONTINUOUS
 62
    3
 10
260.70598705394849
 20
196.15822869378169
 11
260.58439512510557
 21
195.48744407860011
  0
LINE
  8
_1-2_
  6
CONTINUOUS
 62
    3
 10
259.37090074693833
 20
195.09165171030406
 11
258.97833746832771
 21
193.07031579919766
  0
LINE
  8
_1-2_
  6
CONTINUOUS
 62
    3
 10
262.27683402396536
 20
194.56688133445948
 11
262.65712428737334
 21
194.69091054555534
  0
LINE
  8
_1-2_
  6
CONTINUOUS
 62
    7
 10
262.03696585990286
 20
196.59233711861276
 11
262.65712428737334
 21
194.69091054555534
  0
LINE
  8
_1-2_
  6
CONTINUOUS
 62
    3
 10
262.27683402396536
 20
194.56688133445948
 11
263.33110087626693
 21
191.33446358345651
  0
LINE
  8
_1-2_
  6
CONTINUOUS
 62
    7
 10
261.61985655088682
 20
190.77632594752959
 11
262.93447958456505
 21
188.68067148569469
  0
LINE
  8
_1-2_
  6
CONTINUOUS
 62
    7
 10
262.93447958456505
 20
188.68067148569469
 11
264.45559115023229
 21
189.17680070206927
  0
LINE
  8
_1-2_
  6
CONTINUOUS
 62
    3
 10
198.09197090767526
 20
166.90059764965162
 11
197.11935919684333
 21
171.84261425121412
  0
LINE
  8
_1-2_
  6
CONTINUOUS
 62
    3
 10
200.03429928341427
 20
173.84519422376479
 11
258.97833746832771
 21
193.07031579919766
  0
LINE
  8
_1-2_
  6
CONTINUOUS
 62
    3
 10
198.09197090767526
 20
166.90059764965162
 11
199.56511626372466
 21
167.54386695655617
  0
LINE
  8
_1-2_
  6
CONTINUOUS
 62
    3
 10
200.44136253563136
 20
170.82241986248945
 11
263.33110087626693
 21
191.33446358345651
  0
LINE
  8
_1-2_
  6
CONTINUOUS
 62
    3
 10
199.75453144795188
 20
169.95018211570948
 11
199.56511626372466
 21
167.54386695655617
  0
LINE
  8
_1-2_
  6
CONTINUOUS
 62
    3
 10
262.03696585990286
 20
196.59233711861276
 11
262.65712428737334
 21
194.69091054555534
  0
LINE
  8
_1-2_
  6
CONTINUOUS
 62
    7
 10
262.65712428737334
 20
194.69091054555534
 11
264.45559115023229
 21
189.17680070206927
  0
LINE
  8
_1-2_
  6
CONTINUOUS
 62
    3
 10
311.77358266469594
 20
219.13864548141893
 11
313.10456147065037
 21
219.57277865023227
  0
LINE
  8
_1-2_
  6
CONTINUOUS
 62
    3
 10
310.43849635768584
 20
218.07208086993245
 11
311.65199073585308
 21
218.46788561021961
  0
LINE
  8
_1-2_
  6
CONTINUOUS
 62
    3
 10
311.77358266469594
 20
219.13864548141893
 11
311.65199073585308
 21
218.46788561021961
  0
LINE
  8
_1-2_
  6
CONTINUOUS
 62
    3
 10
310.43849635768584
 20
218.07208086993245
 11
310.04593307907521
 21
216.05074495882602
  0
LINE
  8
_1-2_
  6
CONTINUOUS
 62
    3
 10
313.34442963471287
 20
217.54731049408784
 11
313.72471989812078
 21
217.67135207717484
  0
LINE
  8
_1-2_
  6
CONTINUOUS
 62
    7
 10
313.10456147065037
 20
219.57277865023227
 11
313.72471989812078
 21
217.67135207717484
  0
LINE
  8
_1-2_
  6
CONTINUOUS
 62
    3
 10
313.34442963471287
 20
217.54731049408784
 11
314.39869648701438
 21
214.31490511507602
  0
LINE
  8
_1-2_
  6
CONTINUOUS
 62
    7
 10
312.68745216163433
 20
213.75675510715794
 11
314.0020751953125
 21
211.66111301731419
  0
LINE
  8
_1-2_
  6
CONTINUOUS
 62
    7
 10
314.0020751953125
 20
211.66111301731419
 11
315.52318676097974
 21
212.15722986169766
  0
LINE
  8
_1-2_
  6
CONTINUOUS
 62
    3
 10
249.15957889041385
 20
189.88102680928
 11
248.18694243559969
 21
194.8230434108425
  0
LINE
  8
_1-2_
  6
CONTINUOUS
 62
    3
 10
251.10188252217063
 20
196.82562338339318
 11
310.04593307907521
 21
216.05074495882602
  0
LINE
  8
_1-2_
  6
CONTINUOUS
 62
    3
 10
249.15957889041385
 20
189.88102680928
 11
250.63271187447214
 21
190.52429611618456
  0
LINE
  8
_1-2_
  6
CONTINUOUS
 62
    3
 10
251.50897051836995
 20
193.80284902211784
 11
314.39869648701438
 21
214.31490511507602
  0
LINE
  8
_1-2_
  6
CONTINUOUS
 62
    3
 10
250.82212705869935
 20
192.93061127533784
 11
250.63271187447214
 21
190.52429611618456
  0
LINE
  8
_1-2_
  6
CONTINUOUS
 62
    3
 10
313.10456147065037
 20
219.57277865023227
 11
313.72471989812078
 21
217.67135207717484
  0
LINE
  8
_1-2_
  6
CONTINUOUS
 62
    7
 10
313.72471989812078
 20
217.67135207717484
 11
315.52318676097974
 21
212.15722986169766
  0
LINE
  8
_1-2_
  6
CONTINUOUS
 62
    3
 10
362.84117827544344
 20
242.11907464104732
 11
364.17215708139781
 21
242.55320780986065
  0
LINE
  8
_1-2_
  6
CONTINUOUS
 62
    3
 10
361.50609196843328
 20
241.05251002956084
 11
362.71958634660052
 21
241.448314769848
  0
LINE
  8
_1-2_
  6
CONTINUOUS
 62
    3
 10
362.84117827544344
 20
242.11907464104732
 11
362.71958634660052
 21
241.448314769848
  0
LINE
  8
_1-2_
  6
CONTINUOUS
 62
    3
 10
361.50609196843328
 20
241.05251002956084
 11
361.11352868982266
 21
239.0311741184544
  0
LINE
  8
_1-2_
  6
CONTINUOUS
 62
    3
 10
364.41202524546031
 20
240.52773965371622
 11
364.79231550886828
 21
240.65178123680323
  0
LINE
  8
_1-2_
  6
CONTINUOUS
 62
    7
 10
364.17215708139781
 20
242.55320780986065
 11
364.79231550886828
 21
240.65178123680323
  0
LINE
  8
_1-2_
  6
CONTINUOUS
 62
    3
 10
364.41202524546031
 20
240.52773965371622
 11
365.46629209776182
 21
237.2953342747044
  0
LINE
  8
_1-2_
  6
CONTINUOUS
 62
    7
 10
363.75504777238177
 20
236.73718426678633
 11
365.06967080606
 21
234.64154217694258
  0
LINE
  8
_1-2_
  6
CONTINUOUS
 62
    7
 10
365.06967080606
 20
234.64154217694258
 11
366.59078237172724
 21
235.13765902132602
  0
LINE
  8
_1-2_
  6
CONTINUOUS
 62
    3
 10
300.22714975717906
 20
212.86144359691724
 11
299.25456279032943
 21
217.80346019847974
  0
LINE
  8
_1-2_
  6
CONTINUOUS
 62
    3
 10
302.16950287690037
 20
219.80606491501268
 11
361.11352868982266
 21
239.0311741184544
  0
LINE
  8
_1-2_
  6
CONTINUOUS
 62
    3
 10
300.22714975717906
 20
212.86144359691724
 11
301.70030748521964
 21
213.50473764780406
  0
LINE
  8
_1-2_
  6
CONTINUOUS
 62
    3
 10
302.57654138513516
 20
216.78326580975508
 11
365.46629209776182
 21
237.2953342747044
  0
LINE
  8
_1-2_
  6
CONTINUOUS
 62
    3
 10
301.88972266944683
 20
215.91104043496622
 11
301.70030748521964
 21
213.50473764780406
  0
LINE
  8
_1-2_
  6
CONTINUOUS
 62
    3
 10
364.17215708139781
 20
242.55320780986065
 11
364.79231550886828
 21
240.65178123680323
  0
LINE
  8
_1-2_
  6
CONTINUOUS
 62
    7
 10
364.79231550886828
 20
240.65178123680323
 11
366.59078237172724
 21
235.13765902132602
  0
LINE
  8
_1-2_
  6
CONTINUOUS
 62
    3
 10
97.261653590846706
 20
117.72042351800043
 11
96.037438882363816
 21
122.60618467588684
  0
LINE
  8
_0-0_
  6
CONTINUOUS
 62
    5
 10
12.432428308435391
 20
278.51351351351354
 11
412.43244892842063
 21
278.51351351351354
  0
LINE
  8
_0-0_
  6
CONTINUOUS
 62
    5
 10
412.43244892842063
 20
8.5135135135135158
 11
12.432428308435391
 21
8.5135135135135158
  0
LINE
  8
_0-0_
  6
CONTINUOUS
 62
    5
 10
412.43244892842063
 20
28.513511451515001
 11
12.432415936444272
 21
28.513511451515001
  0
LINE
  8
_0-0_
  6
CONTINUOUS
 62
    5
 10
377.43248192039698
 20
8.5135135135135158
 11
377.43248192039698
 21
28.513511451515001
  0
LINE
  8
_0-0_
  6
CONTINUOUS
 62
    5
 10
142.70271507469386
 20
28.513511451515001
 11
142.70271507469386
 21
8.5135135135135158
  0
LINE
  8
_0-0_
  6
CONTINUOUS
 62
    5
 10
220.54054054054055
 20
28.513511451515001
 11
220.54054054054055
 21
8.5135135135135158
  0
LINE
  8
_0-0_
  6
CONTINUOUS
 62
    5
 10
142.70271507469386
 20
18.513512482514244
 11
220.54054054054055
 21
18.513512482514244
  0
LINE
  8
_0-0_
  6
CONTINUOUS
 62
    5
 10
402.16218690614443
 20
24.324325870823216
 11
389.59456985061234
 21
11.756758303255651
  0
LINE
  8
_1-4_
  6
CONTINUOUS
 62
    7
 10
76.176341288798568
 20
164.57665520745357
 11
127.31982669314823
 21
187.59123106260557
  0
LINE
  8
_1-4_
  6
CONTINUOUS
 62
    7
 10
88.859395207585521
 20
136.39209644214529
 11
76.176341288798568
 21
164.57665520745357
  0
LINE
  8
_1-4_
  6
CONTINUOUS
 62
    7
 10
140.00288679793076
 20
159.40668466928844
 11
127.31982669314823
 21
187.59124343459672
  0
LINE
  8
_1-4_
  6
CONTINUOUS
 62
    7
 10
127.31982669314823
 20
187.59123106260557
 11
178.42309075432857
 21
210.587719066723
  0
LINE
  8
_1-4_
  6
CONTINUOUS
 62
    7
 10
191.10613848711995
 20
182.40316030141472
 11
178.42309075432857
 21
210.587719066723
  0
LINE
  8
_1-4_
  6
CONTINUOUS
 62
    7
 10
178.42309075432857
 20
210.587719066723
 11
229.49749096019849
 21
233.57121648015203
  0
LINE
  8
_1-4_
  6
CONTINUOUS
 62
    7
 10
242.18056343697214
 20
205.3866700868349
 11
229.49751570418076
 21
233.57121648015203
  0
LINE
  8
_1-4_
  6
CONTINUOUS
 62
    7
 10
229.49749096019849
 20
233.57121648015203
 11
280.56511131492823
 21
256.55164563978042
  0
LINE
  8
_1-4_
  6
CONTINUOUS
 62
    7
 10
293.24815904771964
 20
228.36708687447214
 11
280.56508657094594
 21
256.55164563978042
  0
LINE
  8
_1-4_
  6
CONTINUOUS
 62
    7
 10
82.988167840081303
 20
149.43926424593539
 11
97.452472996067357
 21
155.94820589632602
  0
LINE
  8
_1-4_
  6
CONTINUOUS
 62
    7
 10
88.859395207585521
 20
136.39209644214529
 11
82.988167840081303
 21
149.43926424593539
  0
LINE
  8
_1-4_
  6
CONTINUOUS
 62
    7
 10
103.32370036357159
 20
142.90103809253591
 11
97.452472996067357
 21
155.94820589632602
  0
LINE
  8
_1-4_
  6
CONTINUOUS
 62
    7
 10
97.452472996067357
 20
155.94820589632602
 11
134.13165943042654
 21
172.45384010108742
  0
LINE
  8
_1-4_
  6
CONTINUOUS
 62
    7
 10
140.00288679793076
 20
159.40668466928844
 11
134.13165943042654
 21
172.45385247307857
  0
LINE
  8
_1-4_
  6
CONTINUOUS
 62
    7
 10
208.52864858266472
 20
164.95930852116766
 11
237.15518435916385
 21
86.308569006017734
  0
LINE
  8
_0-1_
  6
CONTINUOUS
 62
    7
 10
237.15518435916385
 20
86.308569006017734
 11
243.24324324324326
 21
86.308569006017734
  0
LINE
  8
_0-1_
  6
CONTINUOUS
 62
    7
 10
226.96402884818414
 20
114.30856240762247
 11
243.24324324324326
 21
114.30856240762247
  0
LINE
  8
_0-1_
  6
CONTINUOUS
 62
    7
 10
229.51181772592906
 20
107.30856405722129
 11
243.24324324324326
 21
107.30856405722129
  0
LINE
  8
_0-1_
  6
CONTINUOUS
 62
    7
 10
232.05960660367401
 20
100.3085657068201
 11
243.24324324324326
 21
100.3085657068201
  0
LINE
  8
_0-1_
  6
CONTINUOUS
 62
    7
 10
234.60739548141893
 20
93.308567356418919
 11
243.24324324324326
 21
93.308567356418919
  0
LINE
  8
_0-1_
  6
CONTINUOUS
 62
    7
 10
233.51351351351352
 20
183.24324324324326
 11
226.02732065561656
 21
203.81141868797511
  0
LINE
  8
_0-1_
  6
CONTINUOUS
 62
    7
 10
226.02732065561656
 20
203.81141868797511
 11
220.54054054054055
 21
203.81141868797511
  0
LINE
  8
_0-1_
  6
CONTINUOUS
 62
    7
 10
124.86486486486487
 20
107.83783783783784
 11
110.27088886982686
 21
67.741222897091433
  0
LINE
  8
_0-1_
  6
CONTINUOUS
 62
    7
 10
110.27088886982686
 20
67.741222897091433
 11
106.21621621621622
 21
67.741222897091433
  0
LINE
  8
_1-4_
  6
CONTINUOUS
 62
    7
 10
267.06484407991979
 20
46.694406045449739
 11
337.06485232791385
 21
46.694406045449739
  0
LINE
  8
_1-4_
  6
CONTINUOUS
 62
    7
 10
267.06484407991979
 20
51.272828385636615
 11
267.06484407991979
 21
46.694406045449739
  0
LINE
  8
_1-4_
  6
CONTINUOUS
 62
    7
 10
337.06485232791385
 20
51.272828385636615
 11
337.06485232791385
 21
46.694406045449739
  0
LINE
  8
_1-4_
  6
CONTINUOUS
 62
    7
 10
346.78126979518584
 20
63.77838134765625
 11
346.78126979518584
 21
55.978385306693411
  0
LINE
  8
_1-4_
  6
CONTINUOUS
 62
    7
 10
340.37148965371625
 20
63.77838134765625
 11
346.78126979518584
 21
63.77838134765625
  0
LINE
  8
_1-4_
  6
CONTINUOUS
 62
    7
 10
340.37148965371625
 20
55.978385306693411
 11
346.78126979518584
 21
55.978385306693411
  0
LINE
  8
_1-2_
  6
CONTINUOUS
 62
    3
 10
270.5145263671875
 20
58.378378378378386
 11
336.66484111064193
 21
58.378378378378386
  0
LINE
  8
_1-0_
  6
CONTINUOUS
 62
    7
 10
130.39302929027662
 20
128.434493606155
 11
365.74782912795609
 21
234.34416899809966
  0
LINE
  8
_1-0_
  6
CONTINUOUS
 62
    7
 10
130.39302929027662
 20
128.434493606155
 11
130.63924428578972
 21
127.88734229835305
  0
LINE
  8
_1-0_
  6
CONTINUOUS
 62
    7
 10
130.63924428578972
 20
127.88734229835305
 11
365.99405649546031
 21
233.79700531830659
  0
LINE
  8
_1-0_
  6
DASHED1
 62
    3
 10
130.51395313159841
 20
127.17300827438767
 11
366.24025911898229
 21
233.24986638249578
  0
LINE
  8
_1-0_
  6
CONTINUOUS
 62
    7
 10
115.01935804212417
 20
116.91067669842695
 11
113.34461109058277
 21
120.63233246674409
  0
LINE
  8
_1-0_
  6
CONTINUOUS
 62
    7
 10
113.34461109058277
 20
120.63233246674409
 11
129.75919981260557
 21
128.018893680057
  0
LINE
  8
_1-0_
  6
CONTINUOUS
 62
    7
 10
131.43394676414695
 20
124.29722553974874
 11
129.75919981260557
 21
128.018893680057
  0
LINE
  8
_1-0_
  6
DASHED1
 62
    3
 10
113.2142226760452
 20
121.06577280405406
 11
129.8861364416174
 21
128.56813585436024
  0
LINE
  8
_1-0_
  6
DASHED1
 62
    3
 10
129.8861364416174
 20
128.56813585436024
 11
130.51395313159841
 21
127.17300827438767
  0
LINE
  8
_1-0_
  6
CONTINUOUS
 62
    7
 10
115.03765621700803
 20
122.05393610773861
 11
120.51127253351986
 21
124.51147131017737
  0
LINE
  8
_1-0_
  6
CONTINUOUS
 62
    7
 10
112.84948400548987
 20
126.91653689822635
 11
120.51127253351986
 21
124.51147131017737
  0
LINE
  8
_1-0_
  6
CONTINUOUS
 62
    7
 10
115.03765621700803
 20
122.05393610773861
 11
118.45998403188345
 21
129.06988195470862
  0
LINE
  8
_1-0_
  6
CONTINUOUS
 62
    7
 10
112.84948400548987
 20
126.91653689822635
 11
115.03765621700803
 21
122.05393610773861
  0
LINE
  8
_1-0_
  6
CONTINUOUS
 62
    7
 10
120.51127253351986
 20
124.51147131017737
 11
118.45998403188345
 21
129.06988195470862
  0
LINE
  8
_1-0_
  6
CONTINUOUS
 62
    7
 10
114.01597718934755
 20
119.14043117213895
 11
115.64915425068624
 21
117.1940818992821
  0
LINE
  8
_1-0_
  6
CONTINUOUS
 62
    7
 10
114.24986968169343
 20
121.03969264674832
 11
116.97579048775339
 21
117.79106758736276
  0
LINE
  8
_1-0_
  6
CONTINUOUS
 62
    7
 10
115.57650591876056
 20
121.63667833482897
 11
118.30242672482053
 21
118.38805327544343
  0
LINE
  8
_1-0_
  6
CONTINUOUS
 62
    7
 10
116.90314215582771
 20
122.23366402290964
 11
119.62906296188767
 21
118.98505133551521
  0
LINE
  8
_1-0_
  6
CONTINUOUS
 62
    7
 10
118.22977839289486
 20
122.83066208298142
 11
120.95569919895482
 21
119.58203702359587
  0
LINE
  8
_1-0_
  6
CONTINUOUS
 62
    7
 10
119.55642700195312
 20
123.42764777106208
 11
122.28233543602197
 21
120.17902271167652
  0
LINE
  8
_1-0_
  6
CONTINUOUS
 62
    7
 10
120.88306323902027
 20
124.02463345914275
 11
123.60897167308912
 21
120.77600839975719
  0
LINE
  8
_1-0_
  6
CONTINUOUS
 62
    7
 10
122.20969947608742
 20
124.6216191472234
 11
124.93562028214738
 21
121.37299408783784
  0
LINE
  8
_1-0_
  6
CONTINUOUS
 62
    7
 10
123.53633571315457
 20
125.21860483530406
 11
126.26225651921453
 21
121.9699797759185
  0
LINE
  8
_1-0_
  6
CONTINUOUS
 62
    7
 10
124.86297195022172
 20
125.81559052338471
 11
127.58889275628168
 21
122.5669778359903
  0
LINE
  8
_1-0_
  6
CONTINUOUS
 62
    7
 10
126.18960818728885
 20
126.41257621146538
 11
128.91552899334883
 21
123.16396352407095
  0
LINE
  8
_1-0_
  6
CONTINUOUS
 62
    7
 10
127.51625679634714
 20
127.00957427153718
 11
130.24216523041596
 21
123.76094921215162
  0
LINE
  8
_1-0_
  6
CONTINUOUS
 62
    7
 10
128.84289303341427
 20
127.60655995961783
 11
131.21908239416175
 21
124.77472253747889
  0
LINE
  8
_1-4_
  6
CONTINUOUS
 62
    7
 10
115.86305360536318
 20
118.67043160103464
 11
104.88631377349029
 21
88.512101044525977
  0
LINE
  8
_1-4_
  6
CONTINUOUS
 62
    7
 10
104.88631377349029
 20
88.512101044525977
 11
101.47355569375529
 21
88.512101044525977
  0
LINE
  8
_1-4_
  6
CONTINUOUS
 62
    7
 10
110.15224147487332
 20
122.91856507997255
 11
101.0332303433805
 21
97.864262348896759
  0
LINE
  8
_1-4_
  6
CONTINUOUS
 62
    7
 10
101.0332303433805
 20
97.864262348896759
 11
96.672474629170196
 21
97.864262348896759
  0
LINE
  8
_1-4_
  6
CONTINUOUS
 62
    7
 10
110.15224147487332
 20
122.91856507997255
 11
115.74762292810389
 21
125.46191241290119
  0
ARC
  8
_1-2_
  6
CONTINUOUS
 62
    3
 10
270.99307498416385
 20
55.368173960092918
 40
6.01062568458351
 50
89.315963745117188
 51
123.53410339355467
  0
ARC
  8
_1-2_
  6
CONTINUOUS
 62
    3
 10
270.5145263671875
 20
57.378375079180756
 40
0.9999999162313101
 50
90
 51
157.43476867675781
  0
ARC
  8
_1-2_
  6
CONTINUOUS
 62
    3
 10
99.765620876002956
 20
120.82372716955237
 40
0.9999999162313101
 50
110.9971923828125
 51
178.43196105957031
  0
ARC
  8
_1-2_
  6
CONTINUOUS
 62
    3
 10
150.89325775971284
 20
144.78560164168076
 40
6.01062568458351
 50
107.70916748046875
 51
141.92730712890625
  0
ARC
  8
_1-2_
  6
CONTINUOUS
 62
    3
 10
149.80486895586995
 20
146.54211508261193
 40
0.9999999162313101
 50
108.39320373535156
 51
175.82797241210937
  0
ARC
  8
_1-2_
  6
CONTINUOUS
 62
    3
 10
201.82973500844597
 20
168.10898239548143
 40
6.01062568458351
 50
107.38015747070314
 51
141.59829711914062
  0
ARC
  8
_1-2_
  6
CONTINUOUS
 62
    3
 10
200.75144174936656
 20
169.87170657596073
 40
0.9999999162313101
 50
108.06419372558594
 51
175.49896240234378
  0
ARC
  8
_1-2_
  6
CONTINUOUS
 62
    3
 10
252.89733061919344
 20
191.08941155510982
 40
6.01062568458351
 50
107.38015747070314
 51
141.59829711914062
  0
ARC
  8
_1-2_
  6
CONTINUOUS
 62
    3
 10
251.81903736011404
 20
192.85213573558912
 40
0.9999999162313101
 50
108.06419372558594
 51
175.49896240234378
  0
ARC
  8
_1-2_
  6
CONTINUOUS
 62
    3
 10
303.96492622994089
 20
214.06984071473818
 40
6.01062568458351
 50
107.38015747070314
 51
141.59829711914062
  0
ARC
  8
_1-2_
  6
CONTINUOUS
 62
    3
 10
302.88663297086151
 20
215.83255252322635
 40
0.9999999162313101
 50
108.06419372558594
 51
175.49896240234378
  0
ARC
  8
_1-2_
  6
CONTINUOUS
 62
    3
 10
100.93269554344384
 20
119.11848325987121
 40
6.01062568458351
 50
110.31315612792969
 51
144.53143310546875
  0
TEXT
  8
_0-0_
 62
    7
 10
147.56756962956609
 20
22.702702702702709
 40
2.5
 41
1
 50
0
  1
図名
  0
TEXT
  8
_0-0_
 62
    7
 10
147.56756962956609
 20
12.972972972972968
 40
2.5
 41
1
 50
0
  1
縮尺
  0
TEXT
  8
_0-0_
 62
    7
 10
382.77784605284
 20
21.243871740392734
 40
2.5
 41
1
 50
0
  1
ＮＯ
  0
TEXT
  8
_0-0_
 62
    7
 10
31.231870393495313
 20
18.589955922719582
 40
2.5
 41
1
 50
0
  1
木造
  0
TEXT
  8
_0-0_
 62
    7
 10
20.270270012520456
 20
22.702702702702709
 40
2.5
 41
1
 50
0
  1
Ｆ形
  0
TEXT
  8
_0-0_
 62
    7
 10
389.99062615471917
 20
16.178650211643514
 40
2.5
 41
1
 50
0
  1
Ｆ
  0
TEXT
  8
_0-0_
 62
    7
 10
402.22790279903927
 20
13.816653071223072
 40
2.5
 41
1
 50
0
  1
1
  0
TEXT
  8
_0-0_
 62
    7
 10
45.397583729511979
 20
13.77361400707349
 40
2.5
 41
1
 50
0
  1
軒先　1
  0
TEXT
  8
_0-0_
 62
    7
 10
171.37221877639359
 20
12.362518826046511
 40
2.5
 41
1
 50
0
  1
1/5
  0
TEXT
  8
_1-4_
 62
    7
 10
99.833047534606649
 20
175.77047368384564
 40
2.5
 41
1
 50
24.227719460851677
  1
280
  0
TEXT
  8
_1-4_
 62
    7
 10
150.95642845336721
 20
198.77599324148923
 40
2.5
 41
1
 50
24.227719460851628
  1
280
  0
TEXT
  8
_1-4_
 62
    7
 10
202.04526908781719
 20
221.76598699198524
 40
2.5
 41
1
 50
24.227891841336668
  1
280
  0
TEXT
  8
_1-4_
 62
    7
 10
253.11626185186239
 20
244.74794796357384
 40
2.5
 41
1
 50
24.227969413213451
  1
280
  0
TEXT
  8
_1-4_
 62
    7
 10
88.875237937567135
 20
152.63674367188372
 40
2.5
 41
1
 50
24.227700068058738
  1
80
  0
TEXT
  8
_1-4_
 62
    7
 10
113.87702666388242
 20
163.88755973351837
 40
2.5
 41
1
 50
24.227719460851652
  1
200
  0
TEXT
  8
_1-4_
 62
    7
 10
300.18983583192568
 20
47.194404602050781
 40
2.5
 41
1
 50
0
  1
350
  0
TEXT
  8
_1-4_
 62
    7
 10
346.28126814558703
 20
58.628386420172617
 40
2.5
 41
1
 50
90
  1
39
  0
TEXT
  8
_0-1_
 62
    7
 10
210.27705424540756
 20
202.11651776288008
 40
2.5
 41
1
 50
0
  1
桟瓦
  0
TEXT
  8
_0-1_
 62
    7
 10
249.72972560573271
 20
112.42017591321792
 40
2.5
 41
1
 50
0
  1
瓦桟
  0
TEXT
  8
_0-1_
 62
    7
 10
249.72972972972974
 20
104.91626636402027
 40
2.5
 41
1
 50
0
  1
流し桟
  0
TEXT
  8
_0-1_
 62
    7
 10
249.7297338537268
 20
97.633048392630911
 40
2.5
 41
1
 50
0
  1
下葺き材
  0
TEXT
  8
_0-1_
 62
    7
 10
249.72972972972974
 20
91.011954642630911
 40
2.5
 41
1
 50
0
  1
野地板
  0
TEXT
  8
_0-1_
 62
    7
 10
249.72972560573271
 20
84.390848520639778
 40
2.5
 41
1
 50
0
  1
垂木
  0
TEXT
  8
_0-1_
 62
    7
 10
264.11144772091427
 20
91.011954642630911
 40
2.5
 41
1
 50
0
  1
耐水合板　ｔ＝12
  0
TEXT
  8
_0-1_
 62
    7
 10
95.040175979201862
 20
66.869987281593126
 40
2.5
 41
1
 50
0
  1
鼻隠　
  0
TEXT
  8
_1-4_
 62
    7
 10
264.11145184491136
 20
84.390848520639778
 40
2.5
 41
1
 50
0
  1
60ｘ60
  0
TEXT
  8
_1-4_
 62
    7
 10
263.03053984770906
 20
112.36890638196792
 40
2.5
 41
1
 50
0
  1
15×21　以上　（防腐処理）
  0
TEXT
  8
_1-4_
 62
    7
 10
295.9712837837838
 20
112.32838811101141
 40
2.5
 41
1
 50
0
  1
※　地域により瓦桟木の大きさは、異なります
  0
TEXT
  8
_1-4_
 62
    7
 10
264.11145184491136
 20
97.633048392630911
 40
2.5
 41
1
 50
0
  1
アスファルトルーフィング９４０
  0
TEXT
  8
_1-4_
 62
    7
 10
93.031719310863608
 20
87.205402271167657
 40
2.5
 41
1
 50
0
  1
広小舞
  0
TEXT
  8
_1-4_
 62
    7
 10
91.458601049474765
 20
96.594852756809544
 40
2.5
 41
1
 50
0
  1
瓦座
  0
POINT
  8
_1-4_
 62
    7
 10
76.176341288798568
 20
164.57665520745357
  0
POINT
  8
_1-4_
 62
    7
 10
127.31982669314823
 20
187.59123106260557
  0
POINT
  8
_1-4_
 62
    7
 10
178.42309075432857
 20
210.587719066723
  0
POINT
  8
_1-4_
 62
    7
 10
229.49749096019849
 20
233.57121648015203
  0
POINT
  8
_1-4_
 62
    7
 10
280.56511131492823
 20
256.55164563978042
  0
POINT
  8
_1-4_
 62
    7
 10
82.988167840081303
 20
149.43926424593539
  0
POINT
  8
_1-4_
 62
    7
 10
97.452472996067357
 20
155.94820589632602
  0
POINT
  8
_1-4_
 62
    7
 10
134.13165943042654
 20
172.45384010108742
  0
POINT
  8
_1-4_
 62
    7
 10
267.06484407991979
 20
46.694406045449739
  0
POINT
  8
_1-4_
 62
    7
 10
337.06485232791385
 20
46.694406045449739
  0
POINT
  8
_1-4_
 62
    7
 10
346.78126979518584
 20
63.77838134765625
  0
POINT
  8
_1-4_
 62
    7
 10
346.78126979518584
 20
55.978385306693411
  0
ENDSEC
  0
EOF
