  0
SECTION
  2
HEADER
  9
$ACADVER
  1
AC1009
  9
$INSBASE
 10
0
 20
0
 30
0
  9
$EXTMIN
 10
0
 20
0
  9
$EXTMAX
 10
420
 20
297
  9
$LIMMIN
 10
0
 20
0
  9
$LIMMAX
 10
420
 20
297
  9
$LTSCALE
 40
1
  0
ENDSEC
  0
SECTION
  2
TABLES
  0
TABLE
  2
LTYPE
 70
     9
  0
LTYPE
  2
CONTINUOUS
 70
    64
  3
実線
 72
    65
 73
     0
 40
0.0
  0
LTYPE
  2
DASHED1
 70
    64
  3
--  --  --  --  --  --  --  --  
 72
    65
 73
     2
 40
2.5
 49
1.25
 49
-1.25
  0
LTYPE
  2
DASHED2
 70
    64
  3
----    ----    ----    ----    
 72
    65
 73
     2
 40
5.0
 49
2.5
 49
-2.5
  0
LTYPE
  2
DASHED3
 70
    64
  3
------  ------  ------  ------  
 72
    65
 73
     2
 40
5.0
 49
3.75
 49
-1.25
  0
LTYPE
  2
CENTER1
 70
    64
  3
----- - ----- - ----- - ----- - 
 72
    65
 73
     4
 40
10.0
 49
6.25
 49
-1.25
 49
1.25
 49
-1.25
  0
LTYPE
  2
CENTER2
 70
    64
  3
----------  --  ----------  --  
 72
    65
 73
     4
 40
20.0
 49
12.5
 49
-2.5
 49
2.5
 49
-2.5
  0
LTYPE
  2
PHANTOM1
 70
    64
  3
--- - - --- - - --- - - --- - - 
 72
    65
 73
     6
 40
10.0
 49
3.25
 49
-1.25
 49
1.25
 49
-1.25
 49
1.25
 49
-1.25
  0
LTYPE
  2
PHANTOM2
 70
    64
  3
--------  -  -  --------  -  -  
 72
    65
 73
     6
 40
20.0
 49
10.0
 49
-2.5
 49
1.25
 49
-2.5
 49
1.25
 49
-2.5
  0
LTYPE
  2
DOT
 70
    64
  3
-   -   -   -   -   -   -   -   
 72
    65
 73
     2
 40
2.5
 49
0.625
 49
-1.875
  0
LTYPE
  2
DUMMY
 70
    64
  3
ダミー
 72
    65
 73
     0
 40
0.0
  0
LTYPE
  2
RAND1
 70
    64
  3
ランダム線1
 72
    65
 73
     4
 40
10.0
 49
1.0
 49
-2.0
 49
3.0
 49
-4.0
  0
LTYPE
  2
RAND2
 70
    64
  3
ランダム線2
 72
    65
 73
     4
 40
14.0
 49
2.0
 49
-3.0
 49
4.0
 49
-5.0
  0
LTYPE
  2
RAND3
 70
    64
  3
ランダム線3
 72
    65
 73
     4
 40
18.0
 49
3.0
 49
-4.0
 49
5.0
 49
-6.0
  0
LTYPE
  2
RAND4
 70
    64
  3
ランダム線4
 72
    65
 73
     4
 40
22.0
 49
4.0
 49
-5.0
 49
6.0
 49
-7.0
  0
LTYPE
  2
RAND5
 70
    64
  3
ランダム線5
 72
    65
 73
     4
 40
26.0
 49
5.0
 49
-6.0
 49
7.0
 49
-8.0
  0
LTYPE
  2
LONG1
 70
    64
  3
----------  --  ----------  --  
 72
    65
 73
     4
 40
40.0
 49
32.5
 49
-2.5
 49
2.5
 49
-2.5
  0
LTYPE
  2
LONG2
 70
    64
  3
--------  -  -  --------  -  -  
 72
    65
 73
     6
 40
40.0
 49
30.0
 49
-2.5
 49
1.25
 49
-2.5
 49
1.25
 49
-2.5
  0
LTYPE
  2
LONG3
 70
    64
  3
+++++++++++++++..+++++++++++++++
 72
    65
 73
     2
 40
40.0
 49
37.5
 49
-2.5
  0
LTYPE
  2
LONG4
 70
    64
  3
+++++++++++++++..+++++++++++++++
 72
    65
 73
     2
 40
80.0
 49
75.0
 49
-5.0
  0
LTYPE
  2
LONG5
 70
    64
  3
----------  --  ----------  --  
 72
    65
 73
     4
 40
60.0
 49
37.5
 49
-7.5
 49
7.5
 49
-7.5
  0
LTYPE
  2
dashed
 70
   64
  3
-------   -------------   ------
 72
   65
 73
    2
 40
7.5
 49
6
 49
-1.5
  0
LTYPE
  2
dashed_spaced
 70
   64
  3
----        --------        ----
 72
   65
 73
    2
 40
12
 49
6
 49
-6
  0
LTYPE
  2
long_dashed_dotted
 70
   64
  3
------------- --- --------------
 72
   65
 73
    4
 40
15.25
 49
12
 49
-1.5
 49
0.25
 49
-1.5
  0
LTYPE
  2
long_dashed_double-dotted
 70
   64
  3
----------- --- --- ------------
 72
   65
 73
    6
 40
17
 49
12
 49
-1.5
 49
0.25
 49
-1.5
 49
0.25
 49
-1.5
  0
LTYPE
  2
long_dashed_triplicate-dotted
 70
   64
  3
--------- --- --- --- ----------
 72
   65
 73
    8
 40
18.75
 49
12
 49
-1.5
 49
0.25
 49
-1.5
 49
0.25
 49
-1.5
 49
0.25
 49
-1.5
  0
LTYPE
  2
dotted
 70
   64
  3
   -       -       -       -    
 72
   65
 73
    2
 40
1.75
 49
0.25
 49
-1.5
  0
LTYPE
  2
chain
 70
   64
  3
-------------- -- --------------
 72
   65
 73
    4
 40
18.5
 49
12
 49
-1.5
 49
3.5
 49
-1.5
  0
LTYPE
  2
chain_double_dash
 70
   64
  3
------------ -- -- -------------
 72
   65
 73
    6
 40
23.5
 49
12
 49
-1.5
 49
3.5
 49
-1.5
 49
3.5
 49
-1.5
  0
LTYPE
  2
dashed_dotted
 70
   64
  3
-----------     -     ----------
 72
   65
 73
    4
 40
9.25
 49
6
 49
-1.5
 49
0.25
 49
-1.5
  0
LTYPE
  2
double-dashed_dotted
 70
   64
  3
------   -----------   -   -----
 72
   65
 73
    6
 40
16.75
 49
6
 49
-1.5
 49
6
 49
-1.5
 49
0.25
 49
-1.5
  0
LTYPE
  2
dashed_double-dotted
 70
   64
  3
---------    -    -    ---------
 72
   65
 73
    6
 40
11
 49
6
 49
-1.5
 49
0.25
 49
-1.5
 49
0.25
 49
-1.5
  0
LTYPE
  2
double-dashed_double-dotted
 70
   64
  3
-----   ---------   -   -   ----
 72
   65
 73
    8
 40
18.5
 49
6
 49
-1.5
 49
6
 49
-1.5
 49
0.25
 49
-1.5
 49
0.25
 49
-1.5
  0
LTYPE
  2
dashed_triplicate-dotted
 70
   64
  3
-------    -    -    -    ------
 72
   65
 73
    8
 40
12.75
 49
6
 49
-1.5
 49
0.25
 49
-1.5
 49
0.25
 49
-1.5
 49
0.25
 49
-1.5
  0
LTYPE
  2
double-dashed_triplicate-dotted
 70
   64
  3
-----  ---------  -  -  -  -----
 72
   65
 73
   10
 40
20.25
 49
6
 49
-1.5
 49
6
 49
-1.5
 49
0.25
 49
-1.5
 49
0.25
 49
-1.5
 49
0.25
 49
-1.5
  0
LTYPE
  2
undefined
 70
   64
  3
--------------------------------
 72
   65
 73
    0
 40
0
  0
ENDTAB
  0
TABLE
  2
STYLE
  5
3
100
AcDbSymbolTable
 70
     1
  0
STYLE
  5
10
100
AcDbSymbolTableRecord
100
AcDbTextStyleTableRecord
  2
STANDARD
 70
     0
 40
0.0
 41
1.0
 50
0.0
 71
     0
 42
0.2
  3
txt
  4
bigfont.shx
  0
STYLE
  5
26
100
AcDbSymbolTableRecord
100
AcDbTextStyleTableRecord
  2
TATEGAKI
 70
    68
 40
0.0
 41
1.0
 50
0.0
 71
     0
 42
1.0
  3
txt
  4
bigfont.shx
  0
ENDTAB
  0
TABLE
  2
LAYER
 70
    9
  0
LAYER
  2
_0-0_
 70
   64
 62
    7
  6
CONTINUOUS
  0
LAYER
  2
_0-1_
 70
   64
 62
    7
  6
CONTINUOUS
  0
LAYER
  2
_1-0_
 70
   64
 62
    7
  6
CONTINUOUS
  0
LAYER
  2
_1-1_
 70
   64
 62
    7
  6
CONTINUOUS
  0
LAYER
  2
_1-2_
 70
   64
 62
    7
  6
CONTINUOUS
  0
LAYER
  2
_1-3_
 70
   64
 62
    7
  6
CONTINUOUS
  0
LAYER
  2
_1-4_
 70
   64
 62
    7
  6
CONTINUOUS
  0
LAYER
  2
_1-5_
 70
   64
 62
    7
  6
CONTINUOUS
  0
LAYER
  2
ADD_LINE
 70
   64
 62
    7
  6
CONTINUOUS
  0
ENDTAB
  0
ENDSEC
  0
SECTION
  2
BLOCKS
  0
ENDSEC
  0
SECTION
  2
ENTITIES
  0
LINE
  8
_1-0_
  6
CONTINUOUS
 62
    7
 10
264.49451343433276
 20
109.87238703547298
 11
262.85307188291807
 21
113.52007066881335
  0
LINE
  8
_1-0_
  6
CONTINUOUS
 62
    7
 10
262.85307188291807
 20
113.52007066881335
 11
270.14843914959886
 21
116.80299088761613
  0
LINE
  8
_1-0_
  6
CONTINUOUS
 62
    7
 10
270.14843914959886
 20
116.80299088761613
 11
271.78990544499578
 21
113.15530725427577
  0
LINE
  8
_1-0_
  6
CONTINUOUS
 62
    7
 10
271.78990544499578
 20
113.15530725427577
 11
264.49451343433276
 21
109.87238703547298
  0
LINE
  8
_1-0_
  6
CONTINUOUS
 62
    7
 10
319.20984216638516
 20
134.49427011850719
 11
317.56837587098818
 21
138.14195375184755
  0
LINE
  8
_1-0_
  6
CONTINUOUS
 62
    7
 10
317.56837587098818
 20
138.14195375184755
 11
324.86374313766896
 21
141.42487397065034
  0
LINE
  8
_1-0_
  6
CONTINUOUS
 62
    7
 10
324.86374313766896
 20
141.42487397065034
 11
326.50520943306589
 21
137.77719033730997
  0
LINE
  8
_1-0_
  6
CONTINUOUS
 62
    7
 10
326.50520943306589
 20
137.77719033730997
 11
319.20984216638516
 21
134.49427011850719
  0
LINE
  8
_1-0_
  6
CONTINUOUS
 62
    7
 10
373.92512141047297
 20
159.11615320154138
 11
372.28365511507604
 21
162.76383683488177
  0
LINE
  8
_1-0_
  6
CONTINUOUS
 62
    7
 10
372.28365511507604
 20
162.76383683488177
 11
379.57902238175677
 21
166.04675705368456
  0
LINE
  8
_1-0_
  6
CONTINUOUS
 62
    7
 10
379.57902238175677
 20
166.04675705368456
 11
381.22048867715375
 21
162.39907342034419
  0
LINE
  8
_1-0_
  6
CONTINUOUS
 62
    7
 10
381.22048867715375
 20
162.39907342034419
 11
373.92512141047297
 21
159.11615320154138
  0
LINE
  8
_1-0_
  6
CONTINUOUS
 62
    7
 10
270.14843914959886
 20
116.802978515625
 11
264.49453817831505
 21
109.87239940746412
  0
LINE
  8
_1-0_
  6
CONTINUOUS
 62
    7
 10
324.86374313766896
 20
141.42487397065034
 11
319.20981742240286
 21
134.49429486248945
  0
LINE
  8
_1-0_
  6
CONTINUOUS
 62
    7
 10
379.57902238175677
 20
166.04675705368456
 11
373.92509666649073
 21
159.11619031751479
  0
LINE
  8
_1-1_
  6
CONTINUOUS
 62
    7
 10
288.48719416437922
 20
142.82011289854307
 11
287.25610681482266
 21
145.55588180954393
  0
LINE
  8
_1-1_
  6
CONTINUOUS
 62
    7
 10
287.25610681482266
 20
145.55588180954393
 11
291.63334202122047
 21
147.52563888962206
  0
LINE
  8
_1-1_
  6
CONTINUOUS
 62
    7
 10
291.63334202122047
 20
147.52563888962206
 11
292.86442937077703
 21
144.7898699786212
  0
LINE
  8
_1-1_
  6
CONTINUOUS
 62
    7
 10
292.86442937077703
 20
144.7898699786212
 11
288.48719416437922
 21
142.82011289854307
  0
LINE
  8
_1-1_
  6
CONTINUOUS
 62
    7
 10
288.48719416437922
 20
142.82011289854307
 11
291.63334202122047
 21
147.52563888962206
  0
LINE
  8
_1-1_
  6
CONTINUOUS
 62
    7
 10
339.55478977512672
 20
165.80052968618034
 11
338.3237024255701
 21
168.53629859718117
  0
LINE
  8
_1-1_
  6
CONTINUOUS
 62
    7
 10
338.3237024255701
 20
168.53629859718117
 11
342.70093763196792
 21
170.5060556772593
  0
LINE
  8
_1-1_
  6
CONTINUOUS
 62
    7
 10
342.70093763196792
 20
170.5060556772593
 11
343.93202498152453
 21
167.77028676625847
  0
LINE
  8
_1-1_
  6
CONTINUOUS
 62
    7
 10
343.93202498152453
 20
167.77028676625847
 11
339.55478977512672
 21
165.80052968618034
  0
LINE
  8
_1-1_
  6
CONTINUOUS
 62
    7
 10
339.55478977512672
 20
165.80052968618034
 11
342.70093763196792
 21
170.5060556772593
  0
LINE
  8
_1-1_
  6
CONTINUOUS
 62
    7
 10
390.62238538587417
 20
188.78097121779984
 11
389.39129803631761
 21
191.51674012880068
  0
LINE
  8
_1-1_
  6
CONTINUOUS
 62
    7
 10
389.39129803631761
 20
191.51674012880068
 11
393.76853324271542
 21
193.48648483688768
  0
LINE
  8
_1-1_
  6
CONTINUOUS
 62
    7
 10
393.76853324271542
 20
193.48648483688768
 11
394.99962059227198
 21
190.75071592588682
  0
LINE
  8
_1-1_
  6
CONTINUOUS
 62
    7
 10
394.99962059227198
 20
190.75071592588682
 11
390.62238538587417
 21
188.78097121779984
  0
LINE
  8
_1-1_
  6
CONTINUOUS
 62
    7
 10
390.62238538587417
 20
188.78097121779984
 11
393.76853324271542
 21
193.48648483688768
  0
LINE
  8
ADD_LINE
  6
DOT
 62
    4
 10
240.68466598923143
 20
130.37495381123313
 11
238.94872716955237
 21
134.89795581714529
  0
LINE
  8
ADD_LINE
  6
DOT
 62
    4
 10
240.46543430637669
 20
130.50348642710094
 11
240.86910763302367
 21
130.65843324403505
  0
LINE
  8
ADD_LINE
  6
DOT
 62
    4
 10
240.61352704022383
 20
130.56033572635135
 11
291.63334202122047
 21
147.52563888962206
  0
LINE
  8
_1-2_
  6
CONTINUOUS
 62
    3
 10
290.68854254645271
 20
152.90219693570523
 11
292.01702221019849
 21
153.34395125105576
  0
LINE
  8
_1-2_
  6
CONTINUOUS
 62
    3
 10
289.3596174910262
 20
151.82798643369932
 11
290.57083542282521
 21
152.23074423300255
  0
LINE
  8
_1-2_
  6
CONTINUOUS
 62
    3
 10
290.68854254645271
 20
152.90219693570523
 11
290.57083542282521
 21
152.23074423300255
  0
LINE
  8
_1-2_
  6
CONTINUOUS
 62
    3
 10
289.3596174910262
 20
151.82798643369932
 11
288.97865914009714
 21
149.80442356418919
  0
LINE
  8
_1-2_
  6
CONTINUOUS
 62
    3
 10
292.26852004592484
 20
151.31989350190034
 11
292.64809273384714
 21
151.44611255542654
  0
LINE
  8
_1-2_
  6
CONTINUOUS
 62
    7
 10
292.01702221019849
 20
153.34395125105576
 11
292.64809273384714
 21
151.44611255542654
  0
LINE
  8
_1-2_
  6
CONTINUOUS
 62
    3
 10
292.26852004592484
 20
151.31989350190034
 11
293.34134488492401
 21
148.0935998865076
  0
LINE
  8
_1-2_
  6
CONTINUOUS
 62
    7
 10
291.63331727723818
 20
147.52563888962206
 11
292.95994114231422
 21
145.43756845835094
  0
LINE
  8
_1-2_
  6
CONTINUOUS
 62
    7
 10
292.95994114231422
 20
145.43756845835094
 11
294.47820715002115
 21
145.94243230046453
  0
LINE
  8
_1-2_
  6
CONTINUOUS
 62
    3
 10
292.01702221019849
 20
153.34395125105576
 11
292.64809273384714
 21
151.44611255542654
  0
LINE
  8
_1-2_
  6
CONTINUOUS
 62
    7
 10
292.64809273384714
 20
151.44611255542654
 11
294.47820715002115
 21
145.94243230046453
  0
LINE
  8
ADD_LINE
  6
DOT
 62
    4
 10
291.52946678367823
 20
153.81413640202703
 11
292.20522493929479
 21
154.03883650496201
  0
LINE
  8
ADD_LINE
  6
DOT
 62
    4
 10
291.82770600190037
 20
153.91329791094807
 11
342.70093763196792
 21
170.5060556772593
  0
LINE
  8
_1-2_
  6
CONTINUOUS
 62
    3
 10
341.78706813502959
 20
175.88795842351141
 11
343.11804694098396
 21
176.3220668483425
  0
LINE
  8
_1-2_
  6
CONTINUOUS
 62
    3
 10
340.45198182801943
 20
174.8213814400338
 11
341.66547620618667
 21
175.21717380832982
  0
LINE
  8
_1-2_
  6
CONTINUOUS
 62
    3
 10
341.78706813502959
 20
175.88795842351141
 11
341.66547620618667
 21
175.21717380832982
  0
LINE
  8
_1-2_
  6
CONTINUOUS
 62
    3
 10
340.45198182801943
 20
174.8213814400338
 11
340.0594185494088
 21
172.80004552892737
  0
LINE
  8
_1-2_
  6
CONTINUOUS
 62
    3
 10
343.35791510504646
 20
174.29661106418919
 11
343.73820536845443
 21
174.42064027528505
  0
LINE
  8
_1-2_
  6
CONTINUOUS
 62
    7
 10
343.11804694098396
 20
176.3220668483425
 11
343.73820536845443
 21
174.42064027528505
  0
LINE
  8
_1-2_
  6
CONTINUOUS
 62
    3
 10
343.35791510504646
 20
174.29661106418919
 11
344.41218195734797
 21
171.06419331318625
  0
LINE
  8
_1-2_
  6
CONTINUOUS
 62
    7
 10
342.70093763196792
 20
170.5060556772593
 11
344.01556066564615
 21
168.41040121542443
  0
LINE
  8
_1-2_
  6
CONTINUOUS
 62
    7
 10
344.01556066564615
 20
168.41040121542443
 11
345.53667223131339
 21
168.90653043179898
  0
LINE
  8
_1-2_
  6
CONTINUOUS
 62
    3
 10
279.17303961676521
 20
146.63032737938136
 11
278.20045264991558
 21
151.57234398094386
  0
LINE
  8
_1-2_
  6
CONTINUOUS
 62
    3
 10
281.11539273648651
 20
153.5749239534945
 11
340.0594185494088
 21
172.80004552892737
  0
LINE
  8
_1-2_
  6
CONTINUOUS
 62
    3
 10
279.17303961676521
 20
146.63032737938136
 11
280.64619734480578
 21
147.27359668628591
  0
LINE
  8
_1-2_
  6
CONTINUOUS
 62
    3
 10
281.5224312447213
 20
150.55214959221919
 11
344.41218195734797
 21
171.06419331318625
  0
LINE
  8
_1-2_
  6
CONTINUOUS
 62
    3
 10
280.83561252903297
 20
149.67991184543919
 11
280.64619734480578
 21
147.27359668628591
  0
LINE
  8
_1-2_
  6
CONTINUOUS
 62
    3
 10
343.11804694098396
 20
176.3220668483425
 11
343.73820536845443
 21
174.42064027528505
  0
LINE
  8
_1-2_
  6
CONTINUOUS
 62
    7
 10
343.73820536845443
 20
174.42064027528505
 11
345.53667223131339
 21
168.90653043179898
  0
LINE
  8
_1-2_
  6
CONTINUOUS
 62
    3
 10
392.85466374577703
 20
198.86837521114865
 11
394.18564255173146
 21
199.30250837996201
  0
LINE
  8
_1-2_
  6
CONTINUOUS
 62
    3
 10
391.51957743876693
 20
197.80181059966216
 11
392.73307181693417
 21
198.19761533994932
  0
LINE
  8
_1-2_
  6
CONTINUOUS
 62
    3
 10
392.85466374577703
 20
198.86837521114865
 11
392.73307181693417
 21
198.19761533994932
  0
LINE
  8
_1-2_
  6
CONTINUOUS
 62
    3
 10
391.51957743876693
 20
197.80181059966216
 11
391.12701416015625
 21
195.78047468855576
  0
LINE
  8
_1-2_
  6
CONTINUOUS
 62
    3
 10
394.42551071579396
 20
197.27704022381758
 11
394.80580097920188
 21
197.40108180690459
  0
LINE
  8
_1-2_
  6
CONTINUOUS
 62
    7
 10
394.18564255173146
 20
199.30250837996201
 11
394.80580097920188
 21
197.40108180690459
  0
LINE
  8
_1-2_
  6
CONTINUOUS
 62
    3
 10
394.42551071579396
 20
197.27704022381758
 11
395.47977756809547
 21
194.04463484480576
  0
LINE
  8
_1-2_
  6
CONTINUOUS
 62
    7
 10
393.76853324271542
 20
193.48648483688768
 11
395.08315627639359
 21
191.39084274704393
  0
LINE
  8
_1-2_
  6
CONTINUOUS
 62
    7
 10
395.08315627639359
 20
191.39084274704393
 11
396.60426784206084
 21
191.88695959142737
  0
LINE
  8
_1-2_
  6
CONTINUOUS
 62
    3
 10
330.24065997149495
 20
169.61075653900971
 11
329.26802351668078
 21
174.55277314057221
  0
LINE
  8
_1-2_
  6
CONTINUOUS
 62
    3
 10
332.18296360325172
 20
176.55535311312289
 11
391.12701416015625
 21
195.78047468855576
  0
LINE
  8
_1-2_
  6
CONTINUOUS
 62
    3
 10
330.24065997149495
 20
169.61075653900971
 11
331.71379295555323
 21
170.25402584591427
  0
LINE
  8
_1-2_
  6
CONTINUOUS
 62
    3
 10
332.59005159945104
 20
173.53257875184755
 11
395.47977756809547
 21
194.04463484480576
  0
LINE
  8
_1-2_
  6
CONTINUOUS
 62
    3
 10
331.90320813978042
 20
172.66034100506758
 11
331.71379295555323
 21
170.25402584591427
  0
LINE
  8
_1-2_
  6
CONTINUOUS
 62
    3
 10
394.18564255173146
 20
199.30250837996201
 11
394.80580097920188
 21
197.40108180690459
  0
LINE
  8
_1-2_
  6
CONTINUOUS
 62
    7
 10
394.80580097920188
 20
197.40108180690459
 11
396.60426784206084
 21
191.88695959142737
  0
LINE
  8
_1-2_
  6
CONTINUOUS
 62
    3
 10
381.30823083826016
 20
192.59117332664698
 11
380.33564387141047
 21
197.53318992820948
  0
LINE
  8
_1-2_
  6
CONTINUOUS
 62
    3
 10
381.30823083826016
 20
192.59117332664698
 11
382.78138856630068
 21
193.2344673775338
  0
LINE
  8
_1-2_
  6
CONTINUOUS
 62
    3
 10
382.97080375052792
 20
195.64077016469597
 11
382.78138856630068
 21
193.2344673775338
  0
LINE
  8
_0-0_
  6
CONTINUOUS
 62
    5
 10
12.432428308435391
 20
278.51351351351354
 11
412.43244892842063
 21
278.51351351351354
  0
LINE
  8
_0-0_
  6
CONTINUOUS
 62
    5
 10
412.43244892842063
 20
8.5135135135135158
 11
12.432428308435391
 21
8.5135135135135158
  0
LINE
  8
_0-0_
  6
CONTINUOUS
 62
    5
 10
412.43244892842063
 20
28.513511451515001
 11
12.432415936444272
 21
28.513511451515001
  0
LINE
  8
_0-0_
  6
CONTINUOUS
 62
    5
 10
377.43248192039698
 20
8.5135135135135158
 11
377.43248192039698
 21
28.513511451515001
  0
LINE
  8
_0-0_
  6
CONTINUOUS
 62
    5
 10
142.70271507469386
 20
28.513511451515001
 11
142.70271507469386
 21
8.5135135135135158
  0
LINE
  8
_0-0_
  6
CONTINUOUS
 62
    5
 10
220.54054054054055
 20
28.513511451515001
 11
220.54054054054055
 21
8.5135135135135158
  0
LINE
  8
_0-0_
  6
CONTINUOUS
 62
    5
 10
142.70271507469386
 20
18.513512482514244
 11
220.54054054054055
 21
18.513512482514244
  0
LINE
  8
_0-0_
  6
CONTINUOUS
 62
    5
 10
402.16218690614443
 20
24.324325870823216
 11
389.59456985061234
 21
11.756758303255651
  0
LINE
  8
_1-0_
  6
CONTINUOUS
 62
    7
 10
161.99266588365711
 20
109.87238703547298
 11
163.6341074350718
 21
113.52007066881335
  0
LINE
  8
_1-0_
  6
CONTINUOUS
 62
    7
 10
163.6341074350718
 20
113.52007066881335
 11
156.33874016839107
 21
116.80299088761613
  0
LINE
  8
_1-0_
  6
CONTINUOUS
 62
    7
 10
156.33874016839107
 20
116.80299088761613
 11
154.69727387299409
 21
113.15530725427577
  0
LINE
  8
_1-0_
  6
CONTINUOUS
 62
    7
 10
154.69727387299409
 20
113.15530725427577
 11
161.99266588365711
 21
109.87238703547298
  0
LINE
  8
_1-0_
  6
CONTINUOUS
 62
    7
 10
107.27733715160474
 20
134.49427011850719
 11
108.91880344700169
 21
138.14195375184755
  0
LINE
  8
_1-0_
  6
CONTINUOUS
 62
    7
 10
108.91880344700169
 20
138.14195375184755
 11
101.62343618032095
 21
141.42487397065034
  0
LINE
  8
_1-0_
  6
CONTINUOUS
 62
    7
 10
101.62343618032095
 20
141.42487397065034
 11
99.981969884923998
 21
137.77719033730997
  0
LINE
  8
_1-0_
  6
CONTINUOUS
 62
    7
 10
99.981969884923998
 20
137.77719033730997
 11
107.27733715160474
 21
134.49427011850719
  0
LINE
  8
_1-0_
  6
CONTINUOUS
 62
    7
 10
52.562057907516902
 20
159.11615320154138
 11
54.203524202913854
 21
162.76383683488177
  0
LINE
  8
_1-0_
  6
CONTINUOUS
 62
    7
 10
54.203524202913854
 20
162.76383683488177
 11
46.908156936233127
 21
166.04675705368456
  0
LINE
  8
_1-0_
  6
CONTINUOUS
 62
    7
 10
46.908156936233127
 20
166.04675705368456
 11
45.266690640836146
 21
162.39907342034419
  0
LINE
  8
_1-0_
  6
CONTINUOUS
 62
    7
 10
45.266690640836146
 20
162.39907342034419
 11
52.562057907516902
 21
159.11615320154138
  0
LINE
  8
_1-0_
  6
CONTINUOUS
 62
    7
 10
156.33874016839107
 20
116.802978515625
 11
161.99264113967484
 21
109.87239940746412
  0
LINE
  8
_1-0_
  6
CONTINUOUS
 62
    7
 10
101.62343618032095
 20
141.42487397065034
 11
107.27736189558701
 21
134.49429486248945
  0
LINE
  8
_1-0_
  6
CONTINUOUS
 62
    7
 10
46.908156936233127
 20
166.04675705368456
 11
52.562082651499168
 21
159.11619031751479
  0
LINE
  8
_1-1_
  6
CONTINUOUS
 62
    7
 10
137.99998515361065
 20
142.82011289854307
 11
139.23107250316724
 21
145.55588180954393
  0
LINE
  8
_1-1_
  6
CONTINUOUS
 62
    7
 10
139.23107250316724
 20
145.55588180954393
 11
134.85383729676943
 21
147.52563888962206
  0
LINE
  8
_1-1_
  6
CONTINUOUS
 62
    7
 10
134.85383729676943
 20
147.52563888962206
 11
133.62274994721284
 21
144.7898699786212
  0
LINE
  8
_1-1_
  6
CONTINUOUS
 62
    7
 10
133.62274994721284
 20
144.7898699786212
 11
137.99998515361065
 21
142.82011289854307
  0
LINE
  8
_1-1_
  6
CONTINUOUS
 62
    7
 10
137.99998515361065
 20
142.82011289854307
 11
134.85383729676943
 21
147.52563888962206
  0
LINE
  8
_1-1_
  6
CONTINUOUS
 62
    7
 10
86.932389542863177
 20
165.80052968618034
 11
88.163476892419766
 21
168.53629859718117
  0
LINE
  8
_1-1_
  6
CONTINUOUS
 62
    7
 10
88.163476892419766
 20
168.53629859718117
 11
83.786241686021967
 21
170.5060556772593
  0
LINE
  8
_1-1_
  6
CONTINUOUS
 62
    7
 10
83.786241686021967
 20
170.5060556772593
 11
82.555154336465378
 21
167.77028676625847
  0
LINE
  8
_1-1_
  6
CONTINUOUS
 62
    7
 10
82.555154336465378
 20
167.77028676625847
 11
86.932389542863177
 21
165.80052968618034
  0
LINE
  8
_1-1_
  6
CONTINUOUS
 62
    7
 10
86.932389542863177
 20
165.80052968618034
 11
83.786241686021967
 21
170.5060556772593
  0
LINE
  8
_1-1_
  6
CONTINUOUS
 62
    7
 10
35.864793932115703
 20
188.78097121779984
 11
37.095881281672291
 21
191.51674012880068
  0
LINE
  8
_1-1_
  6
CONTINUOUS
 62
    7
 10
37.095881281672291
 20
191.51674012880068
 11
32.718646075274478
 21
193.48648483688768
  0
LINE
  8
_1-1_
  6
CONTINUOUS
 62
    7
 10
32.718646075274478
 20
193.48648483688768
 11
31.487558725717918
 21
190.75071592588682
  0
LINE
  8
_1-1_
  6
CONTINUOUS
 62
    7
 10
31.487558725717918
 20
190.75071592588682
 11
35.864793932115703
 21
188.78097121779984
  0
LINE
  8
_1-1_
  6
CONTINUOUS
 62
    7
 10
35.864793932115703
 20
188.78097121779984
 11
32.718646075274478
 21
193.48648483688768
  0
LINE
  8
ADD_LINE
  6
DOT
 62
    4
 10
186.02174501161318
 20
130.50348642710094
 11
185.61807168496622
 21
130.65843324403505
  0
LINE
  8
ADD_LINE
  6
DOT
 62
    4
 10
185.87365227776607
 20
130.56033572635135
 11
134.85383729676943
 21
147.52563888962206
  0
LINE
  8
_1-2_
  6
CONTINUOUS
 62
    3
 10
135.79863677153716
 20
152.90219693570523
 11
134.47015710779138
 21
153.34395125105576
  0
LINE
  8
_1-2_
  6
CONTINUOUS
 62
    3
 10
137.1275618269637
 20
151.82798643369932
 11
135.91634389516472
 21
152.23074423300255
  0
LINE
  8
_1-2_
  6
CONTINUOUS
 62
    3
 10
135.79863677153716
 20
152.90219693570523
 11
135.91634389516472
 21
152.23074423300255
  0
LINE
  8
_1-2_
  6
CONTINUOUS
 62
    3
 10
137.1275618269637
 20
151.82798643369932
 11
137.50852017789273
 21
149.80442356418919
  0
LINE
  8
_1-2_
  6
CONTINUOUS
 62
    3
 10
134.21865927206505
 20
151.31989350190034
 11
133.83908658414273
 21
151.44611255542654
  0
LINE
  8
_1-2_
  6
CONTINUOUS
 62
    7
 10
134.47015710779138
 20
153.34395125105576
 11
133.83908658414273
 21
151.44611255542654
  0
LINE
  8
_1-2_
  6
CONTINUOUS
 62
    3
 10
134.21865927206505
 20
151.31989350190034
 11
133.14583443306589
 21
148.0935998865076
  0
LINE
  8
_1-2_
  6
CONTINUOUS
 62
    7
 10
134.85386204075169
 20
147.52563888962206
 11
133.52723817567568
 21
145.43756845835094
  0
LINE
  8
_1-2_
  6
CONTINUOUS
 62
    7
 10
133.52723817567568
 20
145.43756845835094
 11
132.00897216796875
 21
145.94243230046453
  0
LINE
  8
_1-2_
  6
CONTINUOUS
 62
    3
 10
134.47015710779138
 20
153.34395125105576
 11
133.83908658414273
 21
151.44611255542654
  0
LINE
  8
_1-2_
  6
CONTINUOUS
 62
    7
 10
133.83908658414273
 20
151.44611255542654
 11
132.00897216796875
 21
145.94243230046453
  0
LINE
  8
ADD_LINE
  6
DOT
 62
    4
 10
134.95771253431167
 20
153.81413640202703
 11
134.2819543786951
 21
154.03883650496201
  0
LINE
  8
ADD_LINE
  6
DOT
 62
    4
 10
134.65947331608953
 20
153.91329791094807
 11
83.786241686021967
 21
170.5060556772593
  0
LINE
  8
_1-2_
  6
CONTINUOUS
 62
    3
 10
84.700111182960313
 20
175.88795842351141
 11
83.369132377005911
 21
176.3220668483425
  0
LINE
  8
_1-2_
  6
CONTINUOUS
 62
    3
 10
86.035197489970443
 20
174.8213814400338
 11
84.821703111803217
 21
175.21717380832982
  0
LINE
  8
_1-2_
  6
CONTINUOUS
 62
    3
 10
84.700111182960313
 20
175.88795842351141
 11
84.821703111803217
 21
175.21717380832982
  0
LINE
  8
_1-2_
  6
CONTINUOUS
 62
    3
 10
86.035197489970443
 20
174.8213814400338
 11
86.427760768581081
 21
172.80004552892737
  0
LINE
  8
_1-2_
  6
CONTINUOUS
 62
    3
 10
83.129264212943411
 20
174.29661106418919
 11
82.748973949535483
 21
174.42064027528505
  0
LINE
  8
_1-2_
  6
CONTINUOUS
 62
    7
 10
83.369132377005911
 20
176.3220668483425
 11
82.748973949535483
 21
174.42064027528505
  0
LINE
  8
_1-2_
  6
CONTINUOUS
 62
    3
 10
83.129264212943411
 20
174.29661106418919
 11
82.074997360641902
 21
171.06419331318625
  0
LINE
  8
_1-2_
  6
CONTINUOUS
 62
    7
 10
83.786241686021967
 20
170.5060556772593
 11
82.47161865234375
 21
168.41040121542443
  0
LINE
  8
_1-2_
  6
CONTINUOUS
 62
    7
 10
82.47161865234375
 20
168.41040121542443
 11
80.95050708667651
 21
168.90653043179898
  0
LINE
  8
_1-2_
  6
CONTINUOUS
 62
    3
 10
147.31413970122466
 20
146.63032737938136
 11
148.28672666807432
 21
151.57234398094386
  0
LINE
  8
_1-2_
  6
CONTINUOUS
 62
    3
 10
145.37178658150339
 20
153.5749239534945
 11
86.427760768581081
 21
172.80004552892737
  0
LINE
  8
_1-2_
  6
CONTINUOUS
 62
    3
 10
147.31413970122466
 20
146.63032737938136
 11
145.84098197318414
 21
147.27359668628591
  0
LINE
  8
_1-2_
  6
CONTINUOUS
 62
    3
 10
144.96474807326859
 20
150.55214959221919
 11
82.074997360641902
 21
171.06419331318625
  0
LINE
  8
_1-2_
  6
CONTINUOUS
 62
    3
 10
145.65156678895693
 20
149.67991184543919
 11
145.84098197318414
 21
147.27359668628591
  0
LINE
  8
_1-2_
  6
CONTINUOUS
 62
    3
 10
83.369132377005911
 20
176.3220668483425
 11
82.748973949535483
 21
174.42064027528505
  0
LINE
  8
_1-2_
  6
CONTINUOUS
 62
    7
 10
82.748973949535483
 20
174.42064027528505
 11
80.95050708667651
 21
168.90653043179898
  0
LINE
  8
_1-2_
  6
CONTINUOUS
 62
    3
 10
33.632515572212839
 20
198.86837521114865
 11
32.301536766258437
 21
199.30250837996201
  0
LINE
  8
_1-2_
  6
CONTINUOUS
 62
    3
 10
34.967601879222968
 20
197.80181059966216
 11
33.754107501055728
 21
198.19761533994932
  0
LINE
  8
_1-2_
  6
CONTINUOUS
 62
    3
 10
33.632515572212839
 20
198.86837521114865
 11
33.754107501055728
 21
198.19761533994932
  0
LINE
  8
_1-2_
  6
CONTINUOUS
 62
    3
 10
34.967601879222968
 20
197.80181059966216
 11
35.36016515783362
 21
195.78047468855576
  0
LINE
  8
_1-2_
  6
CONTINUOUS
 62
    3
 10
32.061668602195937
 20
197.27704022381758
 11
31.681378338788022
 21
197.40108180690459
  0
LINE
  8
_1-2_
  6
CONTINUOUS
 62
    7
 10
32.301536766258437
 20
199.30250837996201
 11
31.681378338788022
 21
197.40108180690459
  0
LINE
  8
_1-2_
  6
CONTINUOUS
 62
    3
 10
32.061668602195937
 20
197.27704022381758
 11
31.007401749894427
 21
194.04463484480576
  0
LINE
  8
_1-2_
  6
CONTINUOUS
 62
    7
 10
32.718646075274478
 20
193.48648483688768
 11
31.404023041596275
 21
191.39084274704393
  0
LINE
  8
_1-2_
  6
CONTINUOUS
 62
    7
 10
31.404023041596275
 20
191.39084274704393
 11
29.882911475929063
 21
191.88695959142737
  0
LINE
  8
_1-2_
  6
CONTINUOUS
 62
    3
 10
96.246519346494935
 20
169.61075653900971
 11
97.219155801309128
 21
174.55277314057221
  0
LINE
  8
_1-2_
  6
CONTINUOUS
 62
    3
 10
94.304215714738177
 20
176.55535311312289
 11
35.36016515783362
 21
195.78047468855576
  0
LINE
  8
_1-2_
  6
CONTINUOUS
 62
    3
 10
96.246519346494935
 20
169.61075653900971
 11
94.773386362436668
 21
170.25402584591427
  0
LINE
  8
_1-2_
  6
CONTINUOUS
 62
    3
 10
93.897127718538854
 20
173.53257875184755
 11
31.007401749894427
 21
194.04463484480576
  0
LINE
  8
_1-2_
  6
CONTINUOUS
 62
    3
 10
94.583971178209467
 20
172.66034100506758
 11
94.773386362436668
 21
170.25402584591427
  0
LINE
  8
_1-2_
  6
CONTINUOUS
 62
    3
 10
32.301536766258437
 20
199.30250837996201
 11
31.681378338788022
 21
197.40108180690459
  0
LINE
  8
_1-2_
  6
CONTINUOUS
 62
    7
 10
31.681378338788022
 20
197.40108180690459
 11
29.882911475929063
 21
191.88695959142737
  0
LINE
  8
_1-2_
  6
CONTINUOUS
 62
    3
 10
45.17894847972974
 20
192.59117332664698
 11
46.151535446579402
 21
197.53318992820948
  0
LINE
  8
_1-2_
  6
CONTINUOUS
 62
    3
 10
45.17894847972974
 20
192.59117332664698
 11
43.705790751689193
 21
193.2344673775338
  0
LINE
  8
_1-2_
  6
CONTINUOUS
 62
    3
 10
43.516375567462006
 20
195.64077016469597
 11
43.705790751689193
 21
193.2344673775338
  0
LINE
  8
_1-0_
  6
CONTINUOUS
 62
    7
 10
213.24358965899495
 20
85.493551718222136
 11
17.027027027027032
 21
173.79101727459883
  0
LINE
  8
_1-0_
  6
CONTINUOUS
 62
    7
 10
213.24358965899495
 20
86.809461438978047
 11
17.027027027027032
 21
175.10691462336362
  0
LINE
  8
_1-0_
  6
CONTINUOUS
 62
    7
 10
213.24358965899495
 20
91.195802430848829
 11
17.027027027027032
 21
179.49326798722552
  0
LINE
  8
_1-0_
  6
CONTINUOUS
 62
    7
 10
213.24358965899495
 20
104.35482540646116
 11
17.027027027027032
 21
192.65227859084672
  0
LINE
  8
_1-0_
  6
CONTINUOUS
 62
    7
 10
213.24358965899495
 20
106.98663247598185
 11
17.027027027027032
 21
195.2840856603674
  0
LINE
  8
_1-2_
  6
CONTINUOUS
 62
    3
 10
42.829556851773646
 20
196.51299553948482
 11
17.027027027027032
 21
204.92872083509292
  0
LINE
  8
_1-2_
  6
CONTINUOUS
 62
    3
 10
43.236595360008437
 20
199.5357946447424
 11
17.027027027027032
 21
208.08427140519427
  0
LINE
  8
_1-0_
  6
CONTINUOUS
 62
    7
 10
213.24358965899495
 20
85.493557904217695
 11
414.32432432432432
 21
175.97989468961148
  0
LINE
  8
_1-0_
  6
CONTINUOUS
 62
    7
 10
213.24358965899495
 20
86.809461438978047
 11
414.32432432432432
 21
177.29577966638516
  0
LINE
  8
_1-0_
  6
CONTINUOUS
 62
    7
 10
213.24358965899495
 20
91.195796244853256
 11
414.32432432432432
 21
181.68214540223818
  0
LINE
  8
_1-0_
  6
CONTINUOUS
 62
    7
 10
213.24358965899495
 20
104.35482540646116
 11
414.32432432432432
 21
194.84115600585937
  0
LINE
  8
_1-0_
  6
CONTINUOUS
 62
    7
 10
213.24358965899495
 20
106.98663247598185
 11
414.32432432432432
 21
197.4729754473712
  0
LINE
  8
_1-2_
  6
CONTINUOUS
 62
    3
 10
383.65762246621625
 20
196.51299553948482
 11
414.32432432432432
 21
206.51521837389149
  0
LINE
  8
_1-2_
  6
CONTINUOUS
 62
    3
 10
383.25058395798146
 20
199.5357946447424
 11
414.32432432432432
 21
209.67075657200169
  0
LINE
  8
_0-1_
  6
CONTINUOUS
 62
    7
 10
67.902460871516041
 20
218.61709182326859
 11
73.571969109612553
 21
218.61709182326859
  0
LINE
  8
_0-1_
  6
CONTINUOUS
 62
    7
 10
65.35467199377112
 20
225.61709017366977
 11
73.571969109612553
 21
225.61709017366977
  0
LINE
  8
_0-1_
  6
CONTINUOUS
 62
    7
 10
62.806876930030626
 20
232.61708852407097
 11
73.571969109612553
 21
232.61708852407097
  0
LINE
  8
_0-1_
  6
CONTINUOUS
 62
    7
 10
60.259088052285676
 20
239.61708687447214
 11
73.571969109612553
 21
239.61708687447214
  0
LINE
  8
_0-1_
  6
CONTINUOUS
 62
    7
 10
57.711299174540756
 20
246.61708522487334
 11
73.571969109612553
 21
246.61708522487334
  0
LINE
  8
_1-4_
  6
CONTINUOUS
 62
    7
 10
93.273164903795404
 20
148.91166068412164
 11
55.409057204787814
 21
252.94243889885982
  0
LINE
  8
_1-4_
  6
CONTINUOUS
 62
    7
 10
55.409057204787814
 20
252.94243889885982
 11
73.095059781461146
 21
252.94243889885982
  0
LINE
  8
_1-3_
  6
CONTINUOUS
 62
    7
 10
240.60122928103885
 20
121.27143241263725
 11
237.37179317989867
 21
128.44799144847974
  0
LINE
  8
_1-3_
  6
CONTINUOUS
 62
    7
 10
237.37179317989867
 20
128.44799144847974
 11
246.12032503695102
 21
130.9384485193201
  0
LINE
  8
_1-3_
  6
CONTINUOUS
 62
    7
 10
246.12032503695102
 20
130.9384485193201
 11
248.80851127005914
 21
124.96470683329815
  0
LINE
  8
_1-3_
  6
CONTINUOUS
 62
    7
 10
237.37176843591641
 20
128.44799144847974
 11
248.80851127005914
 21
124.96470683329815
  0
LINE
  8
ADD_LINE
  6
DOT
 62
    4
 10
186.02174501161318
 20
130.50348642710094
 11
185.61807168496622
 21
130.65843324403505
  0
LINE
  8
_1-3_
  6
CONTINUOUS
 62
    7
 10
185.88595003695102
 20
121.27143241263725
 11
189.11538613809122
 21
128.44799144847974
  0
LINE
  8
_1-3_
  6
CONTINUOUS
 62
    7
 10
189.11538613809122
 20
128.44799144847974
 11
180.36685428103885
 21
130.9384485193201
  0
LINE
  8
_1-3_
  6
CONTINUOUS
 62
    7
 10
180.36685428103885
 20
130.9384485193201
 11
177.67866804793076
 21
124.96470683329815
  0
LINE
  8
_1-3_
  6
CONTINUOUS
 62
    7
 10
189.11541088207349
 20
128.44799144847974
 11
177.67866804793076
 21
124.96470683329815
  0
LINE
  8
_1-3_
  6
CONTINUOUS
 62
    2
 10
180.61796858504013
 20
131.12879160288219
 11
182.90386715450802
 21
131.4869854901288
  0
LINE
  8
_1-3_
  6
CONTINUOUS
 62
    2
 10
189.79398985166807
 20
128.51664362726984
 11
180.61796858504013
 21
131.12879160288219
  0
LINE
  8
_1-3_
  6
CONTINUOUS
 62
    2
 10
186.58064971099029
 20
121.37583964579815
 11
189.79398985166807
 21
128.51664362726984
  0
LINE
  8
_1-3_
  6
CONTINUOUS
 62
    2
 10
239.6811243005701
 20
121.27440169050888
 11
236.39613795924834
 21
128.57438370988177
  0
LINE
  8
_1-3_
  6
CONTINUOUS
 62
    2
 10
236.39613795924834
 20
128.57438370988177
 11
245.42524183118667
 21
131.14471435546875
  0
LINE
  8
_1-3_
  6
CONTINUOUS
 62
    2
 10
245.42524183118667
 20
131.14471435546875
 11
243.22607091955237
 21
131.14471435546875
  0
LINE
  8
_1-3_
  6
CONTINUOUS
 62
    2
 10
186.58064971099029
 20
121.37583964579815
 11
213.24358965899495
 21
109.37750739020271
  0
LINE
  8
_1-3_
  6
CONTINUOUS
 62
    2
 10
213.24358965899495
 20
109.37750739020271
 11
239.6811243005701
 21
121.27440169050888
  0
LINE
  8
_1-4_
  6
CONTINUOUS
 62
    7
 10
194.73945823875636
 20
139.50651014173354
 11
221.16708291543497
 21
127.61406975823481
  0
LINE
  8
_1-4_
  6
CONTINUOUS
 62
    7
 10
192.03852885478253
 20
133.50444896801099
 11
194.73945823875636
 21
139.50651014173354
  0
LINE
  8
_1-4_
  6
CONTINUOUS
 62
    7
 10
218.46615353146117
 20
121.61200858451225
 11
221.16708291543497
 21
127.61406975823481
  0
LINE
  8
_1-2_
  6
CONTINUOUS
 62
    3
 10
195.63017974028716
 20
127.31606560784418
 11
133.14583443306589
 21
148.0935998865076
  0
LINE
  8
_1-4_
  6
CONTINUOUS
 62
    3
 10
196.05410601641682
 20
130.33660063872466
 11
195.63017974028716
 21
127.31606560784418
  0
LINE
  8
_1-2_
  6
CONTINUOUS
 62
    3
 10
196.05410601641682
 20
130.33660063872466
 11
137.50852017789273
 21
149.80442356418919
  0
LINE
  8
_1-2_
  6
CONTINUOUS
 62
    3
 10
230.85699957770271
 20
127.31606560784418
 11
293.34134488492401
 21
148.0935998865076
  0
LINE
  8
_1-4_
  6
CONTINUOUS
 62
    3
 10
230.43308567356419
 20
130.33661301071581
 11
230.85699957770271
 21
127.31606560784418
  0
LINE
  8
_1-2_
  6
CONTINUOUS
 62
    3
 10
230.43308567356419
 20
130.33661301071581
 11
288.97865914009714
 21
149.80442356418919
  0
ARC
  8
_1-2_
  6
CONTINUOUS
 62
    3
 10
282.91081608952703
 20
147.83871212521115
 40
6.01062568458351
 50
107.38015747070314
 51
141.59829711914062
  0
ARC
  8
_1-2_
  6
CONTINUOUS
 62
    3
 10
281.83252283044766
 20
149.60143630569047
 40
0.9999999162313101
 50
108.06419372558594
 51
175.49896240234378
  0
ARC
  8
_1-2_
  6
CONTINUOUS
 62
    3
 10
333.97841170027453
 20
170.81914128483953
 40
6.01062568458351
 50
107.38015747070314
 51
141.59829711914062
  0
ARC
  8
_1-2_
  6
CONTINUOUS
 62
    3
 10
332.9001184411951
 20
172.58186546531886
 40
0.9999999162313101
 50
108.06419372558594
 51
175.49896240234378
  0
ARC
  8
_1-2_
  6
CONTINUOUS
 62
    3
 10
385.04600731102198
 20
193.79957044446792
 40
6.01062568458351
 50
107.38015747070314
 51
141.59829711914062
  0
ARC
  8
_1-2_
  6
CONTINUOUS
 62
    3
 10
383.96771405194261
 20
195.56228225295609
 40
0.9999999162313101
 50
108.06419372558594
 51
175.49896240234378
  0
ARC
  8
_1-2_
  6
CONTINUOUS
 62
    3
 10
143.57636322846284
 20
147.83871212521115
 40
6.01062568458351
 50
38.401657104492202
 51
72.619796752929702
  0
ARC
  8
_1-2_
  6
CONTINUOUS
 62
    3
 10
144.65465648754224
 20
149.60143630569047
 40
0.9999999162313101
 50
4.5005950927734588
 51
71.935363769531278
  0
ARC
  8
_1-2_
  6
CONTINUOUS
 62
    3
 10
92.508767617715378
 20
170.81914128483953
 40
6.01062568458351
 50
38.401657104492202
 51
72.619796752929702
  0
ARC
  8
_1-2_
  6
CONTINUOUS
 62
    3
 10
93.587060876794766
 20
172.58186546531886
 40
0.9999999162313101
 50
4.5005950927734588
 51
71.935363769531278
  0
ARC
  8
_1-2_
  6
CONTINUOUS
 62
    3
 10
41.441172006967918
 20
193.79957044446792
 40
6.01062568458351
 50
38.401657104492202
 51
72.619796752929702
  0
ARC
  8
_1-2_
  6
CONTINUOUS
 62
    3
 10
42.519465266047291
 20
195.56228225295609
 40
0.9999999162313101
 50
4.5005950927734588
 51
71.935363769531278
  0
TEXT
  8
_0-0_
 62
    7
 10
147.56756962956609
 20
22.702702702702709
 40
2.5
 41
1
 50
0
  1
図名
  0
TEXT
  8
_0-0_
 62
    7
 10
147.56756962956609
 20
12.972972972972968
 40
2.5
 41
1
 50
0
  1
縮尺
  0
TEXT
  8
_0-0_
 62
    7
 10
382.77784605284
 20
21.243871740392734
 40
2.5
 41
1
 50
0
  1
ＮＯ
  0
TEXT
  8
_0-0_
 62
    7
 10
31.231870393495313
 20
18.589955922719582
 40
2.5
 41
1
 50
0
  1
木造
  0
TEXT
  8
_0-0_
 62
    7
 10
20.270270012520456
 20
22.702702702702709
 40
2.5
 41
1
 50
0
  1
Ｆ形
  0
TEXT
  8
_0-0_
 62
    7
 10
389.99062615471917
 20
16.178650211643514
 40
2.5
 41
1
 50
0
  1
Ｆ
  0
TEXT
  8
_0-0_
 62
    7
 10
171.37221877639359
 20
12.362518826046511
 40
2.5
 41
1
 50
0
  1
1/5
  0
TEXT
  8
_0-1_
 62
    7
 10
80.058454565099765
 20
244.72869873046875
 40
2.5
 41
1
 50
0
  1
瓦桟
  0
TEXT
  8
_0-1_
 62
    7
 10
80.058455596099037
 20
237.22478918127112
 40
2.5
 41
1
 50
0
  1
流し桟
  0
TEXT
  8
_0-1_
 62
    7
 10
80.05845662709828
 20
229.94157120988177
 40
2.5
 41
1
 50
0
  1
下葺き材
  0
TEXT
  8
_0-1_
 62
    7
 10
80.058455596099037
 20
223.32047745988177
 40
2.5
 41
1
 50
0
  1
野地板
  0
TEXT
  8
_0-1_
 62
    7
 10
80.058454565099765
 20
216.69935896589951
 40
2.5
 41
1
 50
0
  1
垂木
  0
TEXT
  8
_0-1_
 62
    7
 10
94.440176680281354
 20
223.32047745988177
 40
2.5
 41
1
 50
0
  1
耐水合板　ｔ＝12
  0
TEXT
  8
_0-1_
 62
    7
 10
94.440178742279883
 20
216.69935896589951
 40
2.5
 41
1
 50
0
  1
60ｘ60＠303
  0
TEXT
  8
_1-4_
 62
    7
 10
80.058454565099765
 20
251.61979881492823
 40
2.5
 41
1
 50
0
  1
桟瓦
  0
TEXT
  8
_1-4_
 62
    7
 10
45.397582698512736
 20
13.77361400707349
 40
2.5
 41
1
 50
0
  1
谷　1
  0
TEXT
  8
_1-4_
 62
    7
 10
206.44859965286801
 20
134.78567799458477
 40
2.5
 41
1
 50
-24.227641889855281
  1
150
  0
TEXT
  8
_1-4_
 62
    7
 10
94.440176680281354
 20
229.94157120988177
 40
2.5
 41
1
 50
0
  1
ゴムアス系ルーフィング
  0
POINT
  8
_1-4_
 62
    7
 10
194.73945823875636
 20
139.50651014173354
  0
POINT
  8
_1-4_
 62
    7
 10
221.16708291543497
 20
127.61406975823481
  0
TEXT
  8
_1-4_
 62
    7
 10
162.22900456156069
 20
43.825937308429687
 40
2.5
 41
1
 50
0
  1
谷部分の下葺き材（ゴムアス系ルーフィング）は、両方向へそれぞれ250ｍｍ以上重ね合わせること。
  0
TEXT
  8
_1-4_
 62
    7
 10
162.22437743687738
 20
35.23356472344237
 40
2.5
 41
1
 50
0
  1
谷巾については専門業者と相談
  0
TEXT
  8
_1-4_
 62
    7
 10
162.50897241087972
 20
39.385589482271016
 40
2.5
 41
1
 50
0
  1
谷底部分には捨て貼りをする
  0
LINE
  8
_1-5_
  6
DASHED1
 62
    6
 10
213.24358965899495
 20
106.98663247598185
 11
258.83966386775313
 21
127.5048686757486
  0
LINE
  8
_1-5_
  6
DASHED1
 62
    6
 10
213.24358965899495
 20
106.98663247598185
 11
167.64751440097226
 21
127.50486634404983
  0
LINE
  8
_1-0_
  6
CONTINUOUS
 62
    7
 10
187.36621987299574
 20
119.94735696879843
 11
17.027027027027032
 21
196.59998300913219
  0
LINE
  8
_1-0_
  6
CONTINUOUS
 62
    7
 10
187.61243571241152
 20
120.49450312519357
 11
187.36621987299574
 21
119.94735696879843
  0
LINE
  8
_1-1_
  6
CONTINUOUS
 62
    7
 10
184.69037030194258
 20
121.80944081899283
 11
187.61243571241152
 21
120.49450312519357
  0
LINE
  8
_1-0_
  6
CONTINUOUS
 62
    7
 10
239.45283341433804
 20
120.09670188664215
 11
414.32432432432432
 21
198.78887279613599
  0
LINE
  8
_1-0_
  6
CONTINUOUS
 62
    7
 10
239.20661667854969
 20
120.64385003880354
 11
414.32432432432432
 21
199.44684002850508
  0
LINE
  8
_1-0_
  6
CONTINUOUS
 62
    7
 10
239.20661667854969
 20
120.64385003880354
 11
239.45283341433804
 21
120.09670188664215
  0
LINE
  8
_1-1_
  6
CONTINUOUS
 62
    7
 10
241.79680901604732
 20
121.80944081899283
 11
239.20661783591817
 21
120.64384746687428
  0
LINE
  8
_1-0_
  6
CONTINUOUS
 62
    7
 10
187.61243723478609
 20
120.49450650824716
 11
17.027027027027032
 21
197.2579626134924
  0
LINE
  8
_1-0_
  6
DASHED1
 62
    7
 10
258.72467708883391
 20
127.78209699709072
 11
412.52257214359088
 21
196.99115923592478
  0
LINE
  8
_1-0_
  6
DASHED1
 62
    7
 10
213.24358965836905
 20
107.31559925837126
 11
167.78580446603968
 21
127.77161119363265
  0
LINE
  8
_1-0_
  6
DASHED1
 62
    7
 10
213.24358965836905
 20
107.31559925837126
 11
258.72467708883391
 21
127.78209699709072
  0
LINE
  8
_1-0_
  6
DASHED1
 62
    7
 10
213.24358965899495
 20
107.64457496436867
 11
17.027027027027032
 21
195.94206526472763
  0
LINE
  8
_1-0_
  6
DASHED1
 62
    7
 10
213.24358965899495
 20
107.64457496436867
 11
258.6015676436416
 21
128.05567342974609
  0
POINT
  8
_1-4_
 62
    7
 10
226.27000562450769
 20
78.039043415400812
  0
POINT
  8
_1-4_
 62
    7
 10
271.86608035968868
 20
98.557278445339151
  0
LINE
  8
_1-4_
  6
CONTINUOUS
 62
    7
 10
226.27000562450769
 20
78.039043415400812
 11
215.48498192884216
 21
102.00576110484826
  0
LINE
  8
_1-4_
  6
CONTINUOUS
 62
    7
 10
271.86608035968868
 20
98.557278445339151
 11
261.08105666402315
 21
122.5239961347866
  0
LINE
  8
_1-4_
  6
CONTINUOUS
 62
    7
 10
226.27000562450769
 20
78.039043415400812
 11
271.86608035968868
 21
98.557278445339151
  0
TEXT
  8
_1-4_
 62
    7
 10
247.15300783922953
 20
87.984687864099101
 40
2.5
 41
1
 50
24.227746779999961
  1
250
  0
POINT
  8
_1-4_
 62
    7
 10
200.37780794685014
 20
78.396006451721377
  0
POINT
  8
_1-4_
 62
    7
 10
154.78173268882745
 20
98.914240319789343
  0
LINE
  8
_1-4_
  6
CONTINUOUS
 62
    7
 10
200.37780794685014
 20
78.396006451721377
 11
210.51860808869657
 21
100.9311178758966
  0
LINE
  8
_1-4_
  6
CONTINUOUS
 62
    7
 10
154.78173268882745
 20
98.914240319789343
 11
164.9225328306739
 21
121.44935174396457
  0
LINE
  8
_1-4_
  6
CONTINUOUS
 62
    7
 10
200.37780794685014
 20
78.396006451721377
 11
154.78173268882745
 21
98.914240319789343
  0
TEXT
  8
_1-4_
 62
    7
 10
176.07509983434363
 20
89.880517908388128
 40
2.5
 41
1
 50
-24.227745319999961
  1
250
  0
TEXT
  8
_1-4_
 62
    7
 10
181.07404319576861
 20
87.73373806798682
 40
2.5
 41
1
 50
-24.227746934022367
  1
谷底部分捨て貼り
  0
TEXT
  8
_1-4_
 62
    7
 10
252.25709735623525
 20
90.48109294487503
 40
2.5
 41
1
 50
24.22776147864522
  1
谷底部分捨て貼り
  0
TEXT
  8
_1-4_
 62
    7
 10
399.39007320919552
 20
13.646821202458568
 40
2.5
 41
1
 50
0
  1
12
  0
TEXT
  8
_1-4_
 62
    7
 10
93.466918893261095
 20
244.75677328713545
 40
2.5
 41
1
 50
0
  1
15×30　（樹脂桟木）
  0
TEXT
  8
_1-4_
 62
    7
 10
93.774897297723982
 20
241.16712227240066
 40
2.5
 41
1
 50
0
  1
※　地域により瓦桟木の大きさは、異なります
  0
LINE
  8
_1-4_
  6
CONTINUOUS
 62
    7
 10
197.06581921301375
 20
210.27803983940936
 11
208.82965440295015
 21
210.27803983940936
  0
TEXT
  8
_1-4_
 62
    7
 10
220.88082222362328
 20
205.4603123643555
 40
2.5
 41
1
 50
0
  1
銅板ｔ=0.4以上もしくは、耐久性の有する材料を使用すること
  0
TEXT
  8
_1-4_
 62
    7
 10
220.88082222362326
 20
208.88762845705736
 40
2.5
 41
1
 50
0
  1
ステンレス　（ＳＵＳ３０４）又は、
  0
TEXT
  8
_1-4_
 62
    7
 10
211.96980038259846
 20
208.7733845873006
 40
2.5
 41
1
 50
0
  1
谷樋
  0
LINE
  8
_1-4_
  6
CONTINUOUS
 62
    3
 10
304.89847372433712
 20
80.642107429069455
 11
332.03213081893171
 21
68.431954313307216
  0
LINE
  8
_1-4_
  6
CONTINUOUS
 62
    3
 10
332.03213081893171
 20
68.431954313307216
 11
359.27646774619097
 21
80.691904693374767
  0
LINE
  8
_1-4_
  6
CONTINUOUS
 62
    3
 10
357.08756558719608
 20
85.556076726736251
 11
357.03275766648238
 21
85.677866607437267
  0
LINE
  8
_1-4_
  6
CONTINUOUS
 62
    3
 10
303.07757644155629
 20
87.310944692846903
 11
307.49165251792971
 21
87.310944692846903
  0
LINE
  8
_1-4_
  6
CONTINUOUS
 62
    3
 10
361.5263885654478
 20
87.484585588381123
 11
356.74140975575546
 21
87.484585588381123
  0
LINE
  8
_1-4_
  6
CONTINUOUS
 62
    3
 10
307.1607285728673
 20
85.669268413698063
 11
303.07757644155629
 21
87.310944692846903
  0
LINE
  8
_1-4_
  6
CONTINUOUS
 62
    3
 10
304.89847372433712
 20
80.642107429069455
 11
307.1607285728673
 21
85.669268413698063
  0
LINE
  8
_1-4_
  6
CONTINUOUS
 62
    3
 10
359.27646774619097
 20
80.691904693374767
 11
357.03275923715518
 21
85.677867238945382
  0
LINE
  8
_1-4_
  6
CONTINUOUS
 62
    3
 10
357.03275923715518
 20
85.677867238945382
 11
361.5263885654478
 21
87.484585588381123
  0
CIRCLE
  8
_1-4_
  6
CONTINUOUS
 62
    7
 10
307.21220890625636
 20
86.892848623758411
 40
5.6067642044343984
  0
LINE
  8
_1-4_
  6
CONTINUOUS
 62
    7
 10
312.78661207789759
 20
107.04511841260174
 11
316.63020608788099
 21
107.04511841260174
  0
LINE
  8
_1-4_
  6
CONTINUOUS
 62
    7
 10
308.50042379526133
 20
92.349615729277275
 11
312.78661207789759
 21
107.04511841260174
  0
LINE
  8
_1-4_
  6
CONTINUOUS
 62
    7
 10
308.50042379526133
 20
92.349615729277275
 11
308.50042379526133
 21
96.125962596311084
  0
TEXT
  8
_1-4_
 62
    7
 10
317.14939069700443
 20
105.9212843146895
 40
2.5
 41
1
 50
0
  1
ハぜを必ず付けること
  0
TEXT
  8
_1-4_
 62
    7
 10
328.16098811783104
 20
62.319660841886247
 40
3
 41
1
 50
0
  1
谷樋
  0
LINE
  8
_1-4_
  6
CONTINUOUS
 62
    7
 10
230.89890539403143
 20
117.32240194962017
 11
197.06581921301375
 21
210.27803983940936
  0
ENDSEC
  0
EOF
