  0
SECTION
  2
HEADER
  9
$ACADVER
  1
AC1009
  9
$INSBASE
 10
0
 20
0
 30
0
  9
$EXTMIN
 10
0
 20
0
  9
$EXTMAX
 10
420
 20
297
  9
$LIMMIN
 10
0
 20
0
  9
$LIMMAX
 10
420
 20
297
  9
$LTSCALE
 40
1
  0
ENDSEC
  0
SECTION
  2
TABLES
  0
TABLE
  2
LTYPE
 70
     9
  0
LTYPE
  2
CONTINUOUS
 70
    64
  3
実線
 72
    65
 73
     0
 40
0.0
  0
LTYPE
  2
DASHED1
 70
    64
  3
--  --  --  --  --  --  --  --  
 72
    65
 73
     2
 40
2.5
 49
1.25
 49
-1.25
  0
LTYPE
  2
DASHED2
 70
    64
  3
----    ----    ----    ----    
 72
    65
 73
     2
 40
5.0
 49
2.5
 49
-2.5
  0
LTYPE
  2
DASHED3
 70
    64
  3
------  ------  ------  ------  
 72
    65
 73
     2
 40
5.0
 49
3.75
 49
-1.25
  0
LTYPE
  2
CENTER1
 70
    64
  3
----- - ----- - ----- - ----- - 
 72
    65
 73
     4
 40
10.0
 49
6.25
 49
-1.25
 49
1.25
 49
-1.25
  0
LTYPE
  2
CENTER2
 70
    64
  3
----------  --  ----------  --  
 72
    65
 73
     4
 40
20.0
 49
12.5
 49
-2.5
 49
2.5
 49
-2.5
  0
LTYPE
  2
PHANTOM1
 70
    64
  3
--- - - --- - - --- - - --- - - 
 72
    65
 73
     6
 40
10.0
 49
3.25
 49
-1.25
 49
1.25
 49
-1.25
 49
1.25
 49
-1.25
  0
LTYPE
  2
PHANTOM2
 70
    64
  3
--------  -  -  --------  -  -  
 72
    65
 73
     6
 40
20.0
 49
10.0
 49
-2.5
 49
1.25
 49
-2.5
 49
1.25
 49
-2.5
  0
LTYPE
  2
DOT
 70
    64
  3
-   -   -   -   -   -   -   -   
 72
    65
 73
     2
 40
2.5
 49
0.625
 49
-1.875
  0
LTYPE
  2
DUMMY
 70
    64
  3
ダミー
 72
    65
 73
     0
 40
0.0
  0
LTYPE
  2
RAND1
 70
    64
  3
ランダム線1
 72
    65
 73
     4
 40
10.0
 49
1.0
 49
-2.0
 49
3.0
 49
-4.0
  0
LTYPE
  2
RAND2
 70
    64
  3
ランダム線2
 72
    65
 73
     4
 40
14.0
 49
2.0
 49
-3.0
 49
4.0
 49
-5.0
  0
LTYPE
  2
RAND3
 70
    64
  3
ランダム線3
 72
    65
 73
     4
 40
18.0
 49
3.0
 49
-4.0
 49
5.0
 49
-6.0
  0
LTYPE
  2
RAND4
 70
    64
  3
ランダム線4
 72
    65
 73
     4
 40
22.0
 49
4.0
 49
-5.0
 49
6.0
 49
-7.0
  0
LTYPE
  2
RAND5
 70
    64
  3
ランダム線5
 72
    65
 73
     4
 40
26.0
 49
5.0
 49
-6.0
 49
7.0
 49
-8.0
  0
LTYPE
  2
LONG1
 70
    64
  3
----------  --  ----------  --  
 72
    65
 73
     4
 40
40.0
 49
32.5
 49
-2.5
 49
2.5
 49
-2.5
  0
LTYPE
  2
LONG2
 70
    64
  3
--------  -  -  --------  -  -  
 72
    65
 73
     6
 40
40.0
 49
30.0
 49
-2.5
 49
1.25
 49
-2.5
 49
1.25
 49
-2.5
  0
LTYPE
  2
LONG3
 70
    64
  3
+++++++++++++++..+++++++++++++++
 72
    65
 73
     2
 40
40.0
 49
37.5
 49
-2.5
  0
LTYPE
  2
LONG4
 70
    64
  3
+++++++++++++++..+++++++++++++++
 72
    65
 73
     2
 40
80.0
 49
75.0
 49
-5.0
  0
LTYPE
  2
LONG5
 70
    64
  3
----------  --  ----------  --  
 72
    65
 73
     4
 40
60.0
 49
37.5
 49
-7.5
 49
7.5
 49
-7.5
  0
LTYPE
  2
dashed
 70
   64
  3
-------   -------------   ------
 72
   65
 73
    2
 40
7.5
 49
6
 49
-1.5
  0
LTYPE
  2
dashed_spaced
 70
   64
  3
----        --------        ----
 72
   65
 73
    2
 40
12
 49
6
 49
-6
  0
LTYPE
  2
long_dashed_dotted
 70
   64
  3
------------- --- --------------
 72
   65
 73
    4
 40
15.25
 49
12
 49
-1.5
 49
0.25
 49
-1.5
  0
LTYPE
  2
long_dashed_double-dotted
 70
   64
  3
----------- --- --- ------------
 72
   65
 73
    6
 40
17
 49
12
 49
-1.5
 49
0.25
 49
-1.5
 49
0.25
 49
-1.5
  0
LTYPE
  2
long_dashed_triplicate-dotted
 70
   64
  3
--------- --- --- --- ----------
 72
   65
 73
    8
 40
18.75
 49
12
 49
-1.5
 49
0.25
 49
-1.5
 49
0.25
 49
-1.5
 49
0.25
 49
-1.5
  0
LTYPE
  2
dotted
 70
   64
  3
   -       -       -       -    
 72
   65
 73
    2
 40
1.75
 49
0.25
 49
-1.5
  0
LTYPE
  2
chain
 70
   64
  3
-------------- -- --------------
 72
   65
 73
    4
 40
18.5
 49
12
 49
-1.5
 49
3.5
 49
-1.5
  0
LTYPE
  2
chain_double_dash
 70
   64
  3
------------ -- -- -------------
 72
   65
 73
    6
 40
23.5
 49
12
 49
-1.5
 49
3.5
 49
-1.5
 49
3.5
 49
-1.5
  0
LTYPE
  2
dashed_dotted
 70
   64
  3
-----------     -     ----------
 72
   65
 73
    4
 40
9.25
 49
6
 49
-1.5
 49
0.25
 49
-1.5
  0
LTYPE
  2
double-dashed_dotted
 70
   64
  3
------   -----------   -   -----
 72
   65
 73
    6
 40
16.75
 49
6
 49
-1.5
 49
6
 49
-1.5
 49
0.25
 49
-1.5
  0
LTYPE
  2
dashed_double-dotted
 70
   64
  3
---------    -    -    ---------
 72
   65
 73
    6
 40
11
 49
6
 49
-1.5
 49
0.25
 49
-1.5
 49
0.25
 49
-1.5
  0
LTYPE
  2
double-dashed_double-dotted
 70
   64
  3
-----   ---------   -   -   ----
 72
   65
 73
    8
 40
18.5
 49
6
 49
-1.5
 49
6
 49
-1.5
 49
0.25
 49
-1.5
 49
0.25
 49
-1.5
  0
LTYPE
  2
dashed_triplicate-dotted
 70
   64
  3
-------    -    -    -    ------
 72
   65
 73
    8
 40
12.75
 49
6
 49
-1.5
 49
0.25
 49
-1.5
 49
0.25
 49
-1.5
 49
0.25
 49
-1.5
  0
LTYPE
  2
double-dashed_triplicate-dotted
 70
   64
  3
-----  ---------  -  -  -  -----
 72
   65
 73
   10
 40
20.25
 49
6
 49
-1.5
 49
6
 49
-1.5
 49
0.25
 49
-1.5
 49
0.25
 49
-1.5
 49
0.25
 49
-1.5
  0
LTYPE
  2
undefined
 70
   64
  3
--------------------------------
 72
   65
 73
    0
 40
0
  0
ENDTAB
  0
TABLE
  2
STYLE
  5
3
100
AcDbSymbolTable
 70
     1
  0
STYLE
  5
10
100
AcDbSymbolTableRecord
100
AcDbTextStyleTableRecord
  2
STANDARD
 70
     0
 40
0.0
 41
1.0
 50
0.0
 71
     0
 42
0.2
  3
txt
  4
bigfont.shx
  0
STYLE
  5
26
100
AcDbSymbolTableRecord
100
AcDbTextStyleTableRecord
  2
TATEGAKI
 70
    68
 40
0.0
 41
1.0
 50
0.0
 71
     0
 42
1.0
  3
txt
  4
bigfont.shx
  0
ENDTAB
  0
TABLE
  2
LAYER
 70
    7
  0
LAYER
  2
_0-0_
 70
   64
 62
    7
  6
CONTINUOUS
  0
LAYER
  2
_1-0_
 70
   64
 62
    7
  6
CONTINUOUS
  0
LAYER
  2
_1-1_
 70
   64
 62
    7
  6
CONTINUOUS
  0
LAYER
  2
_1-2_
 70
   64
 62
    7
  6
CONTINUOUS
  0
LAYER
  2
_1-3_
 70
   64
 62
    7
  6
CONTINUOUS
  0
LAYER
  2
_1-4_
 70
   64
 62
    7
  6
CONTINUOUS
  0
LAYER
  2
ADD_LINE
 70
   64
 62
    7
  6
CONTINUOUS
  0
ENDTAB
  0
ENDSEC
  0
SECTION
  2
BLOCKS
  0
ENDSEC
  0
SECTION
  2
ENTITIES
  0
LINE
  8
_0-0_
  6
CONTINUOUS
 62
    5
 10
6.7567526327597136
 20
280.13513513513516
 11
406.75677325274495
 21
280.13513513513516
  0
LINE
  8
_0-0_
  6
CONTINUOUS
 62
    5
 10
406.75677325274495
 20
10.13513513513513
 11
6.7567526327597136
 21
10.13513513513513
  0
LINE
  8
_0-0_
  6
CONTINUOUS
 62
    5
 10
406.75677325274495
 20
30.135133073136615
 11
6.7567402607685949
 21
30.135133073136615
  0
LINE
  8
_0-0_
  6
CONTINUOUS
 62
    5
 10
371.75678150073907
 20
10.13513513513513
 11
371.75678150073907
 21
30.135133073136615
  0
LINE
  8
_0-0_
  6
CONTINUOUS
 62
    5
 10
137.02703939901818
 20
30.135133073136615
 11
137.02703939901818
 21
10.13513513513513
  0
LINE
  8
_0-0_
  6
CONTINUOUS
 62
    5
 10
214.86486486486487
 20
30.135133073136615
 11
214.86486486486487
 21
10.13513513513513
  0
LINE
  8
_0-0_
  6
CONTINUOUS
 62
    5
 10
137.02703939901818
 20
20.135134104135886
 11
214.86486486486487
 21
20.135134104135886
  0
LINE
  8
_0-0_
  6
CONTINUOUS
 62
    5
 10
396.48648648648651
 20
25.945945945945951
 11
383.91891891891896
 21
13.378379924877265
  0
LINE
  8
_1-1_
  6
CONTINUOUS
 62
    7
 10
258.98969495618667
 20
132.72644867768159
 11
258.98969495618667
 21
133.32644075960727
  0
LINE
  8
_1-1_
  6
CONTINUOUS
 62
    7
 10
258.98969495618667
 20
133.32644075960727
 11
263.78968109955662
 21
133.32644075960727
  0
LINE
  8
_1-1_
  6
CONTINUOUS
 62
    7
 10
263.78968109955662
 20
133.32644075960727
 11
263.78968109955662
 21
132.72644867768159
  0
LINE
  8
_1-1_
  6
CONTINUOUS
 62
    7
 10
263.78968109955662
 20
132.72644867768159
 11
258.98969495618667
 21
132.72644867768159
  0
LINE
  8
_1-1_
  6
CONTINUOUS
 62
    7
 10
258.98969495618667
 20
132.72644867768159
 11
263.78968109955662
 21
133.32644075960727
  0
LINE
  8
_1-1_
  6
CONTINUOUS
 62
    7
 10
226.60860628695102
 20
132.72644867768159
 11
226.60860628695102
 21
133.32644075960727
  0
LINE
  8
_1-1_
  6
CONTINUOUS
 62
    7
 10
226.60860628695102
 20
133.32644075960727
 11
231.40859243032097
 21
133.32644075960727
  0
LINE
  8
_1-1_
  6
CONTINUOUS
 62
    7
 10
231.40859243032097
 20
133.32644075960727
 11
231.40859243032097
 21
132.72644867768159
  0
LINE
  8
_1-1_
  6
CONTINUOUS
 62
    7
 10
231.40859243032097
 20
132.72644867768159
 11
226.60860628695102
 21
132.72644867768159
  0
LINE
  8
_1-1_
  6
CONTINUOUS
 62
    7
 10
226.60860628695102
 20
132.72644867768159
 11
231.40859243032097
 21
133.32644075960727
  0
LINE
  8
_1-1_
  6
CONTINUOUS
 62
    7
 10
164.96857514252534
 20
132.72644867768159
 11
164.96857514252534
 21
133.32644075960727
  0
LINE
  8
_1-1_
  6
CONTINUOUS
 62
    7
 10
164.96857514252534
 20
133.32644075960727
 11
169.76856128589529
 21
133.32644075960727
  0
LINE
  8
_1-1_
  6
CONTINUOUS
 62
    7
 10
169.76856128589529
 20
133.32644075960727
 11
169.76856128589529
 21
132.72644867768159
  0
LINE
  8
_1-1_
  6
CONTINUOUS
 62
    7
 10
169.76856128589529
 20
132.72644867768159
 11
164.96857514252534
 21
132.72644867768159
  0
LINE
  8
_1-1_
  6
CONTINUOUS
 62
    7
 10
164.96857514252534
 20
132.72644867768159
 11
169.76856128589529
 21
133.32644075960727
  0
LINE
  8
_1-1_
  6
CONTINUOUS
 62
    7
 10
138.29307762352198
 20
136.32645065720018
 11
138.29307762352198
 21
133.32645313159841
  0
LINE
  8
_1-1_
  6
CONTINUOUS
 62
    7
 10
145.65000791807432
 20
132.72644867768159
 11
145.65000791807432
 21
133.32644075960727
  0
LINE
  8
_1-1_
  6
CONTINUOUS
 62
    7
 10
145.65000791807432
 20
133.32644075960727
 11
140.85007126266893
 21
133.32644075960727
  0
LINE
  8
_1-1_
  6
CONTINUOUS
 62
    7
 10
140.85007126266893
 20
133.32644075960727
 11
140.85007126266893
 21
132.72644867768159
  0
LINE
  8
_1-1_
  6
CONTINUOUS
 62
    7
 10
140.85007126266893
 20
132.72644867768159
 11
145.65000791807432
 21
132.72644867768159
  0
LINE
  8
_1-1_
  6
CONTINUOUS
 62
    7
 10
145.65000791807432
 20
132.72644867768159
 11
140.85007126266893
 21
133.32644075960727
  0
LINE
  8
_1-1_
  6
CONTINUOUS
 62
    3
 10
137.23804370777029
 20
132.47366415487755
 11
137.23804370777029
 21
136.32645065720018
  0
LINE
  8
_1-1_
  6
CONTINUOUS
 62
    3
 10
137.23804370777029
 20
136.32645065720018
 11
133.12925596494932
 21
136.32645065720018
  0
LINE
  8
_1-1_
  6
CONTINUOUS
 62
    3
 10
115.75873297614021
 20
162.47366415487755
 11
115.75873297614021
 21
158.96979254645271
  0
LINE
  8
_1-1_
  6
CONTINUOUS
 62
    3
 10
115.75873297614021
 20
162.47366415487755
 11
109.99001992715372
 21
162.47366415487755
  0
LINE
  8
_1-1_
  6
CONTINUOUS
 62
    3
 10
109.99001992715372
 20
132.47366415487755
 11
109.99001992715372
 21
162.47366415487755
  0
LINE
  8
_1-0_
  6
CONTINUOUS
 62
    3
 10
138.31500079180745
 20
156.28124752560177
 11
138.31500079180745
 21
150.88124455632391
  0
LINE
  8
_1-2_
  6
CONTINUOUS
 62
    3
 10
117.81498264622044
 20
159.88124950512037
 11
117.81498264622044
 21
156.28124752560177
  0
LINE
  8
_1-0_
  6
CONTINUOUS
 62
    3
 10
136.0947727512669
 20
163.21938592034419
 11
136.0947727512669
 21
157.8193829510663
  0
LINE
  8
_1-2_
  6
CONTINUOUS
 62
    3
 10
115.59475460567991
 20
166.81938789986276
 11
115.59475460567991
 21
163.21938592034419
  0
LINE
  8
_1-1_
  6
CONTINUOUS
 62
    3
 10
137.23804370777029
 20
132.47366415487755
 11
109.99001992715372
 21
132.47366415487755
  0
LINE
  8
_1-1_
  6
CONTINUOUS
 62
    7
 10
128.46006651182432
 20
165.98612192514781
 11
129.00057406038852
 21
168.93702738993878
  0
LINE
  8
_1-1_
  6
CONTINUOUS
 62
    7
 10
129.00057406038852
 20
168.93702738993878
 11
111.29511652766048
 21
172.18009742530617
  0
LINE
  8
_1-1_
  6
CONTINUOUS
 62
    7
 10
111.29511652766048
 20
172.18009742530617
 11
110.75460897909629
 21
169.22919196051521
  0
LINE
  8
_1-1_
  6
CONTINUOUS
 62
    7
 10
129.00057406038852
 20
168.93702738993878
 11
110.75460897909629
 21
169.22919196051521
  0
LINE
  8
_1-1_
  6
CONTINUOUS
 62
    3
 10
129.88442910684122
 20
169.1636204075169
 11
129.99399546030406
 21
165.54784413930534
  0
LINE
  8
_1-3_
  6
CONTINUOUS
 62
    7
 10
119.21165672508447
 20
169.64991389094172
 11
131.40638196790542
 21
203.15468865471919
  0
LINE
  8
_1-3_
  6
CONTINUOUS
 62
    7
 10
129.96618322423987
 20
167.13458911792654
 11
138.26363228462839
 21
189.93169011296453
  0
LINE
  8
_1-3_
  6
CONTINUOUS
 62
    7
 10
133.54089685388513
 20
161.62059062236065
 11
139.86773516680745
 21
179.00342374234586
  0
LINE
  8
_1-3_
  6
CONTINUOUS
 62
    7
 10
147.5093697212838
 20
165.87186658704604
 11
140.13556403082771
 21
145.61244655299831
  0
LINE
  8
_1-3_
  6
CONTINUOUS
 62
    7
 10
135.36289524387669
 20
154.33268366633234
 11
139.86773516680745
 21
179.00342374234586
  0
LINE
  8
_1-3_
  6
CONTINUOUS
 62
    7
 10
126.09335409628379
 20
133.70864868164062
 11
148.28890413851352
 21
72.726918813344597
  0
LINE
  8
_1-3_
  6
CONTINUOUS
 62
    7
 10
126.09335409628379
 20
133.70864868164062
 11
125.15201877903294
 21
132.41811391469597
  0
LINE
  8
_1-3_
  6
CONTINUOUS
 62
    7
 10
131.40638196790542
 20
203.15468865471919
 11
134.2034912109375
 21
203.15468865471919
  0
LINE
  8
_1-3_
  6
CONTINUOUS
 62
    7
 10
138.26363228462839
 20
189.93169011296453
 11
140.2474068306588
 21
189.93169011296453
  0
LINE
  8
_1-3_
  6
CONTINUOUS
 62
    7
 10
139.86773516680745
 20
179.00342374234586
 11
142.19005687816724
 21
179.00342374234586
  0
LINE
  8
_1-3_
  6
CONTINUOUS
 62
    7
 10
147.5093697212838
 20
165.87186658704604
 11
151.0400390625
 21
165.87186658704604
  0
LINE
  8
_1-3_
  6
CONTINUOUS
 62
    7
 10
148.28890413851352
 20
72.726918813344597
 11
157.34243032094597
 21
72.726918813344597
  0
LINE
  8
_1-1_
  6
CONTINUOUS
 62
    7
 10
149.82692821605787
 20
136.32645065720018
 11
138.29307762352198
 21
136.32645065720018
  0
LINE
  8
_1-1_
  6
CONTINUOUS
 62
    7
 10
140.13556403082771
 20
145.61244655299831
 11
132.11050909918708
 21
149.3699934675887
  0
LINE
  8
_1-1_
  6
CONTINUOUS
 62
    7
 10
149.82692821605787
 20
136.32645065720018
 11
346.21621621621625
 21
136.32645065720018
  0
LINE
  8
_1-1_
  6
CONTINUOUS
 62
    7
 10
138.29307762352198
 20
133.32645313159841
 11
346.21621621621625
 21
133.32645313159841
  0
LINE
  8
_1-1_
  6
CONTINUOUS
 62
    7
 10
140.85007126266893
 20
132.72644867768159
 11
346.21621621621625
 21
132.72644867768159
  0
LINE
  8
_1-1_
  6
CONTINUOUS
 62
    7
 10
346.21621621621625
 20
131.49927087732263
 11
108.85587950010559
 21
131.49927087732263
  0
LINE
  8
_1-3_
  6
CONTINUOUS
 62
    7
 10
260.30157140783365
 20
174.37440614442568
 11
245.90769999736065
 21
174.37440614442568
  0
LINE
  8
_1-3_
  6
CONTINUOUS
 62
    7
 10
260.53636705553208
 20
180.47896926467484
 11
248.12958588471284
 21
180.47896926467484
  0
LINE
  8
_1-3_
  6
CONTINUOUS
 62
    7
 10
260.30157140783365
 20
186.81832803262247
 11
250.43691274282097
 21
186.81832803262247
  0
LINE
  8
_1-3_
  6
CONTINUOUS
 62
    7
 10
259.83200485641891
 20
192.2185042097762
 11
252.40242622994089
 21
192.2185042097762
  0
LINE
  8
_1-2_
  6
CONTINUOUS
 62
    7
 10
80.588607788085938
 20
131.49927087732263
 11
80.588607788085938
 21
191.49927087732266
  0
LINE
  8
_1-2_
  6
CONTINUOUS
 62
    7
 10
92.432432432432435
 20
131.49927087732263
 11
80.588607788085938
 21
131.49927087732263
  0
LINE
  8
_1-2_
  6
CONTINUOUS
 62
    7
 10
92.432432432432435
 20
191.49927087732266
 11
80.588607788085938
 21
191.49927087732266
  0
LINE
  8
_1-1_
  6
CONTINUOUS
 62
    7
 10
108.85587950010559
 20
191.49927087732266
 11
113.85588362410263
 21
191.49927087732266
  0
LINE
  8
_1-1_
  6
CONTINUOUS
 62
    7
 10
113.85588362410263
 20
191.49927087732266
 11
113.85588362410263
 21
238.32203633076438
  0
LINE
  8
_1-1_
  6
CONTINUOUS
 62
    7
 10
109.89669799804687
 20
173.12942504882812
 11
109.89669799804687
 21
188.12942504882813
  0
LINE
  8
_1-1_
  6
CONTINUOUS
 62
    7
 10
109.89669799804687
 20
188.12942504882813
 11
112.89670789563979
 21
188.12942504882813
  0
LINE
  8
_1-1_
  6
CONTINUOUS
 62
    7
 10
112.89670789563979
 20
188.12942504882813
 11
112.89670789563979
 21
173.12942504882812
  0
LINE
  8
_1-1_
  6
CONTINUOUS
 62
    7
 10
112.89670789563979
 20
173.12942504882812
 11
109.89669799804687
 21
173.12942504882812
  0
LINE
  8
_1-1_
  6
CONTINUOUS
 62
    7
 10
109.89669799804687
 20
188.12942504882813
 11
112.89670789563979
 21
173.12942504882812
  0
LINE
  8
_1-1_
  6
CONTINUOUS
 62
    3
 10
113.08769432274072
 20
188.49927335172086
 11
113.08769432274072
 21
172.24023767419766
  0
LINE
  8
_1-1_
  6
CONTINUOUS
 62
    3
 10
129.88442910684122
 20
169.1636204075169
 11
113.08769432274072
 21
172.24023767419766
  0
LINE
  8
_1-1_
  6
DASHED1
 62
    3
 10
109.32042302312078
 20
131.99859206740922
 11
109.32042302312078
 21
191.49927087732266
  0
LINE
  8
_1-1_
  6
CONTINUOUS
 62
    3
 10
109.57291061813767
 20
188.49927335172086
 11
113.08769432274072
 21
188.49927335172086
  0
LINE
  8
_1-2_
  6
CONTINUOUS
 62
    3
 10
109.57291061813767
 20
188.49927335172086
 11
109.57291061813767
 21
191.49927087732266
  0
LINE
  8
_1-1_
  6
CONTINUOUS
 62
    3
 10
111.28321467219173
 20
188.49927335172086
 11
111.97232220623945
 21
189.18838088576859
  0
LINE
  8
_1-1_
  6
CONTINUOUS
 62
    3
 10
110.4346816604202
 20
188.49927335172086
 11
112.01238271352408
 21
190.07697440482477
  0
LINE
  8
_1-1_
  6
CONTINUOUS
 62
    3
 10
109.58616102063979
 20
188.49927335172086
 11
112.58615854624156
 21
191.49927087732266
  0
LINE
  8
_1-1_
  6
CONTINUOUS
 62
    3
 10
109.57291061813767
 20
189.33455596099029
 11
111.73762553447003
 21
191.49927087732266
  0
LINE
  8
_1-1_
  6
CONTINUOUS
 62
    3
 10
109.57291061813767
 20
190.1830766007707
 11
110.88910489468962
 21
191.49927087732266
  0
LINE
  8
_1-1_
  6
CONTINUOUS
 62
    3
 10
109.57291061813767
 20
191.03159724055112
 11
110.04058425490921
 21
191.49927087732266
  0
LINE
  8
_1-1_
  6
CONTINUOUS
 62
    7
 10
108.85587950010559
 20
191.49927087732266
 11
108.85587950010559
 21
131.49927087732263
  0
LINE
  8
_1-1_
  6
CONTINUOUS
 62
    7
 10
108.85587950010559
 20
107.49926592852619
 11
108.85587950010559
 21
75.207688615128802
  0
LINE
  8
_1-1_
  6
CONTINUOUS
 62
    7
 10
346.21621621621625
 20
107.49926592852619
 11
108.85587950010559
 21
107.49926592852619
  0
LINE
  8
_1-4_
  6
CONTINUOUS
 62
    7
 10
144.58265149915542
 20
125.49927582611909
 11
136.1826633762669
 21
125.49927582611909
  0
LINE
  8
_1-4_
  6
CONTINUOUS
 62
    7
 10
136.98266106682854
 20
131.49927087732263
 11
136.1826633762669
 21
125.49927582611909
  0
LINE
  8
_1-4_
  6
CONTINUOUS
 62
    7
 10
136.98266106682854
 20
131.49927087732263
 11
143.78265380859375
 21
131.49927087732263
  0
LINE
  8
_1-4_
  6
CONTINUOUS
 62
    7
 10
143.78265380859375
 20
131.49927087732263
 11
144.58265149915542
 21
125.49927582611909
  0
LINE
  8
_1-4_
  6
CONTINUOUS
 62
    7
 10
144.24417856577281
 20
125.49927582611909
 11
144.54282605970229
 21
125.79792332004857
  0
LINE
  8
_1-4_
  6
CONTINUOUS
 62
    7
 10
143.3956579259924
 20
125.49927582611909
 11
144.44300883525128
 21
126.54662673537797
  0
LINE
  8
_1-4_
  6
CONTINUOUS
 62
    7
 10
142.54712491422086
 20
125.49927582611909
 11
144.34317923880914
 21
127.29533015070736
  0
LINE
  8
_1-4_
  6
CONTINUOUS
 62
    7
 10
141.69859190244932
 20
125.49927582611909
 11
144.24334964236698
 21
128.04403356603675
  0
LINE
  8
_1-4_
  6
CONTINUOUS
 62
    7
 10
140.85005889067779
 20
125.49927582611909
 11
144.14352004592484
 21
128.79273698136615
  0
LINE
  8
_1-4_
  6
CONTINUOUS
 62
    7
 10
140.0015382508974
 20
125.49927582611909
 11
144.04370282147383
 21
129.54144039669552
  0
LINE
  8
_1-4_
  6
CONTINUOUS
 62
    7
 10
139.15299286713471
 20
125.49927582611909
 11
143.94387322503167
 21
130.29014381202492
  0
LINE
  8
_1-4_
  6
CONTINUOUS
 62
    7
 10
138.30447222735432
 20
125.49927582611909
 11
143.84404362858953
 21
131.03885959934544
  0
LINE
  8
_1-4_
  6
CONTINUOUS
 62
    7
 10
137.45593921558279
 20
125.49927582611909
 11
143.45593426678633
 21
131.49927087732263
  0
LINE
  8
_1-4_
  6
CONTINUOUS
 62
    7
 10
136.60740620381125
 20
125.49927582611909
 11
142.60741362700591
 21
131.49927087732263
  0
LINE
  8
_1-4_
  6
CONTINUOUS
 62
    7
 10
136.24786376953125
 20
125.98825403161952
 11
141.75886824324326
 21
131.49927087732263
  0
LINE
  8
_1-4_
  6
CONTINUOUS
 62
    7
 10
136.37840064796242
 20
126.96732392182221
 11
140.91034760346284
 21
131.49927087732263
  0
LINE
  8
_1-4_
  6
CONTINUOUS
 62
    7
 10
136.50894989838471
 20
127.94639381202492
 11
140.06182696368245
 21
131.49927087732263
  0
LINE
  8
_1-4_
  6
CONTINUOUS
 62
    7
 10
136.63948677681589
 20
128.92546370222763
 11
139.21329395191091
 21
131.49927087732263
  0
LINE
  8
_1-4_
  6
CONTINUOUS
 62
    7
 10
136.77002365524706
 20
129.90453359243034
 11
138.36476094013938
 21
131.49927087732263
  0
LINE
  8
_1-4_
  6
CONTINUOUS
 62
    7
 10
136.90057290566935
 20
130.88360348263302
 11
137.51624030035896
 21
131.49927087732263
  0
LINE
  8
_1-4_
  6
CONTINUOUS
 62
    7
 10
234.58265149915542
 20
125.49927582611909
 11
226.1826633762669
 21
125.49927582611909
  0
LINE
  8
_1-4_
  6
CONTINUOUS
 62
    7
 10
226.98268581081084
 20
131.49927087732263
 11
226.1826633762669
 21
125.49927582611909
  0
LINE
  8
_1-4_
  6
CONTINUOUS
 62
    7
 10
226.98268581081084
 20
131.49927087732263
 11
233.78267855257602
 21
131.49927087732263
  0
LINE
  8
_1-4_
  6
CONTINUOUS
 62
    7
 10
233.78267855257602
 20
131.49927087732263
 11
234.58265149915542
 21
125.49927582611909
  0
LINE
  8
_1-4_
  6
CONTINUOUS
 62
    7
 10
234.24420330975508
 20
125.49927582611909
 11
234.54283843169341
 21
125.79792332004857
  0
LINE
  8
_1-4_
  6
CONTINUOUS
 62
    7
 10
233.39568266997466
 20
125.49927582611909
 11
234.44302120724242
 21
126.54662673537797
  0
LINE
  8
_1-4_
  6
CONTINUOUS
 62
    7
 10
232.54713728621201
 20
125.49927582611909
 11
234.34317923880914
 21
127.29533015070736
  0
LINE
  8
_1-4_
  6
CONTINUOUS
 62
    7
 10
231.69859190244935
 20
125.49927582611909
 11
234.24336201435813
 21
128.04403356603675
  0
LINE
  8
_1-4_
  6
CONTINUOUS
 62
    7
 10
230.85007126266893
 20
125.49927582611909
 11
234.14354478990711
 21
128.79273698136615
  0
LINE
  8
_1-4_
  6
CONTINUOUS
 62
    7
 10
230.00155062288852
 20
125.49927582611909
 11
234.04372756545609
 21
129.54144039669552
  0
LINE
  8
_1-4_
  6
CONTINUOUS
 62
    7
 10
229.15300523912586
 20
125.49927582611909
 11
233.94388559702281
 21
130.29014381202492
  0
LINE
  8
_1-4_
  6
CONTINUOUS
 62
    7
 10
228.30448459934544
 20
125.49927582611909
 11
233.84404362858953
 21
131.03885959934544
  0
LINE
  8
_1-4_
  6
CONTINUOUS
 62
    7
 10
227.45593921558279
 20
125.49927582611909
 11
233.45595901076859
 21
131.49927087732263
  0
LINE
  8
_1-4_
  6
CONTINUOUS
 62
    7
 10
226.60741857580237
 20
125.49927582611909
 11
232.60743837098818
 21
131.49927087732263
  0
LINE
  8
_1-4_
  6
CONTINUOUS
 62
    7
 10
226.24788851351352
 20
125.98825403161952
 11
231.75886824324326
 21
131.49927087732263
  0
LINE
  8
_1-4_
  6
CONTINUOUS
 62
    7
 10
226.37841301995357
 20
126.96732392182221
 11
230.91034760346284
 21
131.49927087732263
  0
LINE
  8
_1-4_
  6
CONTINUOUS
 62
    7
 10
226.50896227037586
 20
127.94639381202492
 11
230.06182696368245
 21
131.49927087732263
  0
LINE
  8
_1-4_
  6
CONTINUOUS
 62
    7
 10
226.63948677681589
 20
128.92546370222763
 11
229.21330632390203
 21
131.49927087732263
  0
LINE
  8
_1-4_
  6
CONTINUOUS
 62
    7
 10
226.77003602723818
 20
129.90453359243034
 11
228.36478568412164
 21
131.49927087732263
  0
LINE
  8
_1-4_
  6
CONTINUOUS
 62
    7
 10
226.9005852776605
 20
130.88360348263302
 11
227.51626504434122
 21
131.49927087732263
  0
LINE
  8
_1-4_
  6
CONTINUOUS
 62
    7
 10
324.58265149915542
 20
125.49927582611909
 11
316.18266337626693
 21
125.49927582611909
  0
LINE
  8
_1-4_
  6
CONTINUOUS
 62
    7
 10
316.98268581081084
 20
131.49927087732263
 11
316.18266337626693
 21
125.49927582611909
  0
LINE
  8
_1-4_
  6
CONTINUOUS
 62
    7
 10
316.98268581081084
 20
131.49927087732263
 11
323.78267855257604
 21
131.49927087732263
  0
LINE
  8
_1-4_
  6
CONTINUOUS
 62
    7
 10
323.78267855257604
 20
131.49927087732263
 11
324.58265149915542
 21
125.49927582611909
  0
LINE
  8
_1-4_
  6
CONTINUOUS
 62
    7
 10
324.24420330975511
 20
125.49927582611909
 11
324.54283843169344
 21
125.79792332004857
  0
LINE
  8
_1-4_
  6
CONTINUOUS
 62
    7
 10
323.39568266997469
 20
125.49927582611909
 11
324.4430212072424
 21
126.54662673537797
  0
LINE
  8
_1-4_
  6
CONTINUOUS
 62
    7
 10
322.54713728621203
 20
125.49927582611909
 11
324.34317923880911
 21
127.29533015070736
  0
LINE
  8
_1-4_
  6
CONTINUOUS
 62
    7
 10
321.69859190244932
 20
125.49927582611909
 11
324.24336201435813
 21
128.04403356603675
  0
LINE
  8
_1-4_
  6
CONTINUOUS
 62
    7
 10
320.85007126266896
 20
125.49927582611909
 11
324.14354478990714
 21
128.79273698136615
  0
LINE
  8
_1-4_
  6
CONTINUOUS
 62
    7
 10
320.00155062288854
 20
125.49927582611909
 11
324.04372756545609
 21
129.54144039669552
  0
LINE
  8
_1-4_
  6
CONTINUOUS
 62
    7
 10
319.15300523912589
 20
125.49927582611909
 11
323.94388559702281
 21
130.29014381202492
  0
LINE
  8
_1-4_
  6
CONTINUOUS
 62
    7
 10
318.30448459934547
 20
125.49927582611909
 11
323.84404362858953
 21
131.03885959934544
  0
LINE
  8
_1-4_
  6
CONTINUOUS
 62
    7
 10
317.45593921558276
 20
125.49927582611909
 11
323.45595901076859
 21
131.49927087732263
  0
LINE
  8
_1-4_
  6
CONTINUOUS
 62
    7
 10
316.6074185758024
 20
125.49927582611909
 11
322.60743837098818
 21
131.49927087732263
  0
LINE
  8
_1-4_
  6
CONTINUOUS
 62
    7
 10
316.24788851351354
 20
125.98825403161952
 11
321.75886824324328
 21
131.49927087732263
  0
LINE
  8
_1-4_
  6
CONTINUOUS
 62
    7
 10
316.37841301995354
 20
126.96732392182221
 11
320.91034760346287
 21
131.49927087732263
  0
LINE
  8
_1-4_
  6
CONTINUOUS
 62
    7
 10
316.50896227037589
 20
127.94639381202492
 11
320.06182696368245
 21
131.49927087732263
  0
LINE
  8
_1-4_
  6
CONTINUOUS
 62
    7
 10
316.63948677681589
 20
128.92546370222763
 11
319.21330632390203
 21
131.49927087732263
  0
LINE
  8
_1-4_
  6
CONTINUOUS
 62
    7
 10
316.77003602723818
 20
129.90453359243034
 11
318.36478568412161
 21
131.49927087732263
  0
LINE
  8
_1-4_
  6
CONTINUOUS
 62
    7
 10
316.90058527766047
 20
130.88360348263302
 11
317.51626504434125
 21
131.49927087732263
  0
LINE
  8
_1-4_
  6
CONTINUOUS
 62
    7
 10
115.04747957796664
 20
189.85573845940669
 11
124.41583581872889
 21
215.59510926942568
  0
LINE
  8
_1-4_
  6
CONTINUOUS
 62
    7
 10
115.04747957796664
 20
189.85573845940669
 11
111.50839728278083
 21
189.85573845940669
  0
LINE
  8
_1-4_
  6
CONTINUOUS
 62
    7
 10
124.41583581872889
 20
215.59510926942568
 11
127.33016967773437
 21
215.59510926942568
  0
LINE
  8
_1-4_
  6
CONTINUOUS
 62
    7
 10
176.6911604597762
 20
131.49927087732263
 11
152.69115551097974
 21
107.49926592852619
  0
LINE
  8
_1-4_
  6
CONTINUOUS
 62
    7
 10
174.42842225770693
 20
131.49927087732263
 11
150.42841730891047
 21
107.49926592852619
  0
LINE
  8
_1-4_
  6
CONTINUOUS
 62
    7
 10
178.95389866184544
 20
131.49927087732263
 11
154.95389371304898
 21
107.49926592852619
  0
LINE
  8
_1-4_
  6
CONTINUOUS
 62
    7
 10
296.21466559332771
 20
131.49927087732263
 11
272.21466064453125
 21
107.49926592852619
  0
LINE
  8
_1-4_
  6
CONTINUOUS
 62
    7
 10
293.95192739125844
 20
131.49927087732263
 11
269.95192244246203
 21
107.49926592852619
  0
LINE
  8
_1-4_
  6
CONTINUOUS
 62
    7
 10
291.68918918918922
 20
131.49927087732263
 11
267.68918424039276
 21
107.49926592852619
  0
LINE
  8
_1-4_
  6
CONTINUOUS
 62
    7
 10
90
 20
199.62915368982266
 11
113.85588362410263
 21
223.48502494193414
  0
LINE
  8
_1-4_
  6
CONTINUOUS
 62
    7
 10
90
 20
201.8918918918919
 11
113.85588362410263
 21
225.74778788798565
  0
LINE
  8
_1-4_
  6
CONTINUOUS
 62
    7
 10
90
 20
204.15463009396117
 11
113.85588362410263
 21
228.01050134607266
  0
LINE
  8
_1-3_
  6
CONTINUOUS
 62
    7
 10
229.21753754486909
 20
128.51856128589529
 11
254.6243121172931
 21
198.32306733002534
  0
LINE
  8
_1-3_
  6
CONTINUOUS
 62
    7
 10
259.83200485641891
 20
198.32306733002534
 11
254.6243121172931
 21
198.32306733002534
  0
LINE
  8
_1-0_
  6
CONTINUOUS
 62
    3
 10
169.95743210251268
 20
146.16986661343961
 11
171.34690568253802
 21
146.16986661343961
  0
LINE
  8
_1-0_
  6
CONTINUOUS
 62
    3
 10
110.34685289537585
 20
145.82708822714318
 11
110.34685289537585
 21
143.02713342615075
  0
LINE
  8
_1-0_
  6
CONTINUOUS
 62
    3
 10
114.91931812183277
 20
145.39577587230787
 11
110.34685289537585
 21
143.02713342615075
  0
LINE
  8
_1-0_
  6
CONTINUOUS
 62
    3
 10
171.34690568253802
 20
146.16986661343961
 11
171.34690568253802
 21
142.98863178974875
  0
LINE
  8
_1-0_
  6
CONTINUOUS
 62
    3
 10
171.34690568253802
 20
146.16986661343961
 11
171.34690568253802
 21
142.98863178974875
  0
LINE
  8
_1-0_
  6
CONTINUOUS
 62
    3
 10
169.01849695154141
 20
149.05205803948482
 11
163.34685454497466
 21
145.82708822714318
  0
LINE
  8
_1-0_
  6
CONTINUOUS
 62
    3
 10
222.95743375211151
 20
146.16985424144849
 11
224.34693207611909
 21
146.16985424144849
  0
LINE
  8
_1-0_
  6
CONTINUOUS
 62
    3
 10
163.34685454497466
 20
145.82708822714318
 11
163.34685454497466
 21
143.02713342615075
  0
LINE
  8
_1-0_
  6
CONTINUOUS
 62
    3
 10
167.91931977143159
 20
145.39576350031672
 11
163.34685454497466
 21
143.02713342615075
  0
LINE
  8
_1-0_
  6
CONTINUOUS
 62
    3
 10
224.34693207611909
 20
146.16985424144849
 11
224.34693207611909
 21
142.98863178974875
  0
LINE
  8
_1-0_
  6
CONTINUOUS
 62
    3
 10
224.34693207611909
 20
146.16985424144849
 11
224.34693207611909
 21
142.98863178974875
  0
LINE
  8
_1-0_
  6
CONTINUOUS
 62
    3
 10
224.34693207611909
 20
142.38532401419977
 11
224.34693207611909
 21
142.34664916992187
  0
LINE
  8
_1-0_
  6
CONTINUOUS
 62
    3
 10
222.95750798405828
 20
146.16986661343961
 11
224.34698156408362
 21
146.16986661343961
  0
LINE
  8
_1-0_
  6
CONTINUOUS
 62
    3
 10
224.34698156408362
 20
146.16986661343961
 11
224.34698156408362
 21
142.98863178974875
  0
LINE
  8
_1-0_
  6
CONTINUOUS
 62
    3
 10
224.34698156408362
 20
146.16986661343961
 11
224.34698156408362
 21
142.98863178974875
  0
LINE
  8
_1-0_
  6
CONTINUOUS
 62
    3
 10
222.01857283308701
 20
149.05204566749367
 11
216.34690568253802
 21
145.82708822714318
  0
LINE
  8
_1-0_
  6
CONTINUOUS
 62
    3
 10
216.34690568253802
 20
145.82708822714318
 11
216.34690568253802
 21
143.02713342615075
  0
LINE
  8
_1-0_
  6
CONTINUOUS
 62
    3
 10
220.91937090899495
 20
145.39577587230787
 11
216.34690568253802
 21
143.02713342615075
  0
LINE
  8
_1-0_
  6
CONTINUOUS
 62
    3
 10
277.34695846970021
 20
146.16986661343961
 11
277.34695846970021
 21
142.98863178974875
  0
LINE
  8
_1-0_
  6
CONTINUOUS
 62
    3
 10
277.34695846970021
 20
146.16986661343961
 11
277.34695846970021
 21
142.98863178974875
  0
LINE
  8
_1-0_
  6
CONTINUOUS
 62
    3
 10
116.01852004592483
 20
149.05204566749367
 11
110.34685289537585
 21
145.82708822714318
  0
LINE
  8
_1-0_
  6
CONTINUOUS
 62
    3
 10
275.01854973870354
 20
149.05204566749367
 11
269.34690733213682
 21
145.82708822714318
  0
LINE
  8
_1-0_
  6
CONTINUOUS
 62
    3
 10
328.95748653927365
 20
146.16986661343961
 11
330.34698486328125
 21
146.16986661343961
  0
LINE
  8
_1-0_
  6
CONTINUOUS
 62
    3
 10
269.34690733213682
 20
145.82708822714318
 11
269.34690733213682
 21
143.02713342615075
  0
LINE
  8
_1-0_
  6
CONTINUOUS
 62
    3
 10
273.91937255859375
 20
145.39577587230787
 11
269.34690733213682
 21
143.02713342615075
  0
LINE
  8
_1-0_
  6
CONTINUOUS
 62
    3
 10
330.34698486328125
 20
146.16986661343961
 11
330.34698486328125
 21
142.98863178974875
  0
LINE
  8
_1-0_
  6
CONTINUOUS
 62
    3
 10
330.34698486328125
 20
146.16986661343961
 11
330.34698486328125
 21
142.98863178974875
  0
LINE
  8
_1-0_
  6
CONTINUOUS
 62
    3
 10
328.0185513883024
 20
149.05204566749367
 11
322.34690898173568
 21
145.82708822714318
  0
LINE
  8
_1-0_
  6
CONTINUOUS
 62
    3
 10
322.34690898173568
 20
145.82708822714318
 11
322.34690898173568
 21
143.02713342615075
  0
LINE
  8
_1-0_
  6
CONTINUOUS
 62
    3
 10
326.91937420819261
 20
145.39577587230787
 11
322.34690898173568
 21
143.02713342615075
  0
LINE
  8
_1-0_
  6
CONTINUOUS
 62
    3
 10
275.95746014569261
 20
146.16986661343961
 11
277.34695846970021
 21
146.16986661343961
  0
LINE
  8
_1-4_
  6
DASHED1
 62
    7
 10
144.54282605970229
 20
125.79792332004857
 11
226.1826633762669
 21
125.49927582611909
  0
LINE
  8
_1-4_
  6
DASHED1
 62
    7
 10
234.58265149915542
 20
125.49927582611909
 11
316.18266337626693
 21
125.49927582611909
  0
LINE
  8
_1-4_
  6
DASHED1
 62
    7
 10
324.54283843169344
 20
125.79792332004857
 11
345.7908919050887
 21
125.79792332004857
  0
LINE
  8
_1-4_
  6
DASHED1
 62
    7
 10
136.60740620381125
 20
125.49927582611909
 11
108.85587950010559
 21
125.49927582611909
  0
LINE
  8
_1-4_
  6
DASHED1
 62
    7
 10
108.85587950010559
 20
131.49927087732263
 11
108.85587950010559
 21
125.49927582611909
  0
ARC
  8
_1-0_
  6
CONTINUOUS
 62
    3
 10
117.81498264622044
 20
114.66923069309544
 40
41.612016832506335
 50
60.485351562499993
 51
90
  0
ARC
  8
_1-0_
  6
CONTINUOUS
 62
    3
 10
117.81498264622044
 20
99.713225493559975
 40
60.168024011560391
 50
70.079711914062528
 51
90.000000000000028
  0
ARC
  8
_1-0_
  6
CONTINUOUS
 62
    3
 10
115.59475460567991
 20
121.60736908783784
 40
41.612016832506335
 50
60.485351562499993
 51
90
  0
ARC
  8
_1-0_
  6
CONTINUOUS
 62
    3
 10
115.59475460567991
 20
106.65136388830237
 40
60.168024011560391
 50
70.079711914062528
 51
90.000000000000028
  0
ARC
  8
_1-4_
  6
CONTINUOUS
 62
    5
 10
136.65096798458615
 20
158.13208502692146
 40
2.2994091704085067
 50
165.33238220214841
 51
194.86663818359372
  0
CIRCLE
  8
_1-2_
  6
CONTINUOUS
 62
    7
 10
128.63535288217906
 20
151.13404145111909
 40
0.2324253240147152
  0
CIRCLE
  8
_1-2_
  6
CONTINUOUS
 62
    7
 10
124.19781659100508
 20
151.79145194388727
 40
0.2324253240147152
  0
CIRCLE
  8
_1-2_
  6
CONTINUOUS
 62
    7
 10
122.55427180109798
 20
151.79145194388727
 40
0.2324253240147152
  0
CIRCLE
  8
_1-2_
  6
CONTINUOUS
 62
    7
 10
123.211669921875
 20
148.17567567567568
 40
0.2324253240147152
  0
CIRCLE
  8
_1-2_
  6
CONTINUOUS
 62
    7
 10
116.37459832268793
 20
145.01069764833193
 40
0.2324253240147152
  0
CIRCLE
  8
_1-2_
  6
CONTINUOUS
 62
    7
 10
118.18249264278928
 20
144.1889376253695
 40
0.2324253240147152
  0
CIRCLE
  8
_1-2_
  6
CONTINUOUS
 62
    7
 10
130.60759673247466
 20
150.96969192092484
 40
0.2324253240147152
  0
CIRCLE
  8
_1-2_
  6
CONTINUOUS
 62
    7
 10
131.10064532305745
 20
152.1201633762669
 40
0.2324253240147152
  0
CIRCLE
  8
_1-2_
  6
CONTINUOUS
 62
    7
 10
125.18391377217061
 20
153.92805769636826
 40
0.2324253240147152
  0
CIRCLE
  8
_1-2_
  6
CONTINUOUS
 62
    7
 10
121.40380034575593
 20
154.74981771933068
 40
0.2324253240147152
  0
CIRCLE
  8
_1-2_
  6
CONTINUOUS
 62
    7
 10
126.66310903188345
 20
153.76369579418287
 40
0.2324253240147152
  0
CIRCLE
  8
_1-2_
  6
CONTINUOUS
 62
    7
 10
120.25332889041385
 20
149.98356999577703
 40
0.2324253240147152
  0
CIRCLE
  8
_1-2_
  6
CONTINUOUS
 62
    7
 10
119.59590602565457
 20
151.627102413693
 40
0.2324253240147152
  0
CIRCLE
  8
_1-2_
  6
CONTINUOUS
 62
    7
 10
117.29496311497044
 20
153.27063483160896
 40
0.2324253240147152
  0
CIRCLE
  8
_1-2_
  6
CONTINUOUS
 62
    7
 10
117.62366217535896
 20
153.76369579418287
 40
0.2324253240147152
  0
CIRCLE
  8
_1-2_
  6
CONTINUOUS
 62
    7
 10
116.14449165962839
 20
154.58546818913641
 40
0.2324253240147152
  0
CIRCLE
  8
_1-2_
  6
CONTINUOUS
 62
    7
 10
115.65141832506335
 20
156.22900060705237
 40
0.2324253240147152
  0
CIRCLE
  8
_1-2_
  6
CONTINUOUS
 62
    7
 10
129.12840147276182
 20
160.33783783783784
 40
0.2324253240147152
  0
CIRCLE
  8
_1-2_
  6
CONTINUOUS
 62
    7
 10
131.10064532305745
 20
159.68042734506969
 40
0.2324253240147152
  0
CIRCLE
  8
_1-2_
  6
CONTINUOUS
 62
    7
 10
132.74419011296453
 20
159.02301685230154
 40
0.2324253240147152
  0
CIRCLE
  8
_1-2_
  6
CONTINUOUS
 62
    7
 10
127.64925570101352
 20
159.5160654428843
 40
0.2324253240147152
  0
CIRCLE
  8
_1-2_
  6
CONTINUOUS
 62
    7
 10
124.36216612119934
 20
160.33783783783784
 40
0.2324253240147152
  0
CIRCLE
  8
_1-2_
  6
CONTINUOUS
 62
    7
 10
126.17003569731843
 20
161.32395976298565
 40
0.2324253240147152
  0
CIRCLE
  8
_1-2_
  6
CONTINUOUS
 62
    7
 10
126.66310903188345
 20
160.83089880041175
 40
0.2324253240147152
  0
CIRCLE
  8
_1-2_
  6
CONTINUOUS
 62
    7
 10
125.34828804634714
 20
160.33783783783784
 40
0.2324253240147152
  0
CIRCLE
  8
_1-2_
  6
CONTINUOUS
 62
    7
 10
122.55427180109798
 20
161.65267119536529
 40
0.2324253240147152
  0
CIRCLE
  8
_1-2_
  6
CONTINUOUS
 62
    7
 10
121.2394260715794
 20
161.4883092931799
 40
0.2324253240147152
  0
CIRCLE
  8
_1-2_
  6
CONTINUOUS
 62
    7
 10
119.92460508604309
 20
160.99526070259714
 40
0.2324253240147152
  0
CIRCLE
  8
_1-2_
  6
CONTINUOUS
 62
    7
 10
118.28108504011826
 20
161.15961023279141
 40
0.2324253240147152
  0
CIRCLE
  8
_1-2_
  6
CONTINUOUS
 62
    7
 10
117.13058884079392
 20
161.9813702557538
 40
0.2324253240147152
  0
CIRCLE
  8
_1-2_
  6
CONTINUOUS
 62
    7
 10
113.35047541437923
 20
163.78926457585516
 40
0.2324253240147152
  0
CIRCLE
  8
_1-2_
  6
CONTINUOUS
 62
    7
 10
114.50094686972129
 20
163.78926457585516
 40
0.2324253240147152
  0
CIRCLE
  8
_1-2_
  6
CONTINUOUS
 62
    7
 10
114.50094686972129
 20
163.95361410604943
 40
0.2324253240147152
  0
CIRCLE
  8
_1-2_
  6
CONTINUOUS
 62
    7
 10
114.17224780933277
 20
164.77538650100297
 40
0.2324253240147152
  0
CIRCLE
  8
_1-2_
  6
CONTINUOUS
 62
    7
 10
116.80188978040542
 20
160.83089880041175
 40
0.2324253240147152
  0
CIRCLE
  8
_1-2_
  6
CONTINUOUS
 62
    7
 10
117.13058884079392
 20
159.5160654428843
 40
0.2324253240147152
  0
CIRCLE
  8
_1-2_
  6
CONTINUOUS
 62
    7
 10
120.74637748099663
 20
153.10628530141472
 40
0.2324253240147152
  0
CIRCLE
  8
_1-2_
  6
CONTINUOUS
 62
    7
 10
123.37604419605152
 20
153.10628530141472
 40
0.2324253240147152
  0
CIRCLE
  8
_1-2_
  6
CONTINUOUS
 62
    7
 10
129.29275100295609
 20
153.92805769636826
 40
0.2324253240147152
  0
CIRCLE
  8
_1-2_
  6
CONTINUOUS
 62
    7
 10
127.15615762246622
 20
152.77757386903505
 40
0.2324253240147152
  0
CIRCLE
  8
_1-2_
  6
CONTINUOUS
 62
    7
 10
128.14225480363177
 20
152.1201633762669
 40
0.2324253240147152
  0
CIRCLE
  8
_1-2_
  6
CONTINUOUS
 62
    7
 10
124.52651565139359
 20
150.31226905616555
 40
0.2324253240147152
  0
CIRCLE
  8
_1-2_
  6
CONTINUOUS
 62
    7
 10
121.73249940614443
 20
148.66873663824958
 40
0.2324253240147152
  0
CIRCLE
  8
_1-2_
  6
CONTINUOUS
 62
    7
 10
126.49875950168919
 20
150.64098048854518
 40
0.2324253240147152
  0
CIRCLE
  8
_1-2_
  6
CONTINUOUS
 62
    7
 10
122.22557274070947
 20
155.24287868190456
 40
0.2324253240147152
  0
CIRCLE
  8
_1-2_
  6
CONTINUOUS
 62
    7
 10
124.52651565139359
 20
154.42110628695102
 40
0.2324253240147152
  0
CIRCLE
  8
_1-2_
  6
CONTINUOUS
 62
    7
 10
115.22410212336361
 20
143.69586429080448
 40
0.2324253240147152
  0
CIRCLE
  8
_1-2_
  6
CONTINUOUS
 62
    7
 10
119.57107543945312
 20
145.30815743111276
 40
0.2324253240147152
  0
CIRCLE
  8
_1-2_
  6
CONTINUOUS
 62
    7
 10
124.98655576963684
 20
149.31627428209461
 40
0.2324253240147152
  0
CIRCLE
  8
_1-2_
  6
CONTINUOUS
 62
    7
 10
118.116735509924
 20
150.96969192092484
 40
0.2324253240147152
  0
CIRCLE
  8
_1-2_
  6
CONTINUOUS
 62
    7
 10
118.116735509924
 20
152.1201633762669
 40
0.2324253240147152
  0
CIRCLE
  8
_1-2_
  6
CONTINUOUS
 62
    7
 10
118.116735509924
 20
153.27063483160896
 40
0.2324253240147152
  0
CIRCLE
  8
_1-2_
  6
CONTINUOUS
 62
    7
 10
118.4454345703125
 20
154.42110628695102
 40
0.2324253240147152
  0
CIRCLE
  8
_1-2_
  6
CONTINUOUS
 62
    7
 10
118.77413363070102
 20
154.74981771933068
 40
0.2324253240147152
  0
CIRCLE
  8
_1-2_
  6
CONTINUOUS
 62
    7
 10
119.76025555584883
 20
154.74981771933068
 40
0.2324253240147152
  0
CIRCLE
  8
_1-2_
  6
CONTINUOUS
 62
    7
 10
121.07507654138514
 20
153.10628530141472
 40
0.2324253240147152
  0
CIRCLE
  8
_1-2_
  6
CONTINUOUS
 62
    7
 10
122.71862133129224
 20
153.92805769636826
 40
0.2324253240147152
  0
CIRCLE
  8
_1-2_
  6
CONTINUOUS
 62
    7
 10
123.8690927866343
 20
149.98356999577703
 40
0.2324253240147152
  0
CIRCLE
  8
_1-2_
  6
CONTINUOUS
 62
    7
 10
123.70474325644004
 20
149.49050903320312
 40
0.2324253240147152
  0
CIRCLE
  8
_1-2_
  6
CONTINUOUS
 62
    7
 10
121.56814987595017
 20
150.80533001873945
 40
0.2324253240147152
  0
CIRCLE
  8
_1-2_
  6
CONTINUOUS
 62
    7
 10
126.00568616712417
 20
150.80533001873945
 40
0.2324253240147152
  0
CIRCLE
  8
_1-2_
  6
CONTINUOUS
 62
    7
 10
131.00979779217695
 20
148.93550151103253
 40
0.2324253240147152
  0
CIRCLE
  8
_1-2_
  6
CONTINUOUS
 62
    7
 10
131.33854634053
 20
148.93550151103253
 40
0.2324253240147152
  0
CIRCLE
  8
_1-2_
  6
CONTINUOUS
 62
    7
 10
131.75804344383448
 20
149.98356999577703
 40
0.2324253240147152
  0
CIRCLE
  8
_1-2_
  6
CONTINUOUS
 62
    7
 10
131.26499485325169
 20
151.79145194388727
 40
0.2324253240147152
  0
CIRCLE
  8
_1-2_
  6
CONTINUOUS
 62
    7
 10
131.26499485325169
 20
152.1201633762669
 40
0.2324253240147152
  0
CIRCLE
  8
_1-2_
  6
CONTINUOUS
 62
    7
 10
116.28538389463684
 20
152.25634188265414
 40
0.2324253240147152
  0
CIRCLE
  8
_1-2_
  6
CONTINUOUS
 62
    7
 10
116.8676469132707
 20
145.83247004328547
 40
0.2324253240147152
  0
CIRCLE
  8
_1-2_
  6
CONTINUOUS
 62
    7
 10
116.7784324852196
 20
150.61280946473818
 40
0.2324253240147152
  0
CIRCLE
  8
_1-2_
  6
CONTINUOUS
 62
    7
 10
112.30694745038008
 20
159.5223380423881
 40
0.2324253240147152
  0
CIRCLE
  8
_1-2_
  6
CONTINUOUS
 62
    7
 10
111.15645125105576
 20
158.20750468486065
 40
0.2324253240147152
  0
CIRCLE
  8
_1-2_
  6
CONTINUOUS
 62
    7
 10
111.97824838999156
 20
160.34411043734164
 40
0.2324253240147152
  0
CIRCLE
  8
_1-2_
  6
CONTINUOUS
 62
    7
 10
112.79999604096284
 20
160.34411043734164
 40
0.2324253240147152
  0
CIRCLE
  8
_1-2_
  6
CONTINUOUS
 62
    7
 10
114.7255479967272
 20
157.43355003563136
 40
0.2324253240147152
  0
CIRCLE
  8
_1-2_
  6
CONTINUOUS
 62
    7
 10
113.57505179740288
 20
156.11871667810388
 40
0.2324253240147152
  0
CIRCLE
  8
_1-2_
  6
CONTINUOUS
 62
    7
 10
114.39684893633869
 20
158.2553224305849
 40
0.2324253240147152
  0
CIRCLE
  8
_1-2_
  6
CONTINUOUS
 62
    7
 10
115.21859658730997
 20
158.2553224305849
 40
0.2324253240147152
  0
CIRCLE
  8
_1-2_
  6
CONTINUOUS
 62
    7
 10
117.14416091506546
 20
141.6026594832137
 40
0.2324253240147152
  0
CIRCLE
  8
_1-2_
  6
CONTINUOUS
 62
    7
 10
115.99366471574113
 20
140.28782612568625
 40
0.2324253240147152
  0
CIRCLE
  8
_1-2_
  6
CONTINUOUS
 62
    7
 10
116.81546185467695
 20
142.42443187816724
 40
0.2324253240147152
  0
CIRCLE
  8
_1-2_
  6
CONTINUOUS
 62
    7
 10
117.63720950564823
 20
142.42443187816724
 40
0.2324253240147152
  0
CIRCLE
  8
_1-2_
  6
CONTINUOUS
 62
    7
 10
118.02364864864866
 20
142.48214721679687
 40
0.2324253240147152
  0
CIRCLE
  8
_1-2_
  6
CONTINUOUS
 62
    7
 10
116.87315244932434
 20
141.16731385926943
 40
0.2324253240147152
  0
CIRCLE
  8
_1-2_
  6
CONTINUOUS
 62
    7
 10
117.69494958826014
 20
143.30391961175042
 40
0.2324253240147152
  0
CIRCLE
  8
_1-2_
  6
CONTINUOUS
 62
    7
 10
118.51669723923142
 20
143.30391961175042
 40
0.2324253240147152
  0
CIRCLE
  8
_1-2_
  6
CONTINUOUS
 62
    7
 10
114.7255479967272
 20
144.57094759554477
 40
0.2324253240147152
  0
CIRCLE
  8
_1-2_
  6
CONTINUOUS
 62
    7
 10
113.57505179740288
 20
143.25611423801732
 40
0.2324253240147152
  0
CIRCLE
  8
_1-2_
  6
CONTINUOUS
 62
    7
 10
114.61561048353042
 20
149.18828603383659
 40
0.2324253240147152
  0
CIRCLE
  8
_1-2_
  6
CONTINUOUS
 62
    7
 10
113.46511428420608
 20
147.87345267630914
 40
0.2324253240147152
  0
CIRCLE
  8
_1-2_
  6
CONTINUOUS
 62
    7
 10
114.2869114231419
 20
150.01005842879013
 40
0.2324253240147152
  0
CIRCLE
  8
_1-2_
  6
CONTINUOUS
 62
    7
 10
115.10865907411318
 20
150.01005842879013
 40
0.2324253240147152
  0
CIRCLE
  8
_1-2_
  6
CONTINUOUS
 62
    7
 10
114.50567297033362
 20
151.71683646537164
 40
0.2324253240147152
  0
CIRCLE
  8
_1-2_
  6
CONTINUOUS
 62
    7
 10
113.3551767710093
 20
150.40200310784419
 40
0.2324253240147152
  0
CIRCLE
  8
_1-2_
  6
CONTINUOUS
 62
    7
 10
114.1769739099451
 20
152.53860886032518
 40
0.2324253240147152
  0
CIRCLE
  8
_1-2_
  6
CONTINUOUS
 62
    7
 10
114.99872156091639
 20
152.53860886032518
 40
0.2324253240147152
  0
CIRCLE
  8
_1-2_
  6
CONTINUOUS
 62
    7
 10
119.34289880701014
 20
140.6132342364337
 40
0.2324253240147152
  0
CIRCLE
  8
_1-2_
  6
CONTINUOUS
 62
    7
 10
118.19240260768582
 20
139.29840087890625
 40
0.2324253240147152
  0
CIRCLE
  8
_1-2_
  6
CONTINUOUS
 62
    7
 10
119.01419974662163
 20
141.43500663138727
 40
0.2324253240147152
  0
CIRCLE
  8
_1-2_
  6
CONTINUOUS
 62
    7
 10
119.83594739759292
 20
141.43500663138727
 40
0.2324253240147152
  0
CIRCLE
  8
_1-2_
  6
CONTINUOUS
 62
    7
 10
119.01308626741977
 20
137.31513358451227
 40
0.2324253240147152
  0
CIRCLE
  8
_1-2_
  6
CONTINUOUS
 62
    7
 10
117.86259006809544
 20
136.00030022698479
 40
0.2324253240147152
  0
CIRCLE
  8
_1-2_
  6
CONTINUOUS
 62
    7
 10
118.68438720703125
 20
138.13690597946581
 40
0.2324253240147152
  0
CIRCLE
  8
_1-2_
  6
CONTINUOUS
 62
    7
 10
119.50613485800254
 20
138.13690597946581
 40
0.2324253240147152
  0
CIRCLE
  8
_1-2_
  6
CONTINUOUS
 62
    7
 10
116.81434837547509
 20
136.32569596574115
 40
0.2324253240147152
  0
CIRCLE
  8
_1-2_
  6
CONTINUOUS
 62
    7
 10
115.66385217615077
 20
135.0108626082137
 40
0.2324253240147152
  0
CIRCLE
  8
_1-2_
  6
CONTINUOUS
 62
    7
 10
116.48564931508658
 20
137.14746836069469
 40
0.2324253240147152
  0
CIRCLE
  8
_1-2_
  6
CONTINUOUS
 62
    7
 10
117.30739696605787
 20
137.14746836069469
 40
0.2324253240147152
  0
CIRCLE
  8
_1-2_
  6
CONTINUOUS
 62
    7
 10
116.15472329629435
 20
137.53500861090583
 40
0.2324253240147152
  0
CIRCLE
  8
_1-2_
  6
CONTINUOUS
 62
    7
 10
115.00422709697003
 20
136.22017525337839
 40
0.2324253240147152
  0
CIRCLE
  8
_1-2_
  6
CONTINUOUS
 62
    7
 10
115.82602423590583
 20
138.35678100585937
 40
0.2324253240147152
  0
CIRCLE
  8
_1-2_
  6
CONTINUOUS
 62
    7
 10
116.64777188687712
 20
138.35678100585937
 40
0.2324253240147152
  0
CIRCLE
  8
_1-2_
  6
CONTINUOUS
 62
    7
 10
111.27459139437289
 20
166.20560104782518
 40
0.2324253240147152
  0
CIRCLE
  8
_1-2_
  6
CONTINUOUS
 62
    7
 10
110.12409519504857
 20
164.89076769029774
 40
0.2324253240147152
  0
CIRCLE
  8
_1-2_
  6
CONTINUOUS
 62
    7
 10
110.94589233398437
 20
167.02737344277872
 40
0.2324253240147152
  0
CIRCLE
  8
_1-2_
  6
CONTINUOUS
 62
    7
 10
111.76763998495566
 20
167.02737344277872
 40
0.2324253240147152
  0
CIRCLE
  8
_1-2_
  6
CONTINUOUS
 62
    7
 10
113.6162381558805
 20
154.35962986301732
 40
0.2324253240147152
  0
CIRCLE
  8
_1-2_
  6
CONTINUOUS
 62
    7
 10
112.46574195655617
 20
153.04479650548987
 40
0.2324253240147152
  0
CIRCLE
  8
_1-2_
  6
CONTINUOUS
 62
    7
 10
113.28753909549198
 20
155.18140225797086
 40
0.2324253240147152
  0
CIRCLE
  8
_1-2_
  6
CONTINUOUS
 62
    7
 10
114.10928674646327
 20
155.18140225797086
 40
0.2324253240147152
  0
ARC
  8
_1-1_
  6
CONTINUOUS
 62
    3
 10
115.44716912346918
 20
189.47693283493456
 40
3.4868056065327413
 50
144.54960632324219
 51
196.28340148925781
  0
ARC
  8
_1-0_
  6
CONTINUOUS
 62
    3
 10
117.85838359111065
 20
146.60362862251901
 40
3.0627306731971538
 50
42.6905517578125
 51
126.92074584960937
  0
ARC
  8
_1-0_
  6
CONTINUOUS
 62
    3
 10
168.91756624788852
 20
146.14047076251057
 40
1.0402513194728542
 50
309.08184814453125
 51
1.6144714355468908
  0
ARC
  8
_1-0_
  6
CONTINUOUS
 62
    3
 10
147.47960271062078
 20
185.99196562895904
 40
46.274049088761615
 50
233.73811340332031
 51
298.51937866210937
  0
ARC
  8
_1-0_
  6
CONTINUOUS
 62
    3
 10
117.67166550095017
 20
141.67720072978253
 40
4.6263270764737516
 50
47.123046875000007
 51
126.50717163085939
  0
ARC
  8
_1-0_
  6
CONTINUOUS
 62
    3
 10
147.78650232263513
 20
185.43134122281461
 40
48.543530025997683
 50
236.25315856933597
 51
299.03501892089844
  0
ARC
  8
_1-0_
  6
CONTINUOUS
 62
    3
 10
170.85838524070948
 20
146.60362862251901
 40
3.0627306731971538
 50
42.6905517578125
 51
126.92074584960937
  0
ARC
  8
_1-0_
  6
CONTINUOUS
 62
    3
 10
221.91756789748734
 20
146.14045839051943
 40
1.0402513194728542
 50
309.08184814453125
 51
1.6144714355468908
  0
ARC
  8
_1-0_
  6
CONTINUOUS
 62
    3
 10
200.47957961623734
 20
185.99196562895904
 40
46.274049088761615
 50
233.73811340332031
 51
298.51937866210937
  0
ARC
  8
_1-0_
  6
CONTINUOUS
 62
    3
 10
170.67166715054898
 20
141.67718835779138
 40
4.6263270764737516
 50
47.123046875000007
 51
126.50717163085939
  0
ARC
  8
_1-0_
  6
CONTINUOUS
 62
    3
 10
200.78650397223396
 20
185.43134122281461
 40
48.543530025997683
 50
236.25315856933597
 51
299.03501892089844
  0
ARC
  8
_1-0_
  6
CONTINUOUS
 62
    3
 10
221.91761738545188
 20
146.14047076251057
 40
1.0402513194728542
 50
309.08184814453125
 51
1.6144714355468908
  0
ARC
  8
_1-0_
  6
CONTINUOUS
 62
    3
 10
223.85843637827281
 20
146.60362862251901
 40
3.0627306731971538
 50
42.6905517578125
 51
126.92074584960937
  0
ARC
  8
_1-0_
  6
CONTINUOUS
 62
    3
 10
253.47965549778294
 20
185.99196562895904
 40
46.274049088761615
 50
233.73811340332031
 51
298.51937866210937
  0
ARC
  8
_1-0_
  6
CONTINUOUS
 62
    3
 10
223.67171828811234
 20
141.67720072978253
 40
4.6263270764737516
 50
47.123046875000007
 51
126.50717163085939
  0
ARC
  8
_1-0_
  6
CONTINUOUS
 62
    3
 10
253.78655510979732
 20
185.43134122281461
 40
48.543530025997683
 50
236.25315856933597
 51
299.03501892089844
  0
ARC
  8
_1-0_
  6
CONTINUOUS
 62
    3
 10
276.85843802787161
 20
146.60362862251901
 40
3.0627306731971538
 50
42.6905517578125
 51
126.92074584960937
  0
ARC
  8
_1-0_
  6
CONTINUOUS
 62
    3
 10
327.91762068464953
 20
146.14047076251057
 40
1.0402513194728542
 50
309.08184814453125
 51
1.6144714355468908
  0
ARC
  8
_1-0_
  6
CONTINUOUS
 62
    3
 10
306.47963240339953
 20
185.99196562895904
 40
46.274049088761615
 50
233.73811340332031
 51
298.51937866210937
  0
ARC
  8
_1-0_
  6
CONTINUOUS
 62
    3
 10
276.67171993771115
 20
141.67720072978253
 40
4.6263270764737516
 50
47.123046875000007
 51
126.50717163085939
  0
ARC
  8
_1-0_
  6
CONTINUOUS
 62
    3
 10
306.78655675939615
 20
185.43134122281461
 40
48.543530025997683
 50
236.25315856933597
 51
299.03501892089844
  0
ARC
  8
_1-0_
  6
CONTINUOUS
 62
    3
 10
329.85843967747047
 20
146.60362862251901
 40
3.0627306731971538
 50
42.6905517578125
 51
126.92074584960937
  0
ARC
  8
_1-0_
  6
CONTINUOUS
 62
    3
 10
329.67172158731
 20
141.67720072978253
 40
4.6263270764737516
 50
47.123046875000007
 51
126.50717163085939
  0
ARC
  8
_1-0_
  6
CONTINUOUS
 62
    3
 10
274.91759429106844
 20
146.14047076251057
 40
1.0402513194728542
 50
309.08184814453125
 51
1.6144714355468908
  0
ARC
  8
_1-0_
  6
CONTINUOUS
 62
    3
 10
359.78655840899495
 20
185.43134122281461
 40
48.543530025997683
 50
236.25315856933597
 51
240.35987854003909
  0
ARC
  8
_1-0_
  6
CONTINUOUS
 62
    3
 10
359.47963405299834
 20
185.99196562895904
 40
46.274049088761615
 50
233.73811340332031
 51
239.19131469726562
  0
ARC
  8
_1-4_
  6
CONTINUOUS
 62
    5
 10
151.67165395375847
 20
149.89409575591216
 40
19.372094644082559
 50
169.12776184082034
 51
205.06492614746097
  0
CIRCLE
  8
_1-2_
  6
CONTINUOUS
 62
    7
 10
125.89000805004224
 20
146.8477032635663
 40
0.2324253240147152
  0
CIRCLE
  8
_1-2_
  6
CONTINUOUS
 62
    7
 10
127.20485377956082
 20
148.98429664405617
 40
0.2324253240147152
  0
CIRCLE
  8
_1-2_
  6
CONTINUOUS
 62
    7
 10
129.17709762985643
 20
149.31300807643581
 40
0.2324253240147152
  0
CIRCLE
  8
_1-2_
  6
CONTINUOUS
 62
    7
 10
127.66489389780406
 20
147.98830186998524
 40
0.2324253240147152
  0
CIRCLE
  8
_1-2_
  6
CONTINUOUS
 62
    7
 10
126.54743091480152
 20
148.65559758366766
 40
0.2324253240147152
  0
CIRCLE
  8
_1-2_
  6
CONTINUOUS
 62
    7
 10
126.38308138460727
 20
148.16253662109375
 40
0.2324253240147152
  0
CIRCLE
  8
_1-2_
  6
CONTINUOUS
 62
    7
 10
128.68402429529138
 20
149.47735760663008
 40
0.2324253240147152
  0
CIRCLE
  8
_1-2_
  6
CONTINUOUS
 62
    7
 10
128.62744717984586
 20
144.69093116554055
 40
0.2324253240147152
  0
CIRCLE
  8
_1-2_
  6
CONTINUOUS
 62
    7
 10
129.94229290936445
 20
146.82752454603042
 40
0.2324253240147152
  0
CIRCLE
  8
_1-2_
  6
CONTINUOUS
 62
    7
 10
131.91453675966005
 20
147.15623597841005
 40
0.2324253240147152
  0
CIRCLE
  8
_1-2_
  6
CONTINUOUS
 62
    7
 10
130.40233302760768
 20
145.83152977195948
 40
0.2324253240147152
  0
CIRCLE
  8
_1-2_
  6
CONTINUOUS
 62
    7
 10
129.28487004460516
 20
146.4988254856419
 40
0.2324253240147152
  0
CIRCLE
  8
_1-2_
  6
CONTINUOUS
 62
    7
 10
129.12052051441091
 20
146.005764523068
 40
0.2324253240147152
  0
CIRCLE
  8
_1-2_
  6
CONTINUOUS
 62
    7
 10
131.42146342509503
 20
147.32058550860432
 40
0.2324253240147152
  0
CIRCLE
  8
_1-2_
  6
CONTINUOUS
 62
    7
 10
131.61373653927365
 20
143.28074687236065
 40
0.2324253240147152
  0
CIRCLE
  8
_1-2_
  6
CONTINUOUS
 62
    7
 10
132.27115940403294
 20
145.08864119246201
 40
0.2324253240147152
  0
CIRCLE
  8
_1-2_
  6
CONTINUOUS
 62
    7
 10
132.1068098738387
 20
144.5955802298881
 40
0.2324253240147152
  0
CIRCLE
  8
_1-2_
  6
CONTINUOUS
 62
    7
 10
123.56733992293076
 20
137.47407655458193
 40
0.2324253240147152
  0
CIRCLE
  8
_1-2_
  6
CONTINUOUS
 62
    7
 10
124.88218565244934
 20
139.6106699350718
 40
0.2324253240147152
  0
CIRCLE
  8
_1-2_
  6
CONTINUOUS
 62
    7
 10
126.85442950274494
 20
139.93938136745143
 40
0.2324253240147152
  0
CIRCLE
  8
_1-2_
  6
CONTINUOUS
 62
    7
 10
125.34222577069258
 20
138.61467516100086
 40
0.2324253240147152
  0
CIRCLE
  8
_1-2_
  6
CONTINUOUS
 62
    7
 10
124.22476278769004
 20
139.28197087468328
 40
0.2324253240147152
  0
CIRCLE
  8
_1-2_
  6
CONTINUOUS
 62
    7
 10
124.06041325749578
 20
138.78890991210937
 40
0.2324253240147152
  0
CIRCLE
  8
_1-2_
  6
CONTINUOUS
 62
    7
 10
126.36135616817991
 20
140.1037308976457
 40
0.2324253240147152
  0
CIRCLE
  8
_1-2_
  6
CONTINUOUS
 62
    7
 10
112.28581608952703
 20
138.22065198743667
 40
0.2324253240147152
  0
CIRCLE
  8
_1-2_
  6
CONTINUOUS
 62
    7
 10
113.60066181904561
 20
140.35724536792654
 40
0.2324253240147152
  0
CIRCLE
  8
_1-2_
  6
CONTINUOUS
 62
    7
 10
115.57290566934122
 20
140.68595680030617
 40
0.2324253240147152
  0
CIRCLE
  8
_1-2_
  6
CONTINUOUS
 62
    7
 10
114.06070193728885
 20
139.36125059385557
 40
0.2324253240147152
  0
CIRCLE
  8
_1-2_
  6
CONTINUOUS
 62
    7
 10
112.94323895428633
 20
140.02854630753802
 40
0.2324253240147152
  0
CIRCLE
  8
_1-2_
  6
CONTINUOUS
 62
    7
 10
112.77888942409207
 20
139.53548534496412
 40
0.2324253240147152
  0
CIRCLE
  8
_1-2_
  6
CONTINUOUS
 62
    7
 10
115.07983233477619
 20
140.85030633050042
 40
0.2324253240147152
  0
TEXT
  8
_0-0_
 62
    7
 10
141.89189395389042
 20
14.594594594594582
 40
2.5
 41
1
 50
0
  1
縮尺
  0
TEXT
  8
_0-0_
 62
    7
 10
377.10214563318203
 20
22.865493362014362
 40
2.5
 41
1
 50
0
  1
ＮＯ
  0
TEXT
  8
_0-0_
 62
    7
 10
14.594594336844779
 20
24.324324324324323
 40
2.5
 41
1
 50
0
  1
和形
  0
TEXT
  8
_0-0_
 62
    7
 10
383.23801896378802
 20
18.523427086907475
 40
3
 41
1
 50
0
  1
Ｊ
  0
TEXT
  8
_1-0_
 62
    7
 10
169.90681828679266
 20
13.3181144095756
 40
2.5
 41
1
 50
0
  1
1/5
  0
TEXT
  8
_1-3_
 62
    7
 10
261.66961257522172
 20
197.21641746727198
 40
2.5
 41
1
 50
0
  1
桟瓦
  0
TEXT
  8
_1-3_
 62
    7
 10
261.66961257522172
 20
191.21642241606841
 40
2.5
 41
1
 50
0
  1
瓦桟
  0
TEXT
  8
_1-3_
 62
    7
 10
261.66961257522172
 20
185.21642736486487
 40
2.5
 41
1
 50
0
  1
流桟
  0
TEXT
  8
_1-3_
 62
    7
 10
145.0132937044711
 20
201.92221564215583
 40
2.5
 41
1
 50
0
  1
雨押え板
  0
TEXT
  8
_1-3_
 62
    7
 10
135.04018422719597
 20
201.64808943464951
 40
2.5
 41
1
 50
0
  1
15ｘ90
  0
TEXT
  8
_1-3_
 62
    7
 10
141.77450850203232
 20
189.01361413904141
 40
2.5
 41
1
 50
0
  1
水切り鉄板
  0
TEXT
  8
_1-3_
 62
    7
 10
146.16874076224664
 20
178.51377744932432
 40
2.5
 41
1
 50
0
  1
割のし
  0
TEXT
  8
_1-3_
 62
    7
 10
151.94744831806906
 20
164.58128233213682
 40
2.5
 41
1
 50
0
  1
面土漆喰
  0
TEXT
  8
_1-3_
 62
    7
 10
158.26306935903187
 20
72.245122548696159
 40
2.5
 41
1
 50
0
  1
捨谷
  0
TEXT
  8
_1-3_
 62
    7
 10
39.721904445338907
 20
15.395235628695104
 40
2.5
 41
1
 50
0
  1
壁際　　2
  0
TEXT
  8
_1-2_
 62
    7
 10
80.088606138487137
 20
159.62427087732266
 40
2.5
 41
1
 50
90
  1
300
  0
TEXT
  8
_1-2_
 62
    7
 10
25.556194717819636
 20
20.211577544341225
 40
2.5
 41
1
 50
0
  1
ＲＣ
  0
TEXT
  8
_1-4_
 62
    7
 10
261.79482124947214
 20
173.28397596204604
 40
2.5
 41
1
 50
0
  1
木煉瓦
  0
TEXT
  8
_1-4_
 62
    7
 10
272.68732431772594
 20
173.28397596204604
 40
2.5
 41
1
 50
0
  1
防腐処理
  0
TEXT
  8
_1-4_
 62
    7
 10
128.99562732593432
 20
214.42110628695102
 40
2.5
 41
1
 50
0
  1
コーキング
  0
TEXT
  8
_1-4_
 62
    7
 10
38.15036722131677
 20
167.29233200485643
 40
2.5
 41
1
 50
0
  1
下葺き材立上がり寸法
  0
TEXT
  8
_1-4_
 62
    7
 10
261.76354897988813
 20
179.34103063634925
 40
2.5
 41
1
 50
0
  1
下葺き材
  0
TEXT
  8
_1-4_
 62
    7
 10
276.03881423537797
 20
179.34103063634925
 40
2.5
 41
1
 50
0
  1
ゴムアス系ルーフィング
  0
TEXT
  8
_1-4_
 62
    7
 10
155.99499882878484
 20
160.85673151789484
 40
2.5
 41
1
 50
0
  1
及び葺き土
  0
TEXT
  8
_1-2_
 62
    7
 10
394.45476222682646
 20
15.607325579669038
 40
2.5
 41
1
 50
0
  1
22
  0
TEXT
  8
_1-4_
 62
    7
 10
272.28216222814615
 20
191.21642241606841
 40
2.5
 41
1
 50
0
  1
15×30以上　（防腐処理）
  0
TEXT
  8
_1-4_
 62
    7
 10
272.15032629064615
 20
188.40686694995779
 40
2.5
 41
1
 50
0
  1
※　地域により瓦桟木の大きさは、異なります
  0
POINT
  8
_1-2_
 62
    7
 10
80.588607788085938
 20
131.49927087732263
  0
POINT
  8
_1-2_
 62
    7
 10
80.588607788085938
 20
191.49927087732266
  0
ENDSEC
  0
EOF
