  0
SECTION
  2
HEADER
  9
$ACADVER
  1
AC1009
  9
$INSBASE
 10
0
 20
0
 30
0
  9
$EXTMIN
 10
0
 20
0
  9
$EXTMAX
 10
2100
 20
1485
  9
$LIMMIN
 10
0
 20
0
  9
$LIMMAX
 10
2100
 20
1485
  9
$LTSCALE
 40
5
  0
ENDSEC
  0
SECTION
  2
TABLES
  0
TABLE
  2
LTYPE
 70
     9
  0
LTYPE
  2
CONTINUOUS
 70
    64
  3
実線
 72
    65
 73
     0
 40
0.0
  0
LTYPE
  2
DASHED1
 70
    64
  3
--  --  --  --  --  --  --  --  
 72
    65
 73
     2
 40
2.5
 49
1.25
 49
-1.25
  0
LTYPE
  2
DASHED2
 70
    64
  3
----    ----    ----    ----    
 72
    65
 73
     2
 40
5.0
 49
2.5
 49
-2.5
  0
LTYPE
  2
DASHED3
 70
    64
  3
------  ------  ------  ------  
 72
    65
 73
     2
 40
5.0
 49
3.75
 49
-1.25
  0
LTYPE
  2
CENTER1
 70
    64
  3
----- - ----- - ----- - ----- - 
 72
    65
 73
     4
 40
10.0
 49
6.25
 49
-1.25
 49
1.25
 49
-1.25
  0
LTYPE
  2
CENTER2
 70
    64
  3
----------  --  ----------  --  
 72
    65
 73
     4
 40
20.0
 49
12.5
 49
-2.5
 49
2.5
 49
-2.5
  0
LTYPE
  2
PHANTOM1
 70
    64
  3
--- - - --- - - --- - - --- - - 
 72
    65
 73
     6
 40
10.0
 49
3.25
 49
-1.25
 49
1.25
 49
-1.25
 49
1.25
 49
-1.25
  0
LTYPE
  2
PHANTOM2
 70
    64
  3
--------  -  -  --------  -  -  
 72
    65
 73
     6
 40
20.0
 49
10.0
 49
-2.5
 49
1.25
 49
-2.5
 49
1.25
 49
-2.5
  0
LTYPE
  2
DOT
 70
    64
  3
-   -   -   -   -   -   -   -   
 72
    65
 73
     2
 40
2.5
 49
0.625
 49
-1.875
  0
LTYPE
  2
DUMMY
 70
    64
  3
ダミー
 72
    65
 73
     0
 40
0.0
  0
LTYPE
  2
RAND1
 70
    64
  3
ランダム線1
 72
    65
 73
     4
 40
10.0
 49
1.0
 49
-2.0
 49
3.0
 49
-4.0
  0
LTYPE
  2
RAND2
 70
    64
  3
ランダム線2
 72
    65
 73
     4
 40
14.0
 49
2.0
 49
-3.0
 49
4.0
 49
-5.0
  0
LTYPE
  2
RAND3
 70
    64
  3
ランダム線3
 72
    65
 73
     4
 40
18.0
 49
3.0
 49
-4.0
 49
5.0
 49
-6.0
  0
LTYPE
  2
RAND4
 70
    64
  3
ランダム線4
 72
    65
 73
     4
 40
22.0
 49
4.0
 49
-5.0
 49
6.0
 49
-7.0
  0
LTYPE
  2
RAND5
 70
    64
  3
ランダム線5
 72
    65
 73
     4
 40
26.0
 49
5.0
 49
-6.0
 49
7.0
 49
-8.0
  0
LTYPE
  2
LONG1
 70
    64
  3
----------  --  ----------  --  
 72
    65
 73
     4
 40
40.0
 49
32.5
 49
-2.5
 49
2.5
 49
-2.5
  0
LTYPE
  2
LONG2
 70
    64
  3
--------  -  -  --------  -  -  
 72
    65
 73
     6
 40
40.0
 49
30.0
 49
-2.5
 49
1.25
 49
-2.5
 49
1.25
 49
-2.5
  0
LTYPE
  2
LONG3
 70
    64
  3
+++++++++++++++..+++++++++++++++
 72
    65
 73
     2
 40
40.0
 49
37.5
 49
-2.5
  0
LTYPE
  2
LONG4
 70
    64
  3
+++++++++++++++..+++++++++++++++
 72
    65
 73
     2
 40
80.0
 49
75.0
 49
-5.0
  0
LTYPE
  2
LONG5
 70
    64
  3
----------  --  ----------  --  
 72
    65
 73
     4
 40
60.0
 49
37.5
 49
-7.5
 49
7.5
 49
-7.5
  0
LTYPE
  2
dashed
 70
   64
  3
-------   -------------   ------
 72
   65
 73
    2
 40
7.5
 49
6
 49
-1.5
  0
LTYPE
  2
dashed_spaced
 70
   64
  3
----        --------        ----
 72
   65
 73
    2
 40
12
 49
6
 49
-6
  0
LTYPE
  2
long_dashed_dotted
 70
   64
  3
------------- --- --------------
 72
   65
 73
    4
 40
15.25
 49
12
 49
-1.5
 49
0.25
 49
-1.5
  0
LTYPE
  2
long_dashed_double-dotted
 70
   64
  3
----------- --- --- ------------
 72
   65
 73
    6
 40
17
 49
12
 49
-1.5
 49
0.25
 49
-1.5
 49
0.25
 49
-1.5
  0
LTYPE
  2
long_dashed_triplicate-dotted
 70
   64
  3
--------- --- --- --- ----------
 72
   65
 73
    8
 40
18.75
 49
12
 49
-1.5
 49
0.25
 49
-1.5
 49
0.25
 49
-1.5
 49
0.25
 49
-1.5
  0
LTYPE
  2
dotted
 70
   64
  3
   -       -       -       -    
 72
   65
 73
    2
 40
1.75
 49
0.25
 49
-1.5
  0
LTYPE
  2
chain
 70
   64
  3
-------------- -- --------------
 72
   65
 73
    4
 40
18.5
 49
12
 49
-1.5
 49
3.5
 49
-1.5
  0
LTYPE
  2
chain_double_dash
 70
   64
  3
------------ -- -- -------------
 72
   65
 73
    6
 40
23.5
 49
12
 49
-1.5
 49
3.5
 49
-1.5
 49
3.5
 49
-1.5
  0
LTYPE
  2
dashed_dotted
 70
   64
  3
-----------     -     ----------
 72
   65
 73
    4
 40
9.25
 49
6
 49
-1.5
 49
0.25
 49
-1.5
  0
LTYPE
  2
double-dashed_dotted
 70
   64
  3
------   -----------   -   -----
 72
   65
 73
    6
 40
16.75
 49
6
 49
-1.5
 49
6
 49
-1.5
 49
0.25
 49
-1.5
  0
LTYPE
  2
dashed_double-dotted
 70
   64
  3
---------    -    -    ---------
 72
   65
 73
    6
 40
11
 49
6
 49
-1.5
 49
0.25
 49
-1.5
 49
0.25
 49
-1.5
  0
LTYPE
  2
double-dashed_double-dotted
 70
   64
  3
-----   ---------   -   -   ----
 72
   65
 73
    8
 40
18.5
 49
6
 49
-1.5
 49
6
 49
-1.5
 49
0.25
 49
-1.5
 49
0.25
 49
-1.5
  0
LTYPE
  2
dashed_triplicate-dotted
 70
   64
  3
-------    -    -    -    ------
 72
   65
 73
    8
 40
12.75
 49
6
 49
-1.5
 49
0.25
 49
-1.5
 49
0.25
 49
-1.5
 49
0.25
 49
-1.5
  0
LTYPE
  2
double-dashed_triplicate-dotted
 70
   64
  3
-----  ---------  -  -  -  -----
 72
   65
 73
   10
 40
20.25
 49
6
 49
-1.5
 49
6
 49
-1.5
 49
0.25
 49
-1.5
 49
0.25
 49
-1.5
 49
0.25
 49
-1.5
  0
LTYPE
  2
undefined
 70
   64
  3
--------------------------------
 72
   65
 73
    0
 40
0
  0
LTYPE
  2
DOT_17
 70
   64
  3
--             ---             -
 72
   65
 73
    2
 40
5
 49
1
 49
-4
  0
LTYPE
  2
DASHED
 70
   64
  3
---          ------          ---
 72
   65
 73
    2
 40
5
 49
2
 49
-3
  0
LTYPE
  2
DASHED2_19
 70
   64
  3
---          ------          ---
 72
   65
 73
    2
 40
10
 49
4
 49
-6
  0
LTYPE
  2
CENTER
 70
   64
  3
----------    ----    ----------
 72
   65
 73
    4
 40
9
 49
6
 49
-1
 49
1
 49
-1
  0
LTYPE
  2
CENTER2_21
 70
   64
  3
----------    ----    ----------
 72
   65
 73
    4
 40
18
 49
12
 49
-2
 49
2
 49
-2
  0
LTYPE
  2
PHANTOM
 70
   64
  3
---------   ---   ---   --------
 72
   65
 73
    6
 40
10
 49
5
 49
-1
 49
1
 49
-1
 49
1
 49
-1
  0
LTYPE
  2
PHANTOM2_23
 70
   64
  3
------    ----    ----    ------
 72
   65
 73
    6
 40
16
 49
6
 49
-2
 49
2
 49
-2
 49
2
 49
-2
  0
LTYPE
  2
HIDDEN
 70
   64
  3
--             ---             -
 72
   65
 73
    2
 40
2.5
 49
0.5
 49
-2
  0
ENDTAB
  0
TABLE
  2
STYLE
  5
3
100
AcDbSymbolTable
 70
     1
  0
STYLE
  5
10
100
AcDbSymbolTableRecord
100
AcDbTextStyleTableRecord
  2
STANDARD
 70
     0
 40
0.0
 41
1.0
 50
0.0
 71
     0
 42
0.2
  3
txt
  4
bigfont.shx
  0
STYLE
  5
26
100
AcDbSymbolTableRecord
100
AcDbTextStyleTableRecord
  2
TATEGAKI
 70
    68
 40
0.0
 41
1.0
 50
0.0
 71
     0
 42
1.0
  3
txt
  4
bigfont.shx
  0
ENDTAB
  0
TABLE
  2
LAYER
 70
   14
  0
LAYER
  2
_0-0_0
 70
   64
 62
    7
  6
CONTINUOUS
  0
LAYER
  2
_0-1_0-0
 70
   64
 62
    7
  6
CONTINUOUS
  0
LAYER
  2
_0-2_1-0
 70
   64
 62
    7
  6
CONTINUOUS
  0
LAYER
  2
_0-3_1-1
 70
   64
 62
    7
  6
CONTINUOUS
  0
LAYER
  2
_0-4_1-2
 70
   64
 62
    7
  6
CONTINUOUS
  0
LAYER
  2
_0-5_1-3
 70
   64
 62
    7
  6
CONTINUOUS
  0
LAYER
  2
_0-6_1-4
 70
   64
 62
    7
  6
CONTINUOUS
  0
LAYER
  2
_0-7_1-5
 70
   64
 62
    7
  6
CONTINUOUS
  0
LAYER
  2
_0-8_1-6
 70
   64
 62
    7
  6
CONTINUOUS
  0
LAYER
  2
_0-9_1-A
 70
   64
 62
    7
  6
CONTINUOUS
  0
LAYER
  2
_0-a_1-B
 70
   64
 62
    7
  6
CONTINUOUS
  0
LAYER
  2
_0-b_1-C
 70
   64
 62
    7
  6
CONTINUOUS
  0
LAYER
  2
_0-c_ADD_LINE
 70
   64
 62
    7
  6
CONTINUOUS
  0
LAYER
  2
ADD_LINE
 70
   64
 62
    7
  6
CONTINUOUS
  0
ENDTAB
  0
ENDSEC
  0
SECTION
  2
BLOCKS
  0
ENDSEC
  0
SECTION
  2
ENTITIES
  0
LINE
  8
_0-4_1-2
  6
CONTINUOUS
 62
    4
 10
543.39400000000001
 20
572.73700000000008
 11
556.40099999999995
 21
559.73000000000002
  0
LINE
  8
_0-4_1-2
  6
CONTINUOUS
 62
    4
 10
550.59099999999989
 20
576.85400000000004
 11
564.20399999999995
 21
563.24099999999999
  0
LINE
  8
_0-4_1-2
  6
CONTINUOUS
 62
    4
 10
558.39399999999989
 20
580.36500000000001
 11
572.00599999999997
 21
566.75200000000007
  0
LINE
  8
_0-4_1-2
  6
CONTINUOUS
 62
    4
 10
566.19599999999991
 20
583.87600000000009
 11
579.80899999999997
 21
570.26300000000003
  0
LINE
  8
_0-4_1-2
  6
CONTINUOUS
 62
    4
 10
573.99899999999991
 20
587.38700000000006
 11
587.61099999999999
 21
573.774
  0
LINE
  8
_0-4_1-2
  6
CONTINUOUS
 62
    4
 10
581.80099999999993
 20
590.89800000000002
 11
595.41399999999999
 21
577.28500000000008
  0
LINE
  8
_0-4_1-2
  6
CONTINUOUS
 62
    4
 10
589.60399999999993
 20
594.40899999999999
 11
603.21699999999998
 21
580.79700000000003
  0
LINE
  8
_0-4_1-2
  6
CONTINUOUS
 62
    4
 10
597.40599999999995
 20
597.92100000000005
 11
611.01899999999989
 21
584.30799999999999
  0
LINE
  8
_0-4_1-2
  6
CONTINUOUS
 62
    4
 10
605.20899999999995
 20
601.43200000000002
 11
618.822
 21
587.81900000000007
  0
LINE
  8
_0-4_1-2
  6
CONTINUOUS
 62
    4
 10
613.01099999999997
 20
604.94299999999998
 11
626.62399999999991
 21
591.33000000000004
  0
LINE
  8
_0-4_1-2
  6
CONTINUOUS
 62
    4
 10
620.81399999999996
 20
608.45400000000006
 11
634.42699999999991
 21
594.84100000000001
  0
LINE
  8
_0-4_1-2
  6
CONTINUOUS
 62
    4
 10
628.61599999999999
 20
611.96500000000003
 11
642.22899999999993
 21
598.35200000000009
  0
LINE
  8
_0-4_1-2
  6
CONTINUOUS
 62
    4
 10
636.41899999999998
 20
615.476
 11
650.03199999999993
 21
601.86300000000006
  0
LINE
  8
_0-4_1-2
  6
CONTINUOUS
 62
    4
 10
644.221
 20
618.98700000000008
 11
657.83400000000006
 21
605.375
  0
LINE
  8
_0-4_1-2
  6
CONTINUOUS
 62
    4
 10
652.024
 20
622.49800000000005
 11
665.63699999999994
 21
608.88600000000008
  0
LINE
  8
_0-4_1-2
  6
CONTINUOUS
 62
    4
 10
659.827
 20
626.00999999999999
 11
673.43899999999985
 21
612.39700000000005
  0
LINE
  8
_0-4_1-2
  6
CONTINUOUS
 62
    4
 10
667.62899999999991
 20
629.52100000000007
 11
681.24199999999996
 21
615.90800000000002
  0
LINE
  8
_0-4_1-2
  6
CONTINUOUS
 62
    4
 10
675.43199999999979
 20
633.03200000000004
 11
689.04399999999998
 21
619.41899999999998
  0
LINE
  8
_0-4_1-2
  6
CONTINUOUS
 62
    4
 10
683.23399999999992
 20
636.54300000000001
 11
696.84699999999998
 21
622.93000000000006
  0
LINE
  8
_0-4_1-2
  6
CONTINUOUS
 62
    4
 10
691.03699999999992
 20
640.05400000000009
 11
704.649
 21
626.44100000000003
  0
LINE
  8
_0-4_1-2
  6
CONTINUOUS
 62
    4
 10
698.83899999999994
 20
643.56500000000005
 11
712.452
 21
629.952
  0
LINE
  8
_0-4_1-2
  6
CONTINUOUS
 62
    4
 10
706.64199999999994
 20
647.07600000000002
 11
720.25499999999988
 21
633.46400000000006
  0
LINE
  8
_0-4_1-2
  6
CONTINUOUS
 62
    4
 10
714.44399999999996
 20
650.58800000000008
 11
728.0569999999999
 21
636.97500000000002
  0
LINE
  8
_0-4_1-2
  6
CONTINUOUS
 62
    4
 10
722.24699999999996
 20
654.09900000000005
 11
735.8599999999999
 21
640.48599999999988
  0
LINE
  8
_0-4_1-2
  6
CONTINUOUS
 62
    4
 10
730.04899999999998
 20
657.6099999999999
 11
743.66199999999992
 21
643.99700000000007
  0
LINE
  8
_0-4_1-2
  6
CONTINUOUS
 62
    4
 10
737.85200000000009
 20
661.12099999999998
 11
751.46499999999992
 21
647.50800000000004
  0
LINE
  8
_0-4_1-2
  6
CONTINUOUS
 62
    4
 10
745.654
 20
664.63200000000006
 11
759.26699999999994
 21
651.01900000000001
  0
LINE
  8
_0-4_1-2
  6
CONTINUOUS
 62
    4
 10
753.45699999999988
 20
668.14300000000003
 11
767.06999999999994
 21
654.52999999999997
  0
LINE
  8
_0-4_1-2
  6
CONTINUOUS
 62
    4
 10
761.2589999999999
 20
671.654
 11
774.87200000000007
 21
658.04200000000014
  0
LINE
  8
_0-4_1-2
  6
CONTINUOUS
 62
    4
 10
769.0619999999999
 20
675.16600000000017
 11
782.67499999999995
 21
661.553
  0
LINE
  8
_0-4_1-2
  6
CONTINUOUS
 62
    4
 10
776.86500000000001
 20
678.67700000000002
 11
790.47699999999986
 21
665.06400000000008
  0
LINE
  8
_0-4_1-2
  6
CONTINUOUS
 62
    4
 10
784.66699999999992
 20
682.18799999999999
 11
798.27999999999997
 21
668.57500000000005
  0
LINE
  8
_0-4_1-2
  6
CONTINUOUS
 62
    4
 10
792.4699999999998
 20
685.69900000000007
 11
806.08199999999999
 21
672.08600000000001
  0
LINE
  8
_0-4_1-2
  6
CONTINUOUS
 62
    4
 10
800.27199999999993
 20
689.21000000000004
 11
813.88499999999999
 21
675.59699999999998
  0
LINE
  8
_0-4_1-2
  6
CONTINUOUS
 62
    4
 10
808.07499999999993
 20
692.721
 11
821.6869999999999
 21
679.10800000000006
  0
LINE
  8
_0-4_1-2
  6
CONTINUOUS
 62
    4
 10
815.87699999999995
 20
696.23200000000008
 11
829.48999999999978
 21
682.62
  0
LINE
  8
_0-4_1-2
  6
CONTINUOUS
 62
    4
 10
823.67999999999995
 20
699.74400000000003
 11
837.29299999999989
 21
686.13100000000009
  0
LINE
  8
_0-4_1-2
  6
CONTINUOUS
 62
    4
 10
831.48199999999997
 20
703.25500000000011
 11
845.09499999999991
 21
689.64200000000005
  0
LINE
  8
_0-4_1-2
  6
CONTINUOUS
 62
    4
 10
839.28499999999997
 20
706.76600000000008
 11
852.89799999999991
 21
693.15300000000002
  0
LINE
  8
_0-4_1-2
  6
CONTINUOUS
 62
    4
 10
847.08699999999999
 20
710.27700000000004
 11
860.69999999999993
 21
696.66399999999999
  0
LINE
  8
_0-4_1-2
  6
CONTINUOUS
 62
    4
 10
854.8900000000001
 20
713.78800000000001
 11
868.50299999999993
 21
700.17500000000018
  0
LINE
  8
_0-4_1-2
  6
CONTINUOUS
 62
    4
 10
862.69299999999998
 20
717.29899999999998
 11
876.30499999999995
 21
703.68600000000004
  0
LINE
  8
_0-4_1-2
  6
CONTINUOUS
 62
    4
 10
870.49499999999989
 20
720.81000000000006
 11
884.10799999999995
 21
707.19799999999987
  0
LINE
  8
_0-4_1-2
  6
CONTINUOUS
 62
    4
 10
878.29699999999991
 20
724.32199999999989
 11
891.91000000000008
 21
710.70900000000006
  0
LINE
  8
_0-4_1-2
  6
CONTINUOUS
 62
    4
 10
886.09999999999991
 20
727.83300000000008
 11
899.71299999999997
 21
714.22000000000003
  0
LINE
  8
_0-4_1-2
  6
CONTINUOUS
 62
    4
 10
893.90300000000002
 20
731.34400000000005
 11
907.51499999999987
 21
717.73099999999999
  0
LINE
  8
_0-4_1-2
  6
CONTINUOUS
 62
    4
 10
901.70499999999993
 20
734.85500000000002
 11
915.31799999999998
 21
721.24199999999996
  0
LINE
  8
_0-4_1-2
  6
CONTINUOUS
 62
    4
 10
909.50799999999981
 20
738.36599999999999
 11
923.12099999999998
 21
724.75300000000004
  0
LINE
  8
_0-4_1-2
  6
CONTINUOUS
 62
    4
 10
917.30999999999995
 20
741.87700000000007
 11
930.923
 21
728.26400000000012
  0
LINE
  8
_0-4_1-2
  6
CONTINUOUS
 62
    4
 10
925.11299999999994
 20
745.38800000000015
 11
938.72600000000011
 21
731.77600000000007
  0
LINE
  8
_0-4_1-2
  6
CONTINUOUS
 62
    4
 10
932.91499999999996
 20
748.90000000000009
 11
946.52799999999979
 21
735.28700000000003
  0
LINE
  8
_0-4_1-2
  6
CONTINUOUS
 62
    4
 10
940.71799999999996
 20
752.41100000000006
 11
954.3309999999999
 21
738.798
  0
LINE
  8
_0-4_1-2
  6
CONTINUOUS
 62
    4
 10
948.51999999999998
 20
755.92200000000003
 11
962.13299999999992
 21
742.30900000000008
  0
LINE
  8
_0-4_1-2
  6
CONTINUOUS
 62
    4
 10
956.32299999999998
 20
759.43299999999999
 11
969.93599999999992
 21
745.82000000000005
  0
LINE
  8
_0-4_1-2
  6
CONTINUOUS
 62
    4
 10
964.125
 20
762.94400000000007
 11
977.73799999999994
 21
749.3309999999999
  0
LINE
  8
_0-4_1-2
  6
CONTINUOUS
 62
    4
 10
971.92800000000011
 20
766.45499999999993
 11
985.54099999999994
 21
752.84199999999998
  0
LINE
  8
_0-4_1-2
  6
CONTINUOUS
 62
    4
 10
979.72999999999979
 20
769.96600000000001
 11
993.34299999999996
 21
756.35400000000004
  0
LINE
  8
_0-4_1-2
  6
CONTINUOUS
 62
    4
 10
987.5329999999999
 20
773.47800000000007
 11
1001.146
 21
759.86500000000001
  0
LINE
  8
_0-4_1-2
  6
CONTINUOUS
 62
    4
 10
995.33499999999992
 20
776.98900000000003
 11
1008.9480000000001
 21
763.37600000000009
  0
LINE
  8
_0-4_1-2
  6
CONTINUOUS
 62
    4
 10
1003.1379999999999
 20
780.5
 11
1016.751
 21
766.88700000000017
  0
LINE
  8
_0-4_1-2
  6
CONTINUOUS
 62
    4
 10
1010.941
 20
784.01100000000019
 11
1024.5529999999999
 21
770.39800000000002
  0
LINE
  8
_0-4_1-2
  6
CONTINUOUS
 62
    4
 10
1018.7429999999999
 20
787.52200000000005
 11
1032.356
 21
773.90899999999999
  0
LINE
  8
_0-4_1-2
  6
CONTINUOUS
 62
    4
 10
1026.5459999999998
 20
791.03300000000002
 11
1040.1579999999999
 21
777.42000000000007
  0
LINE
  8
_0-4_1-2
  6
CONTINUOUS
 62
    4
 10
1034.348
 20
794.54399999999987
 11
1047.961
 21
780.93200000000002
  0
LINE
  8
_0-4_1-2
  6
CONTINUOUS
 62
    4
 10
1042.1509999999998
 20
798.05600000000004
 11
1055.7639999999999
 21
784.44299999999998
  0
LINE
  8
_0-4_1-2
  6
CONTINUOUS
 62
    4
 10
1049.953
 20
801.56700000000001
 11
1063.566
 21
787.95399999999995
  0
LINE
  8
_0-4_1-2
  6
CONTINUOUS
 62
    4
 10
1057.7559999999999
 20
805.07799999999997
 11
1071.3689999999999
 21
791.46500000000003
  0
LINE
  8
_0-4_1-2
  6
CONTINUOUS
 62
    4
 10
1065.558
 20
808.58900000000006
 11
1079.171
 21
794.97600000000011
  0
LINE
  8
_0-4_1-2
  6
CONTINUOUS
 62
    4
 10
1073.3609999999999
 20
812.10000000000014
 11
1086.9739999999999
 21
798.48700000000008
  0
LINE
  8
_0-4_1-2
  6
CONTINUOUS
 62
    4
 10
1081.163
 20
815.61099999999999
 11
1094.7759999999998
 21
801.99800000000005
  0
LINE
  8
_0-4_1-2
  6
CONTINUOUS
 62
    4
 10
1088.9659999999999
 20
819.12200000000007
 11
1102.579
 21
805.50999999999999
  0
LINE
  8
_0-4_1-2
  6
CONTINUOUS
 62
    4
 10
1096.769
 20
822.63300000000004
 11
1110.3809999999999
 21
809.02100000000007
  0
LINE
  8
_0-4_1-2
  6
CONTINUOUS
 62
    4
 10
1104.5709999999999
 20
826.14499999999998
 11
1118.184
 21
812.53200000000004
  0
LINE
  8
_0-4_1-2
  6
CONTINUOUS
 62
    4
 10
1112.374
 20
829.65600000000006
 11
1125.9859999999999
 21
816.04299999999989
  0
LINE
  8
_0-4_1-2
  6
CONTINUOUS
 62
    4
 10
1120.1759999999999
 20
833.16699999999992
 11
1133.789
 21
819.55400000000009
  0
LINE
  8
_0-4_1-2
  6
CONTINUOUS
 62
    4
 10
1127.979
 20
836.678
 11
1141.5909999999999
 21
823.06500000000005
  0
LINE
  8
_0-4_1-2
  6
CONTINUOUS
 62
    4
 10
1135.7809999999999
 20
840.18900000000008
 11
1149.394
 21
826.57600000000002
  0
LINE
  8
_0-4_1-2
  6
CONTINUOUS
 62
    4
 10
1143.5840000000001
 20
843.70000000000005
 11
1157.1969999999999
 21
830.08800000000008
  0
LINE
  8
_0-4_1-2
  6
CONTINUOUS
 62
    4
 10
1151.386
 20
847.21199999999999
 11
1164.999
 21
833.59900000000016
  0
LINE
  8
_0-4_1-2
  6
CONTINUOUS
 62
    4
 10
1159.1889999999999
 20
850.72300000000018
 11
1172.8009999999999
 21
837.11000000000001
  0
LINE
  8
_0-4_1-2
  6
CONTINUOUS
 62
    4
 10
1166.991
 20
854.23400000000004
 11
1180.604
 21
840.62099999999998
  0
LINE
  8
_0-4_1-2
  6
CONTINUOUS
 62
    4
 10
1174.7939999999999
 20
857.745
 11
1188.4069999999999
 21
844.13200000000006
  0
LINE
  8
_0-4_1-2
  6
CONTINUOUS
 62
    4
 10
1182.596
 20
861.25600000000009
 11
1196.2090000000001
 21
847.64300000000003
  0
LINE
  8
_0-4_1-2
  6
CONTINUOUS
 62
    4
 10
1190.3989999999999
 20
864.76700000000005
 11
1204.0119999999999
 21
851.154
  0
LINE
  8
_0-4_1-2
  6
CONTINUOUS
 62
    4
 10
1198.202
 20
868.27800000000002
 11
1211.8139999999999
 21
854.66599999999994
  0
LINE
  8
_0-4_1-2
  6
CONTINUOUS
 62
    4
 10
1206.0039999999999
 20
871.78999999999996
 11
1219.617
 21
858.17700000000002
  0
LINE
  8
_0-4_1-2
  6
CONTINUOUS
 62
    4
 10
1213.806
 20
875.30100000000004
 11
1227.4189999999999
 21
861.6880000000001
  0
LINE
  8
_0-4_1-2
  6
CONTINUOUS
 62
    4
 10
1221.6089999999999
 20
878.81200000000013
 11
1235.222
 21
865.19900000000007
  0
LINE
  8
_0-4_1-2
  6
CONTINUOUS
 62
    4
 10
1229.412
 20
882.32299999999998
 11
1243.0249999999999
 21
868.71000000000004
  0
LINE
  8
_0-4_1-2
  6
CONTINUOUS
 62
    4
 10
1237.2139999999999
 20
885.83400000000006
 11
1250.827
 21
872.221
  0
LINE
  8
_0-4_1-2
  6
CONTINUOUS
 62
    4
 10
1245.0170000000001
 20
889.34500000000003
 11
1258.6289999999999
 21
875.7320000000002
  0
LINE
  8
_0-4_1-2
  6
CONTINUOUS
 62
    4
 10
1252.819
 20
892.85599999999999
 11
1266.432
 21
879.24300000000005
  0
LINE
  8
_0-4_1-2
  6
CONTINUOUS
 62
    4
 10
1260.6219999999998
 20
896.36800000000005
 11
1274.2349999999999
 21
882.75499999999988
  0
LINE
  8
_0-4_1-2
  6
CONTINUOUS
 62
    4
 10
1268.424
 20
899.87899999999991
 11
1282.037
 21
886.26600000000008
  0
LINE
  8
_0-4_1-2
  6
CONTINUOUS
 62
    4
 10
1276.2269999999999
 20
903.38999999999999
 11
1289.8399999999997
 21
889.77700000000004
  0
LINE
  8
_0-4_1-2
  6
CONTINUOUS
 62
    4
 10
1284.029
 20
906.90100000000007
 11
1297.6420000000003
 21
893.28800000000001
  0
LINE
  8
_0-4_1-2
  6
CONTINUOUS
 62
    4
 10
1291.8319999999999
 20
910.41200000000003
 11
1305.4449999999999
 21
896.79899999999998
  0
LINE
  8
_0-4_1-2
  6
CONTINUOUS
 62
    4
 10
1299.634
 20
913.923
 11
1313.2469999999998
 21
900.31000000000006
  0
LINE
  8
_0-4_1-2
  6
CONTINUOUS
 62
    4
 10
1307.4369999999999
 20
917.43400000000008
 11
1321.05
 21
903.82100000000014
  0
LINE
  8
_0-4_1-2
  6
CONTINUOUS
 62
    4
 10
1315.239
 20
920.94600000000003
 11
1328.8519999999999
 21
907.33300000000008
  0
LINE
  8
_0-4_1-2
  6
CONTINUOUS
 62
    4
 10
1323.0419999999999
 20
924.45699999999999
 11
1336.6550000000002
 21
910.84400000000005
  0
LINE
  8
_0-4_1-2
  6
CONTINUOUS
 62
    4
 10
1330.8449999999998
 20
927.96800000000007
 11
1344.4569999999999
 21
914.35500000000002
  0
LINE
  8
_0-4_1-2
  6
CONTINUOUS
 62
    4
 10
1338.6469999999999
 20
931.47900000000004
 11
1352.26
 21
917.86599999999999
  0
LINE
  8
_0-4_1-2
  6
CONTINUOUS
 62
    4
 10
1346.45
 20
934.99000000000001
 11
1360.0619999999999
 21
921.37700000000007
  0
LINE
  8
_0-4_1-2
  6
CONTINUOUS
 62
    4
 10
1354.252
 20
938.50100000000009
 11
1367.8649999999998
 21
924.88799999999992
  0
LINE
  8
_0-4_1-2
  6
CONTINUOUS
 62
    4
 10
1362.0549999999998
 20
942.01199999999994
 11
1375.6680000000001
 21
928.399
  0
LINE
  8
_0-4_1-2
  6
CONTINUOUS
 62
    4
 10
1369.857
 20
945.52400000000011
 11
1383.47
 21
931.91100000000006
  0
LINE
  8
_0-4_1-2
  6
CONTINUOUS
 62
    4
 10
1377.6599999999999
 20
949.03500000000008
 11
1391.2729999999999
 21
935.42200000000003
  0
LINE
  8
_0-4_1-2
  6
CONTINUOUS
 62
    4
 10
1385.462
 20
952.54600000000005
 11
1399.075
 21
938.93299999999999
  0
LINE
  8
_0-4_1-2
  6
CONTINUOUS
 62
    4
 10
1393.2649999999999
 20
956.05700000000002
 11
1406.8779999999997
 21
942.44400000000019
  0
LINE
  8
_0-4_1-2
  6
CONTINUOUS
 62
    4
 10
1401.067
 20
959.56799999999998
 11
1414.6799999999998
 21
945.95500000000004
  0
LINE
  8
_0-4_1-2
  6
CONTINUOUS
 62
    4
 10
1408.8699999999999
 20
963.07900000000006
 11
1422.4829999999999
 21
949.46600000000001
  0
LINE
  8
_0-4_1-2
  6
CONTINUOUS
 62
    4
 10
1416.672
 20
966.59000000000003
 11
1430.2849999999999
 21
952.97700000000009
  0
LINE
  8
_0-4_1-2
  6
CONTINUOUS
 62
    4
 10
1424.4749999999999
 20
970.10200000000009
 11
1438.088
 21
956.48900000000003
  0
LINE
  8
_0-4_1-2
  6
CONTINUOUS
 62
    4
 10
1432.277
 20
973.61300000000006
 11
1445.8899999999999
 21
960
  0
LINE
  8
_0-4_1-2
  6
CONTINUOUS
 62
    4
 10
1440.0799999999999
 20
977.12400000000002
 11
1453.6930000000002
 21
963.51099999999997
  0
LINE
  8
_0-4_1-2
  6
CONTINUOUS
 62
    4
 10
1447.8829999999998
 20
980.63499999999999
 11
1461.4959999999999
 21
967.02200000000005
  0
LINE
  8
_0-4_1-2
  6
CONTINUOUS
 62
    4
 10
1455.6849999999999
 20
984.14600000000007
 11
1469.298
 21
970.53300000000013
  0
LINE
  8
_0-4_1-2
  6
CONTINUOUS
 62
    4
 10
1463.4880000000001
 20
987.65700000000015
 11
1477.1009999999999
 21
974.04399999999998
  0
LINE
  8
_0-4_1-2
  6
CONTINUOUS
 62
    4
 10
1471.29
 20
991.16800000000001
 11
1484.9029999999998
 21
977.55500000000006
  0
LINE
  8
_0-4_1-2
  6
CONTINUOUS
 62
    4
 10
1479.0929999999998
 20
994.67900000000009
 11
1492.7060000000001
 21
981.06700000000001
  0
LINE
  8
_0-4_1-2
  6
CONTINUOUS
 62
    4
 10
1486.895
 20
998.19100000000003
 11
1500.508
 21
984.57800000000009
  0
LINE
  8
_0-4_1-2
  6
CONTINUOUS
 62
    4
 10
1494.6979999999999
 20
1001.702
 11
1508.3109999999999
 21
988.08900000000006
  0
LINE
  8
_0-4_1-2
  6
CONTINUOUS
 62
    4
 10
1502.5
 20
1005.2130000000001
 11
1516.1130000000001
 21
991.59999999999991
  0
LINE
  8
_0-4_1-2
  6
CONTINUOUS
 62
    4
 10
1510.3029999999999
 20
1008.7239999999999
 11
1523.9159999999997
 21
995.11099999999999
  0
LINE
  8
_0-4_1-2
  6
CONTINUOUS
 62
    4
 10
1518.105
 20
1012.235
 11
1531.7179999999998
 21
998.62200000000007
  0
LINE
  8
_0-4_1-2
  6
CONTINUOUS
 62
    4
 10
1525.9079999999999
 20
1015.7460000000001
 11
1539.521
 21
1002.133
  0
LINE
  8
_0-4_1-2
  6
CONTINUOUS
 62
    4
 10
1533.71
 20
1019.258
 11
1547.3229999999999
 21
1005.645
  0
LINE
  8
_0-4_1-2
  6
CONTINUOUS
 62
    4
 10
1541.5129999999999
 20
1022.769
 11
1555.126
 21
1009.1560000000002
  0
LINE
  8
_0-4_1-2
  6
CONTINUOUS
 62
    4
 10
1549.316
 20
1026.2800000000002
 11
1562.9279999999999
 21
1012.667
  0
LINE
  8
_0-4_1-2
  6
CONTINUOUS
 62
    4
 10
1557.1179999999999
 20
1029.7909999999999
 11
1570.7310000000002
 21
1016.178
  0
LINE
  8
_0-4_1-2
  6
CONTINUOUS
 62
    4
 10
1564.9199999999998
 20
1033.3020000000001
 11
1578.5339999999999
 21
1019.6890000000001
  0
LINE
  8
_0-4_1-2
  6
CONTINUOUS
 62
    4
 10
1572.723
 20
1036.8129999999999
 11
1586.336
 21
1023.2
  0
LINE
  8
_0-4_1-2
  6
CONTINUOUS
 62
    4
 10
1580.5259999999998
 20
1040.3240000000001
 11
1594.1389999999999
 21
1026.711
  0
LINE
  8
_0-4_1-2
  6
CONTINUOUS
 62
    4
 10
1588.328
 20
1043.836
 11
1601.9409999999998
 21
1030.223
  0
LINE
  8
_0-4_1-2
  6
CONTINUOUS
 62
    4
 10
1596.1309999999999
 20
1047.347
 11
1609.7429999999999
 21
1033.7339999999999
  0
LINE
  8
_0-4_1-2
  6
CONTINUOUS
 62
    4
 10
1603.933
 20
1050.8580000000002
 11
1617.546
 21
1037.2450000000001
  0
LINE
  8
_0-4_1-2
  6
CONTINUOUS
 62
    4
 10
1611.7359999999999
 20
1054.3690000000001
 11
1625.3489999999999
 21
1040.7560000000001
  0
LINE
  8
_0-4_1-2
  6
CONTINUOUS
 62
    4
 10
1619.538
 20
1057.8799999999999
 11
1633.1509999999998
 21
1044.2670000000001
  0
LINE
  8
_0-4_1-2
  6
CONTINUOUS
 62
    4
 10
1627.3409999999999
 20
1061.3910000000001
 11
1640.9539999999997
 21
1047.778
  0
LINE
  8
_0-4_1-2
  6
CONTINUOUS
 62
    4
 10
1635.143
 20
1064.902
 11
1648.7559999999999
 21
1051.289
  0
LINE
  8
_0-4_1-2
  6
CONTINUOUS
 62
    4
 10
1642.9459999999999
 20
1068.413
 11
1656.559
 21
1054.8
  0
LINE
  8
_0-4_1-2
  6
CONTINUOUS
 62
    4
 10
1650.748
 20
1071.925
 11
1657.8709999999999
 21
1064.8019999999999
  0
LINE
  8
_0-4_1-2
  6
CONTINUOUS
 62
    4
 10
1656.7910000000002
 20
1054.9050000000002
 11
1660.607
 21
1058.721
  0
LINE
  8
_0-4_1-2
  6
CONTINUOUS
 62
    4
 10
1636.221
 20
1045.6489999999999
 11
1657.096
 21
1066.5240000000001
  0
LINE
  8
_0-4_1-2
  6
CONTINUOUS
 62
    4
 10
1615.6509999999998
 20
1036.3920000000001
 11
1651.539
 21
1072.28
  0
LINE
  8
_0-4_1-2
  6
CONTINUOUS
 62
    4
 10
1595.0799999999999
 20
1027.135
 11
1630.9690000000001
 21
1063.0240000000001
  0
LINE
  8
_0-4_1-2
  6
CONTINUOUS
 62
    4
 10
1574.51
 20
1017.878
 11
1610.3979999999999
 21
1053.7670000000001
  0
LINE
  8
_0-4_1-2
  6
CONTINUOUS
 62
    4
 10
1553.9400000000001
 20
1008.6220000000001
 11
1589.828
 21
1044.51
  0
LINE
  8
_0-4_1-2
  6
CONTINUOUS
 62
    4
 10
1533.3689999999999
 20
999.36500000000001
 11
1569.258
 21
1035.2540000000001
  0
LINE
  8
_0-4_1-2
  6
CONTINUOUS
 62
    4
 10
1512.798
 20
990.10800000000006
 11
1548.6869999999999
 21
1025.9970000000001
  0
LINE
  8
_0-4_1-2
  6
CONTINUOUS
 62
    4
 10
1492.2279999999998
 20
980.85200000000009
 11
1528.117
 21
1016.74
  0
LINE
  8
_0-4_1-2
  6
CONTINUOUS
 62
    4
 10
1471.6579999999999
 20
971.59500000000003
 11
1507.546
 21
1007.484
  0
LINE
  8
_0-4_1-2
  6
CONTINUOUS
 62
    4
 10
1451.087
 20
962.33799999999997
 11
1486.9759999999999
 21
998.22700000000009
  0
LINE
  8
_0-4_1-2
  6
CONTINUOUS
 62
    4
 10
1430.5170000000001
 20
953.08199999999999
 11
1466.4059999999999
 21
988.97000000000003
  0
LINE
  8
_0-4_1-2
  6
CONTINUOUS
 62
    4
 10
1409.9469999999999
 20
943.82500000000005
 11
1445.835
 21
979.71400000000006
  0
LINE
  8
_0-4_1-2
  6
CONTINUOUS
 62
    4
 10
1389.376
 20
934.56799999999998
 11
1425.2649999999999
 21
970.45699999999999
  0
LINE
  8
_0-4_1-2
  6
CONTINUOUS
 62
    4
 10
1368.806
 20
925.31200000000001
 11
1404.694
 21
961.20000000000005
  0
LINE
  8
_0-4_1-2
  6
CONTINUOUS
 62
    4
 10
1348.2359999999999
 20
916.05500000000006
 11
1384.1239999999998
 21
951.94399999999996
  0
LINE
  8
_0-4_1-2
  6
CONTINUOUS
 62
    4
 10
1327.665
 20
906.798
 11
1363.5529999999999
 21
942.6869999999999
  0
LINE
  8
_0-4_1-2
  6
CONTINUOUS
 62
    4
 10
1307.0949999999998
 20
897.54199999999992
 11
1342.9829999999997
 21
933.43000000000006
  0
LINE
  8
_0-4_1-2
  6
CONTINUOUS
 62
    4
 10
1286.5239999999999
 20
888.28500000000008
 11
1322.413
 21
924.173
  0
LINE
  8
_0-4_1-2
  6
CONTINUOUS
 62
    4
 10
1265.954
 20
879.02800000000002
 11
1301.8419999999996
 21
914.91700000000014
  0
LINE
  8
_0-4_1-2
  6
CONTINUOUS
 62
    4
 10
1245.384
 20
869.77200000000016
 11
1281.2719999999999
 21
905.66000000000008
  0
LINE
  8
_0-4_1-2
  6
CONTINUOUS
 62
    4
 10
1224.8129999999999
 20
860.5150000000001
 11
1260.702
 21
896.404
  0
LINE
  8
_0-4_1-2
  6
CONTINUOUS
 62
    4
 10
1204.2429999999999
 20
851.25800000000004
 11
1240.1309999999999
 21
887.14700000000005
  0
LINE
  8
_0-4_1-2
  6
CONTINUOUS
 62
    4
 10
1183.672
 20
842.00200000000007
 11
1219.5609999999999
 21
877.88999999999999
  0
LINE
  8
_0-4_1-2
  6
CONTINUOUS
 62
    4
 10
1163.1019999999999
 20
832.745
 11
1198.99
 21
868.63300000000004
  0
LINE
  8
_0-4_1-2
  6
CONTINUOUS
 62
    4
 10
1142.5319999999999
 20
823.48800000000006
 11
1178.4199999999998
 21
859.37700000000007
  0
LINE
  8
_0-4_1-2
  6
CONTINUOUS
 62
    4
 10
1121.961
 20
814.23200000000008
 11
1157.8499999999999
 21
850.12
  0
LINE
  8
_0-4_1-2
  6
CONTINUOUS
 62
    4
 10
1101.3909999999998
 20
804.97500000000002
 11
1137.279
 21
840.86300000000006
  0
LINE
  8
_0-4_1-2
  6
CONTINUOUS
 62
    4
 10
1080.8209999999999
 20
795.71800000000007
 11
1116.7090000000001
 21
831.60700000000008
  0
LINE
  8
_0-4_1-2
  6
CONTINUOUS
 62
    4
 10
1060.25
 20
786.46199999999999
 11
1096.1389999999999
 21
822.35000000000002
  0
LINE
  8
_0-4_1-2
  6
CONTINUOUS
 62
    4
 10
1039.6799999999998
 20
777.20500000000004
 11
1075.568
 21
813.09300000000007
  0
LINE
  8
_0-4_1-2
  6
CONTINUOUS
 62
    4
 10
1019.1099999999999
 20
767.94799999999998
 11
1054.998
 21
803.83699999999999
  0
LINE
  8
_0-4_1-2
  6
CONTINUOUS
 62
    4
 10
998.53899999999999
 20
758.69200000000001
 11
1034.4280000000001
 21
794.57999999999993
  0
LINE
  8
_0-4_1-2
  6
CONTINUOUS
 62
    4
 10
977.96899999999994
 20
749.43499999999995
 11
1013.857
 21
785.32299999999987
  0
LINE
  8
_0-4_1-2
  6
CONTINUOUS
 62
    4
 10
957.39799999999991
 20
740.17799999999988
 11
993.28700000000003
 21
776.06700000000001
  0
LINE
  8
_0-4_1-2
  6
CONTINUOUS
 62
    4
 10
936.82799999999997
 20
730.92200000000003
 11
972.71599999999989
 21
766.81000000000017
  0
LINE
  8
_0-4_1-2
  6
CONTINUOUS
 62
    4
 10
916.25800000000004
 20
721.66500000000019
 11
952.14599999999996
 21
757.55300000000011
  0
LINE
  8
_0-4_1-2
  6
CONTINUOUS
 62
    4
 10
895.6869999999999
 20
712.40800000000013
 11
931.57599999999991
 21
748.29700000000003
  0
LINE
  8
_0-4_1-2
  6
CONTINUOUS
 62
    4
 10
875.11699999999996
 20
703.15200000000004
 11
911.005
 21
739.04000000000008
  0
LINE
  8
_0-4_1-2
  6
CONTINUOUS
 62
    4
 10
854.54699999999991
 20
693.89499999999998
 11
890.43499999999995
 21
729.78300000000002
  0
LINE
  8
_0-4_1-2
  6
CONTINUOUS
 62
    4
 10
833.976
 20
684.63800000000003
 11
869.8649999999999
 21
720.52700000000004
  0
LINE
  8
_0-4_1-2
  6
CONTINUOUS
 62
    4
 10
813.40599999999995
 20
675.38200000000006
 11
849.29399999999998
 21
711.26999999999998
  0
LINE
  8
_0-4_1-2
  6
CONTINUOUS
 62
    4
 10
792.83499999999992
 20
666.125
 11
828.72399999999993
 21
702.01300000000003
  0
LINE
  8
_0-4_1-2
  6
CONTINUOUS
 62
    4
 10
772.26499999999999
 20
656.86800000000005
 11
808.15299999999991
 21
692.75700000000006
  0
LINE
  8
_0-4_1-2
  6
CONTINUOUS
 62
    4
 10
751.69499999999994
 20
647.61200000000008
 11
787.58299999999986
 21
683.5
  0
LINE
  8
_0-4_1-2
  6
CONTINUOUS
 62
    4
 10
731.12399999999991
 20
638.35500000000002
 11
767.01299999999992
 21
674.24300000000005
  0
LINE
  8
_0-4_1-2
  6
CONTINUOUS
 62
    4
 10
710.55399999999986
 20
629.09800000000007
 11
746.44199999999978
 21
664.98700000000008
  0
LINE
  8
_0-4_1-2
  6
CONTINUOUS
 62
    4
 10
689.98299999999995
 20
619.84199999999998
 11
725.87199999999996
 21
655.73000000000002
  0
LINE
  8
_0-4_1-2
  6
CONTINUOUS
 62
    4
 10
669.41299999999978
 20
610.58500000000004
 11
705.30099999999993
 21
646.47299999999996
  0
LINE
  8
_0-4_1-2
  6
CONTINUOUS
 62
    4
 10
648.84299999999996
 20
601.32800000000009
 11
684.73099999999999
 21
637.21699999999998
  0
LINE
  8
_0-4_1-2
  6
CONTINUOUS
 62
    4
 10
628.27199999999993
 20
592.072
 11
664.16100000000006
 21
627.96000000000004
  0
LINE
  8
_0-4_1-2
  6
CONTINUOUS
 62
    4
 10
607.702
 20
582.81500000000005
 11
643.58999999999992
 21
618.70300000000009
  0
LINE
  8
_0-4_1-2
  6
CONTINUOUS
 62
    4
 10
587.13199999999995
 20
573.55799999999999
 11
623.01999999999998
 21
609.447
  0
LINE
  8
_0-4_1-2
  6
CONTINUOUS
 62
    4
 10
566.56099999999992
 20
564.30200000000002
 11
602.44999999999993
 21
600.19000000000005
  0
LINE
  8
_0-4_1-2
  6
CONTINUOUS
 62
    4
 10
546.17899999999997
 20
566.54700000000003
 11
561.30899999999997
 21
581.67700000000002
  0
LINE
  8
_0-4_1-2
  6
CONTINUOUS
 62
    4
 10
545.99099999999999
 20
555.04500000000007
 11
581.87899999999991
 21
590.93299999999999
  0
LINE
  8
_0-2_1-0
  6
CONTINUOUS
 62
    4
 10
546.17899999999997
 20
566.54700000000003
 11
525.41999999999996
 21
545.78800000000001
  0
LINE
  8
_0-2_1-0
  6
CONTINUOUS
 62
    4
 10
549.68999999999994
 20
558.745
 11
545.99099999999999
 21
555.04500000000007
  0
LINE
  8
_0-2_1-0
  6
CONTINUOUS
 62
    4
 10
540.52199999999993
 20
572.20400000000006
 11
504.84999999999991
 21
536.53200000000004
  0
LINE
  8
_0-2_1-0
  6
CONTINUOUS
 62
    4
 10
520.32299999999987
 20
563.31799999999998
 11
500.58699999999999
 21
543.58299999999997
  0
LINE
  8
_0-2_1-0
  6
CONTINUOUS
 62
    4
 10
527.125
 20
566.37900000000002
 11
540.79599999999994
 21
552.70700000000011
  0
LINE
  8
_0-2_1-0
  6
CONTINUOUS
 62
    4
 10
534.92699999999991
 20
569.88999999999999
 11
548.59899999999993
 21
556.21900000000005
  0
LINE
  8
_0-2_1-0
  6
CONTINUOUS
 62
    4
 10
503.71699999999987
 20
555.846
 11
517.3889999999999
 21
542.17400000000009
  0
LINE
  8
_0-2_1-0
  6
CONTINUOUS
 62
    4
 10
511.51999999999998
 20
559.35700000000008
 11
525.19100000000003
 21
545.68500000000006
  0
LINE
  8
_0-2_1-0
  6
CONTINUOUS
 62
    4
 10
519.32199999999989
 20
562.86800000000005
 11
532.99399999999991
 21
549.19600000000003
  0
LINE
  8
_0-2_1-0
  6
CONTINUOUS
 62
    4
 10
497.25
 20
550.99900000000002
 11
509.58600000000001
 21
538.66300000000001
  0
LINE
  8
_0-1_0-0
  6
CONTINUOUS
 62
    5
 10
2015.54
 20
171.89200000000005
 11
1952.703
 21
109.05400000000007
  0
LINE
  8
_0-3_1-1
  6
CONTINUOUS
 62
    7
 10
645.46199999999999
 20
628.31799999999998
 11
639.30599999999993
 21
641.99700000000007
  0
LINE
  8
_0-3_1-1
  6
CONTINUOUS
 62
    7
 10
639.30599999999993
 20
641.99700000000007
 11
661.19199999999989
 21
651.846
  0
LINE
  8
_0-3_1-1
  6
CONTINUOUS
 62
    7
 10
661.19199999999989
 20
651.846
 11
667.34799999999996
 21
638.16700000000003
  0
LINE
  8
_0-3_1-1
  6
CONTINUOUS
 62
    7
 10
667.34799999999996
 20
638.16700000000003
 11
645.46199999999999
 21
628.31799999999998
  0
LINE
  8
_0-3_1-1
  6
CONTINUOUS
 62
    7
 10
870.05999999999995
 20
729.38700000000017
 11
863.904
 21
743.06600000000003
  0
LINE
  8
_0-3_1-1
  6
CONTINUOUS
 62
    7
 10
863.904
 20
743.06600000000003
 11
885.78999999999996
 21
752.91500000000019
  0
LINE
  8
_0-3_1-1
  6
CONTINUOUS
 62
    7
 10
885.78999999999996
 20
752.91500000000019
 11
891.94599999999991
 21
739.23599999999988
  0
LINE
  8
_0-3_1-1
  6
CONTINUOUS
 62
    7
 10
891.94599999999991
 20
739.23599999999988
 11
870.05999999999995
 21
729.38700000000017
  0
LINE
  8
_0-3_1-1
  6
CONTINUOUS
 62
    7
 10
1084.3609999999999
 20
825.82300000000009
 11
1078.2059999999999
 21
839.50200000000007
  0
LINE
  8
_0-3_1-1
  6
CONTINUOUS
 62
    7
 10
1078.2059999999999
 20
839.50200000000007
 11
1100.0919999999999
 21
849.35100000000011
  0
LINE
  8
_0-3_1-1
  6
CONTINUOUS
 62
    7
 10
1106.2469999999998
 20
835.67200000000003
 11
1084.3609999999999
 21
825.82300000000009
  0
LINE
  8
_0-3_1-1
  6
CONTINUOUS
 62
    7
 10
1298.663
 20
922.25900000000001
 11
1292.5070000000001
 21
935.93700000000001
  0
LINE
  8
_0-3_1-1
  6
CONTINUOUS
 62
    7
 10
1292.5070000000001
 20
935.93700000000001
 11
1314.393
 21
945.78600000000006
  0
LINE
  8
_0-3_1-1
  6
CONTINUOUS
 62
    7
 10
1314.393
 20
945.78600000000006
 11
1320.549
 21
932.10699999999997
  0
LINE
  8
_0-3_1-1
  6
CONTINUOUS
 62
    7
 10
1320.549
 20
932.10699999999997
 11
1298.663
 21
922.25900000000001
  0
LINE
  8
_0-3_1-1
  6
CONTINUOUS
 62
    7
 10
1512.9639999999999
 20
1018.6940000000002
 11
1506.8090000000002
 21
1032.373
  0
LINE
  8
_0-3_1-1
  6
CONTINUOUS
 62
    7
 10
1506.8090000000002
 20
1032.373
 11
1528.6949999999999
 21
1042.222
  0
LINE
  8
_0-3_1-1
  6
CONTINUOUS
 62
    7
 10
1528.6949999999999
 20
1042.222
 11
1534.8499999999999
 21
1028.5429999999999
  0
LINE
  8
_0-3_1-1
  6
CONTINUOUS
 62
    7
 10
1534.8499999999999
 20
1028.5429999999999
 11
1512.9639999999999
 21
1018.6940000000002
  0
LINE
  8
_0-3_1-1
  6
CONTINUOUS
 62
    7
 10
1506.8090000000002
 20
1032.373
 11
1534.8509999999999
 21
1028.5429999999999
  0
LINE
  8
_0-3_1-1
  6
CONTINUOUS
 62
    7
 10
1292.5070000000001
 20
935.93700000000001
 11
1320.549
 21
932.10699999999997
  0
LINE
  8
_0-3_1-1
  6
CONTINUOUS
 62
    7
 10
1078.2059999999999
 20
839.50200000000007
 11
1106.2469999999998
 21
835.67200000000003
  0
LINE
  8
_0-3_1-1
  6
CONTINUOUS
 62
    7
 10
863.904
 20
743.06600000000003
 11
891.94599999999991
 21
739.23599999999988
  0
LINE
  8
_0-3_1-1
  6
CONTINUOUS
 62
    7
 10
639.30599999999993
 20
641.99700000000007
 11
667.34799999999996
 21
638.16700000000003
  0
LINE
  8
_0-3_1-1
  6
CONTINUOUS
 62
    7
 10
863.904
 20
743.06600000000003
 11
885.78999999999996
 21
752.91500000000019
  0
LINE
  8
_0-3_1-1
  6
CONTINUOUS
 62
    7
 10
1084.3609999999999
 20
825.82300000000009
 11
1078.2059999999999
 21
839.50200000000007
  0
LINE
  8
_0-3_1-1
  6
CONTINUOUS
 62
    7
 10
1078.2059999999999
 20
839.50200000000007
 11
1100.0919999999999
 21
849.35100000000011
  0
LINE
  8
_0-3_1-1
  6
CONTINUOUS
 62
    7
 10
1100.0919999999999
 20
849.35100000000011
 11
1106.2469999999998
 21
835.67200000000003
  0
LINE
  8
_0-3_1-1
  6
CONTINUOUS
 62
    7
 10
1106.2469999999998
 20
835.67200000000003
 11
1084.3609999999999
 21
825.82300000000009
  0
LINE
  8
_0-3_1-1
  6
CONTINUOUS
 62
    7
 10
1078.2059999999999
 20
839.50200000000007
 11
1106.2469999999998
 21
835.67200000000003
  0
LINE
  8
_0-3_1-1
  6
CONTINUOUS
 62
    7
 10
1078.2059999999999
 20
839.50200000000007
 11
1100.0919999999999
 21
849.35100000000011
  0
LINE
  8
_0-3_1-1
  6
CONTINUOUS
 62
    7
 10
1298.663
 20
922.25900000000001
 11
1292.5070000000001
 21
935.93700000000001
  0
LINE
  8
_0-3_1-1
  6
CONTINUOUS
 62
    7
 10
1292.5070000000001
 20
935.93700000000001
 11
1314.393
 21
945.78600000000006
  0
LINE
  8
_0-3_1-1
  6
CONTINUOUS
 62
    7
 10
1314.393
 20
945.78600000000006
 11
1320.549
 21
932.10699999999997
  0
LINE
  8
_0-3_1-1
  6
CONTINUOUS
 62
    7
 10
1320.549
 20
932.10699999999997
 11
1298.663
 21
922.25900000000001
  0
LINE
  8
_0-3_1-1
  6
CONTINUOUS
 62
    7
 10
1292.5070000000001
 20
935.93700000000001
 11
1320.549
 21
932.10699999999997
  0
LINE
  8
_0-3_1-1
  6
CONTINUOUS
 62
    7
 10
1292.5070000000001
 20
935.93700000000001
 11
1314.393
 21
945.78600000000006
  0
LINE
  8
_0-3_1-1
  6
CONTINUOUS
 62
    7
 10
1314.393
 20
945.78600000000006
 11
1320.549
 21
932.10699999999997
  0
LINE
  8
_0-3_1-1
  6
CONTINUOUS
 62
    7
 10
1512.9639999999999
 20
1018.6940000000002
 11
1506.8090000000002
 21
1032.373
  0
LINE
  8
_0-3_1-1
  6
CONTINUOUS
 62
    7
 10
1506.8090000000002
 20
1032.373
 11
1528.6949999999999
 21
1042.222
  0
LINE
  8
_0-3_1-1
  6
CONTINUOUS
 62
    7
 10
1534.8499999999999
 20
1028.5429999999999
 11
1512.9639999999999
 21
1018.6940000000002
  0
LINE
  8
_0-3_1-1
  6
CONTINUOUS
 62
    7
 10
1506.8090000000002
 20
1032.373
 11
1534.8499999999999
 21
1028.5429999999999
  0
LINE
  8
_0-3_1-1
  6
CONTINUOUS
 62
    7
 10
1292.5070000000001
 20
935.93700000000001
 11
1320.549
 21
932.10699999999997
  0
LINE
  8
_0-3_1-1
  6
CONTINUOUS
 62
    7
 10
1292.5070000000001
 20
935.93700000000001
 11
1314.393
 21
945.78600000000006
  0
LINE
  8
_0-3_1-1
  6
CONTINUOUS
 62
    7
 10
1314.393
 20
945.78600000000006
 11
1320.549
 21
932.10699999999997
  0
LINE
  8
_0-3_1-1
  6
CONTINUOUS
 62
    7
 10
1292.5070000000001
 20
935.93700000000001
 11
1320.549
 21
932.10699999999997
  0
LINE
  8
_0-3_1-1
  6
CONTINUOUS
 62
    7
 10
1292.5070000000001
 20
935.93799999999999
 11
1314.393
 21
945.78600000000006
  0
LINE
  8
_0-3_1-1
  6
CONTINUOUS
 62
    7
 10
1512.9639999999999
 20
1018.6940000000002
 11
1506.8090000000002
 21
1032.373
  0
LINE
  8
_0-3_1-1
  6
CONTINUOUS
 62
    7
 10
1506.8090000000002
 20
1032.373
 11
1528.6949999999999
 21
1042.222
  0
LINE
  8
_0-3_1-1
  6
CONTINUOUS
 62
    7
 10
1528.6949999999999
 20
1042.222
 11
1534.8499999999999
 21
1028.5429999999999
  0
LINE
  8
_0-3_1-1
  6
CONTINUOUS
 62
    7
 10
1534.8499999999999
 20
1028.5429999999999
 11
1512.9639999999999
 21
1018.6940000000002
  0
LINE
  8
_0-3_1-1
  6
CONTINUOUS
 62
    7
 10
1506.8090000000002
 20
1032.373
 11
1534.8499999999999
 21
1028.5429999999999
  0
LINE
  8
_0-2_1-0
  6
CONTINUOUS
 62
    7
 10
543.06499999999994
 20
573.46699999999998
 11
1654.0059999999999
 21
1073.3910000000001
  0
LINE
  8
_0-2_1-0
  6
CONTINUOUS
 62
    7
 10
541.01400000000001
 20
578.02700000000004
 11
1651.9540000000002
 21
1077.95
  0
LINE
  8
_0-b_1-C
  6
CONTINUOUS
 62
    7
 10
594.61099999999999
 20
690.63999999999987
 11
607.04599999999994
 21
656.85500000000002
  0
LINE
  8
_0-b_1-C
  6
CONTINUOUS
 62
    7
 10
808.9129999999999
 20
787.07500000000005
 11
821.34799999999996
 21
753.29100000000017
  0
LINE
  8
_0-b_1-C
  6
CONTINUOUS
 62
    7
 10
1023.2139999999999
 20
883.51099999999997
 11
1035.6489999999999
 21
849.72700000000009
  0
LINE
  8
_0-b_1-C
  6
CONTINUOUS
 62
    7
 10
1237.5159999999998
 20
979.94699999999989
 11
1249.951
 21
946.16200000000003
  0
LINE
  8
_0-b_1-C
  6
CONTINUOUS
 62
    7
 10
1451.7839999999999
 20
1076.4570000000001
 11
1464.2190000000001
 21
1042.672
  0
LINE
  8
_0-b_1-C
  6
CONTINUOUS
 62
    7
 10
1456.5280000000002
 20
1086.7280000000001
 11
1623.171
 21
1148.0640000000001
  0
LINE
  8
_0-b_1-C
  6
CONTINUOUS
 62
    7
 10
1242.26
 20
990.21800000000007
 11
1454.7399999999998
 21
1068.425
  0
LINE
  8
_0-b_1-C
  6
CONTINUOUS
 62
    7
 10
596.68599999999992
 20
685.00099999999998
 11
369.63599999999997
 21
612.19400000000007
  0
LINE
  8
_0-b_1-C
  6
CONTINUOUS
 62
    7
 10
1027.9580000000001
 20
893.78200000000004
 11
1240.444
 21
971.99200000000008
  0
LINE
  8
_0-b_1-C
  6
CONTINUOUS
 62
    7
 10
813.65699999999993
 20
797.346
 11
1026.1420000000001
 21
875.55600000000004
  0
LINE
  8
_0-b_1-C
  6
CONTINUOUS
 62
    7
 10
599.3549999999999
 20
700.91000000000008
 11
811.84099999999989
 21
779.12000000000012
  0
LINE
  8
_0-6_1-4
  6
CONTINUOUS
 62
    7
 10
545.04599999999994
 20
791.25099999999998
 11
453.71599999999989
 21
994.20600000000013
  0
LINE
  8
_0-6_1-4
  6
CONTINUOUS
 62
    7
 10
453.71599999999989
 20
994.20600000000013
 11
668.0179999999998
 21
1090.6420000000001
  0
LINE
  8
_0-6_1-4
  6
CONTINUOUS
 62
    7
 10
545.04599999999994
 20
791.25099999999998
 11
453.71599999999989
 21
994.20600000000013
  0
LINE
  8
_0-6_1-4
  6
CONTINUOUS
 62
    7
 10
759.34799999999996
 20
887.68600000000004
 11
668.0179999999998
 21
1090.6420000000001
  0
LINE
  8
_0-6_1-4
  6
CONTINUOUS
 62
    7
 10
668.0179999999998
 20
1090.6420000000001
 11
883.20100000000002
 21
1187.4739999999999
  0
LINE
  8
_0-6_1-4
  6
CONTINUOUS
 62
    7
 10
974.53099999999995
 20
984.51900000000001
 11
883.20100000000002
 21
1187.4739999999999
  0
LINE
  8
_0-6_1-4
  6
CONTINUOUS
 62
    7
 10
883.20100000000002
 20
1187.4739999999999
 11
1096.6209999999999
 21
1283.5130000000001
  0
LINE
  8
_0-6_1-4
  6
CONTINUOUS
 62
    7
 10
1187.951
 20
1080.558
 11
1096.6209999999999
 21
1283.5130000000001
  0
LINE
  8
_0-6_1-4
  6
CONTINUOUS
 62
    7
 10
1096.6209999999999
 20
1283.5130000000001
 11
1311.8019999999999
 21
1380.3440000000001
  0
LINE
  8
_0-6_1-4
  6
CONTINUOUS
 62
    7
 10
1403.1320000000001
 20
1177.3890000000001
 11
1311.8019999999999
 21
1380.3440000000001
  0
LINE
  8
_0-9_1-A
  6
CONTINUOUS
 62
    7
 10
230.87299999999999
 20
893.92600000000004
 11
453.71599999999989
 21
994.20600000000013
  0
LINE
  8
_0-9_1-A
  6
CONTINUOUS
 62
    7
 10
322.20299999999997
 20
690.971
 11
230.87299999999999
 21
893.92600000000004
  0
LINE
  8
_0-9_1-A
  6
CONTINUOUS
 62
    7
 10
545.04599999999994
 20
791.25099999999998
 11
453.71599999999989
 21
994.20600000000013
  0
LINE
  8
_0-6_1-4
  6
CONTINUOUS
 62
    7
 10
523.64899999999989
 20
646.21600000000001
 11
423.71399999999994
 21
819.30900000000008
  0
LINE
  8
_0-6_1-4
  6
CONTINUOUS
 62
    7
 10
423.71399999999994
 20
819.30900000000008
 11
402.02699999999993
 21
819.30900000000008
  0
LINE
  8
_0-6_1-4
  6
CONTINUOUS
 62
    7
 10
1192.567
 20
942.16200000000003
 11
1117.2090000000001
 21
1072.6870000000001
  0
LINE
  8
_0-6_1-4
  6
CONTINUOUS
 62
    7
 10
1117.2090000000001
 20
1072.6870000000001
 11
1079.0539999999999
 21
1072.6870000000001
  0
LINE
  8
_0-6_1-4
  6
CONTINUOUS
 62
    7
 10
1478.9549999999999
 20
645.85400000000004
 11
1529.742
 21
645.85400000000004
  0
LINE
  8
_0-7_1-5
  6
CONTINUOUS
 62
    7
 10
1541.9369999999999
 20
613.255
 11
1497.7759999999998
 21
613.255
  0
LINE
  8
_0-7_1-5
  6
CONTINUOUS
 62
    7
 10
1539.5439999999999
 20
577.35300000000007
 11
1518.5039999999999
 21
577.35300000000007
  0
LINE
  8
_0-7_1-5
  6
CONTINUOUS
 62
    7
 10
1549.117
 20
543.04800000000012
 11
1538.3099999999999
 21
543.04800000000012
  0
LINE
  8
_0-7_1-5
  6
CONTINUOUS
 62
    7
 10
1553.6799999999998
 20
516.42700000000002
 11
1561.8820000000001
 21
516.42700000000002
  0
LINE
  8
_0-7_1-5
  6
CONTINUOUS
 62
    7
 10
1541.672
 20
537.22400000000005
 11
1553.6799999999998
 21
516.42700000000002
  0
LINE
  8
_0-2_1-0
  6
CONTINUOUS
 62
    7
 10
550.452
 20
557.05200000000002
 11
1661.393
 21
1056.9759999999999
  0
LINE
  8
_0-3_1-1
  6
CONTINUOUS
 62
    7
 10
542.72899999999993
 20
573.40100000000007
 11
543.39400000000001
 21
572.73700000000008
  0
LINE
  8
_0-2_1-0
  6
CONTINUOUS
 62
    7
 10
586.01699999999994
 20
353.73900000000003
 11
540.42099999999994
 21
333.22100000000006
  0
LINE
  8
_0-2_1-0
  6
CONTINUOUS
 62
    7
 10
450.92899999999997
 20
532.09100000000001
 11
540.42099999999994
 21
333.22100000000006
  0
LINE
  8
_0-2_1-0
  6
CONTINUOUS
 62
    7
 10
542.72899999999993
 20
573.40100000000007
 11
450.92899999999997
 21
532.09100000000001
  0
LINE
  8
_0-2_1-0
  6
CONTINUOUS
 62
    7
 10
505.99599999999987
 20
531.56400000000008
 11
496.52499999999986
 21
552.60900000000004
  0
LINE
  8
_0-2_1-0
  6
CONTINUOUS
 62
    7
 10
539.78199999999993
 20
580.76200000000006
 11
455.80199999999991
 21
542.97100000000012
  0
LINE
  8
_0-2_1-0
  6
CONTINUOUS
 62
    7
 10
455.80199999999991
 20
542.97100000000012
 11
457.0329999999999
 21
540.23500000000001
  0
LINE
  8
_0-2_1-0
  6
CONTINUOUS
 62
    7
 10
541.01400000000001
 20
578.02700000000004
 11
457.0329999999999
 21
540.23500000000001
  0
LINE
  8
_0-2_1-0
  6
CONTINUOUS
 62
    7
 10
539.78199999999993
 20
580.76200000000006
 11
455.80199999999991
 21
542.97100000000012
  0
LINE
  8
_0-2_1-0
  6
CONTINUOUS
 62
    7
 10
493.44200000000001
 20
599.38600000000008
 11
460.61299999999994
 21
584.61300000000006
  0
LINE
  8
_0-2_1-0
  6
CONTINUOUS
 62
    7
 10
493.44200000000001
 20
599.38600000000008
 11
508.21499999999992
 21
566.55700000000002
  0
LINE
  8
_0-2_1-0
  6
CONTINUOUS
 62
    7
 10
460.61299999999994
 20
584.61300000000006
 11
475.38599999999997
 21
551.78399999999999
  0
LINE
  8
_0-2_1-0
  6
CONTINUOUS
 62
    7
 10
460.61299999999994
 20
584.61300000000006
 11
508.21499999999992
 21
566.55700000000002
  0
LINE
  8
_0-2_1-0
  6
CONTINUOUS
 62
    7
 10
525.29899999999998
 20
488.66800000000001
 11
487.48599999999988
 21
450.85500000000002
  0
LINE
  8
_0-2_1-0
  6
CONTINUOUS
 62
    7
 10
522.22699999999998
 20
495.49500000000012
 11
484.41300000000001
 21
457.68200000000002
  0
LINE
  8
_0-2_1-0
  6
CONTINUOUS
 62
    7
 10
519.154
 20
502.32300000000004
 11
481.34099999999989
 21
464.50900000000001
  0
LINE
  8
_0-6_1-4
  6
CONTINUOUS
 62
    7
 10
1465.1369999999999
 20
669.78800000000001
 11
1541.672
 21
537.22400000000005
  0
LINE
  8
_0-c_ADD_LINE
  6
HIDDEN
 62
    7
 10
1212.829
 20
745.46400000000006
 11
1328.7259999999997
 21
797.61700000000008
  0
LINE
  8
_0-2_1-0
  6
CONTINUOUS
 62
    7
 10
575.35899999999992
 20
377.42300000000006
 11
586.01699999999994
 21
353.73900000000003
  0
LINE
  8
_0-3_1-1
  6
CONTINUOUS
 62
    7
 10
1310.886
 20
936.95800000000008
 11
1465.1369999999999
 21
669.78800000000001
  0
LINE
  8
_0-7_1-5
  6
CONTINUOUS
 62
    7
 10
399.95499999999993
 20
419.18900000000002
 11
333.108
 21
419.18900000000002
  0
LINE
  8
_0-7_1-5
  6
CONTINUOUS
 62
    7
 10
453.16099999999994
 20
565.37099999999998
 11
399.95499999999993
 21
419.18900000000002
  0
LINE
  8
_0-7_1-5
  6
CONTINUOUS
 62
    7
 10
486.92499999999995
 20
321.89200000000005
 11
442.56700000000001
 21
321.89200000000005
  0
LINE
  8
_0-7_1-5
  6
CONTINUOUS
 62
    7
 10
523.46699999999987
 20
422.29100000000005
 11
486.92499999999995
 21
321.89200000000005
  0
LINE
  8
_0-3_1-1
  6
DOT_17
 62
    7
 10
588.96499999999992
 20
468.01400000000001
 11
1701.1979999999999
 21
968.51999999999998
  0
LINE
  8
_0-2_1-0
  6
CONTINUOUS
 62
    7
 10
544.98000000000002
 20
444.93200000000002
 11
801.69599999999991
 21
560.45400000000006
  0
LINE
  8
_0-2_1-0
  6
CONTINUOUS
 62
    7
 10
801.69599999999991
 20
560.45400000000006
 11
1702.4289999999999
 21
965.78399999999999
  0
LINE
  8
_0-8_1-6
  6
CONTINUOUS
 62
    7
 10
557.74699999999996
 20
538.404
 11
1669.5999999999999
 21
1038.7380000000001
  0
LINE
  8
_0-8_1-6
  6
CONTINUOUS
 62
    7
 10
579.63299999999992
 20
482.45700000000005
 11
1694.222
 21
984.02200000000005
  0
LINE
  8
_0-8_1-6
  6
CONTINUOUS
 62
    7
 10
557.74699999999996
 20
538.404
 11
582.36899999999991
 21
483.6880000000001
  0
LINE
  8
_0-8_1-6
  6
CONTINUOUS
 62
    7
 10
593.76799999999992
 20
433.98900000000003
 11
601.97499999999991
 21
415.75
  0
LINE
  8
_0-8_1-6
  6
CONTINUOUS
 62
    7
 10
559.93599999999992
 20
416.57100000000003
 11
566.50199999999995
 21
401.98000000000002
  0
LINE
  8
_0-8_1-6
  6
CONTINUOUS
 62
    7
 10
566.50199999999995
 20
401.98000000000002
 11
599.3309999999999
 21
416.75300000000004
  0
LINE
  8
_0-8_1-6
  6
CONTINUOUS
 62
    7
 10
592.76499999999999
 20
431.34400000000005
 11
599.3309999999999
 21
416.75300000000004
  0
LINE
  8
_0-8_1-6
  6
CONTINUOUS
 62
    7
 10
588.29599999999994
 20
431.52600000000001
 11
589.11699999999996
 21
429.70300000000003
  0
LINE
  8
_0-8_1-6
  6
CONTINUOUS
 62
    7
 10
592.76499999999999
 20
431.34400000000005
 11
589.11699999999996
 21
429.70300000000003
  0
LINE
  8
_0-8_1-6
  6
CONTINUOUS
 62
    7
 10
559.93599999999992
 20
416.57100000000003
 11
563.58299999999997
 21
418.21200000000005
  0
LINE
  8
_0-8_1-6
  6
CONTINUOUS
 62
    7
 10
562.76299999999992
 20
420.03600000000006
 11
563.58299999999997
 21
418.21200000000005
  0
LINE
  8
_0-8_1-6
  6
CONTINUOUS
 62
    7
 10
557.29099999999994
 20
417.57400000000007
 11
562.76299999999992
 21
420.03600000000006
  0
LINE
  8
_0-8_1-6
  6
CONTINUOUS
 62
    7
 10
985.79199999999992
 20
610.399
 11
993.99899999999991
 21
592.16100000000006
  0
LINE
  8
_0-8_1-6
  6
CONTINUOUS
 62
    7
 10
951.96000000000004
 20
592.98200000000008
 11
958.52499999999986
 21
578.39100000000008
  0
LINE
  8
_0-8_1-6
  6
CONTINUOUS
 62
    7
 10
958.52499999999986
 20
578.39100000000008
 11
991.3549999999999
 21
593.16399999999999
  0
LINE
  8
_0-8_1-6
  6
CONTINUOUS
 62
    7
 10
984.78899999999999
 20
607.755
 11
991.3549999999999
 21
593.16399999999999
  0
LINE
  8
_0-8_1-6
  6
CONTINUOUS
 62
    7
 10
980.31999999999994
 20
607.93700000000001
 11
981.14099999999996
 21
606.11300000000006
  0
LINE
  8
_0-8_1-6
  6
CONTINUOUS
 62
    7
 10
984.78899999999999
 20
607.755
 11
981.14099999999996
 21
606.11300000000006
  0
LINE
  8
_0-8_1-6
  6
CONTINUOUS
 62
    7
 10
951.96000000000004
 20
592.98200000000008
 11
955.60699999999997
 21
594.62300000000005
  0
LINE
  8
_0-8_1-6
  6
CONTINUOUS
 62
    7
 10
954.78600000000006
 20
596.447
 11
955.60699999999997
 21
594.62300000000005
  0
LINE
  8
_0-8_1-6
  6
CONTINUOUS
 62
    7
 10
949.31500000000005
 20
593.98500000000001
 11
954.78600000000006
 21
596.447
  0
LINE
  8
_0-8_1-6
  6
CONTINUOUS
 62
    7
 10
957.52199999999993
 20
575.74599999999998
 11
949.31500000000005
 21
593.98500000000001
  0
LINE
  8
_0-8_1-6
  6
CONTINUOUS
 62
    7
 10
588.29599999999994
 20
431.52600000000001
 11
1108.3679999999999
 21
665.55900000000008
  0
LINE
  8
_0-8_1-6
  6
CONTINUOUS
 62
    7
 10
565.49799999999993
 20
399.33600000000001
 11
1111.922
 21
645.226
  0
LINE
  8
_0-8_1-6
  6
CONTINUOUS
 62
    7
 10
570.423
 20
388.39300000000003
 11
1116.847
 21
634.28300000000002
  0
LINE
  8
_0-8_1-6
  6
CONTINUOUS
 62
    7
 10
575.34699999999998
 20
377.44900000000001
 11
1121.771
 21
623.34000000000003
  0
LINE
  8
_0-8_1-6
  6
CONTINUOUS
 62
    7
 10
565.49799999999993
 20
399.33600000000001
 11
556.13199999999995
 21
395.12100000000004
  0
LINE
  8
_0-8_1-6
  6
CONTINUOUS
 62
    7
 10
556.13199999999995
 20
395.12100000000004
 11
565.98099999999999
 21
373.23500000000001
  0
LINE
  8
_0-8_1-6
  6
CONTINUOUS
 62
    7
 10
575.34699999999998
 20
377.44900000000001
 11
565.98099999999999
 21
373.23500000000001
  0
LINE
  8
_0-8_1-6
  6
CONTINUOUS
 62
    7
 10
570.423
 20
388.39300000000003
 11
565.971
 21
386.38900000000001
  0
LINE
  8
_0-8_1-6
  6
CONTINUOUS
 62
    7
 10
565.971
 20
386.38900000000001
 11
561.0569999999999
 21
384.17800000000005
  0
LINE
  8
_0-8_1-6
  6
CONTINUOUS
 62
    7
 10
565.49799999999993
 20
399.33600000000001
 11
558.53399999999999
 21
414.81200000000001
  0
LINE
  8
_0-2_1-0
  6
CONTINUOUS
 62
    7
 10
503.94399999999996
 20
536.12400000000002
 11
565.49799999999993
 21
399.33600000000001
  0
LINE
  8
_0-8_1-6
  6
CONTINUOUS
 62
    7
 10
550.452
 20
557.05200000000002
 11
545.99099999999999
 21
555.04500000000007
  0
LINE
  8
_0-2_1-0
  6
CONTINUOUS
 62
    7
 10
539.78199999999993
 20
580.76200000000006
 11
1650.723
 21
1080.6859999999999
  0
ARC
  8
_0-b_1-C
  6
CONTINUOUS
 62
    7
 10
602.11899999999991
 20
693.40300000000002
 40
8
 50
110.20723000000001
 51
200.20695500000002
  0
ARC
  8
_0-b_1-C
  6
CONTINUOUS
 62
    7
 10
816.41999999999996
 20
789.83900000000006
 40
8
 50
110.20723000000001
 51
200.20695500000002
  0
ARC
  8
_0-b_1-C
  6
CONTINUOUS
 62
    7
 10
1030.722
 20
886.27399999999989
 40
8
 50
110.20723000000001
 51
200.20695500000002
  0
ARC
  8
_0-b_1-C
  6
CONTINUOUS
 62
    7
 10
1245.0229999999999
 20
982.71000000000004
 40
8
 50
110.207489
 51
200.20695500000002
  0
ARC
  8
_0-b_1-C
  6
CONTINUOUS
 62
    7
 10
1459.2910000000002
 20
1079.22
 40
8
 50
110.207489
 51
200.20695500000002
  0
ARC
  8
_0-b_1-C
  6
CONTINUOUS
 62
    7
 10
368.87099999999987
 20
616.202
 40
4.0800000000000001
 50
198.47985800000001
 51
280.80862400000001
  0
CIRCLE
  8
_0-2_1-0
  6
CONTINUOUS
 62
    7
 10
453.98899999999992
 20
571.03500000000008
 40
0.332
  0
CIRCLE
  8
_0-2_1-0
  6
CONTINUOUS
 62
    7
 10
456.80599999999993
 20
568.452
 40
0.332
  0
CIRCLE
  8
_0-2_1-0
  6
CONTINUOUS
 62
    7
 10
458.68399999999997
 20
564.93000000000006
 40
0.332
  0
CIRCLE
  8
_0-2_1-0
  6
CONTINUOUS
 62
    7
 10
459.154
 20
562.81700000000001
 40
0.332
  0
CIRCLE
  8
_0-2_1-0
  6
CONTINUOUS
 62
    7
 10
459.85799999999995
 20
562.81700000000001
 40
0.332
  0
CIRCLE
  8
_0-2_1-0
  6
CONTINUOUS
 62
    7
 10
464.08499999999992
 20
560.46900000000005
 40
0.332
  0
CIRCLE
  8
_0-2_1-0
  6
CONTINUOUS
 62
    7
 10
465.02399999999989
 20
556.947
 40
0.332
  0
CIRCLE
  8
_0-2_1-0
  6
CONTINUOUS
 62
    7
 10
463.61500000000001
 20
554.36500000000001
 40
0.332
  0
CIRCLE
  8
_0-2_1-0
  6
CONTINUOUS
 62
    7
 10
453.04899999999998
 20
567.27800000000002
 40
0.332
  0
CIRCLE
  8
_0-2_1-0
  6
CONTINUOUS
 62
    7
 10
454.22299999999996
 20
574.55700000000002
 40
0.332
  0
CIRCLE
  8
_0-2_1-0
  6
CONTINUOUS
 62
    7
 10
451.875
 20
578.78300000000002
 40
0.332
  0
CIRCLE
  8
_0-2_1-0
  6
CONTINUOUS
 62
    7
 10
452.34500000000003
 20
579.48700000000008
 40
0.332
  0
CIRCLE
  8
_0-2_1-0
  6
CONTINUOUS
 62
    7
 10
458.91899999999987
 20
577.37400000000002
 40
0.332
  0
CIRCLE
  8
_0-2_1-0
  6
CONTINUOUS
 62
    7
 10
458.68399999999997
 20
572.91300000000001
 40
0.332
  0
CIRCLE
  8
_0-2_1-0
  6
CONTINUOUS
 62
    7
 10
455.86699999999996
 20
576.67000000000007
 40
0.332
  0
CIRCLE
  8
_0-2_1-0
  6
CONTINUOUS
 62
    7
 10
451.64099999999996
 20
581.36599999999999
 40
0.332
  0
CIRCLE
  8
_0-2_1-0
  6
CONTINUOUS
 62
    7
 10
447.41399999999999
 20
586.29600000000005
 40
0.332
  0
CIRCLE
  8
_0-2_1-0
  6
CONTINUOUS
 62
    7
 10
445.53599999999994
 20
588.64400000000001
 40
0.332
  0
CIRCLE
  8
_0-2_1-0
  6
CONTINUOUS
 62
    7
 10
432.85699999999997
 20
602.96600000000001
 40
0.332
  0
CIRCLE
  8
_0-2_1-0
  6
CONTINUOUS
 62
    7
 10
437.08399999999995
 20
603.90600000000006
 40
0.332
  0
CIRCLE
  8
_0-2_1-0
  6
CONTINUOUS
 62
    7
 10
444.12699999999995
 20
603.67100000000005
 40
0.332
  0
CIRCLE
  8
_0-2_1-0
  6
CONTINUOUS
 62
    7
 10
438.02299999999991
 20
600.149
 40
0.332
  0
CIRCLE
  8
_0-2_1-0
  6
CONTINUOUS
 62
    7
 10
437.78800000000001
 20
600.149
 40
0.332
  0
CIRCLE
  8
_0-2_1-0
  6
CONTINUOUS
 62
    7
 10
444.83199999999988
 20
602.73200000000008
 40
0.332
  0
CIRCLE
  8
_0-2_1-0
  6
CONTINUOUS
 62
    7
 10
444.83199999999988
 20
604.61000000000001
 40
0.332
  0
CIRCLE
  8
_0-2_1-0
  6
CONTINUOUS
 62
    7
 10
450.23199999999997
 20
606.72300000000007
 40
0.332
  0
CIRCLE
  8
_0-2_1-0
  6
CONTINUOUS
 62
    7
 10
454.22299999999996
 20
606.48800000000006
 40
0.332
  0
CIRCLE
  8
_0-2_1-0
  6
CONTINUOUS
 62
    7
 10
454.45799999999997
 20
604.84500000000003
 40
0.332
  0
CIRCLE
  8
_0-2_1-0
  6
CONTINUOUS
 62
    7
 10
456.33699999999999
 20
602.96600000000001
 40
0.332
  0
CIRCLE
  8
_0-2_1-0
  6
CONTINUOUS
 62
    7
 10
448.58799999999997
 20
603.90600000000006
 40
0.332
  0
CIRCLE
  8
_0-2_1-0
  6
CONTINUOUS
 62
    7
 10
442.24900000000002
 20
608.36700000000008
 40
0.332
  0
CIRCLE
  8
_0-2_1-0
  6
CONTINUOUS
 62
    7
 10
441.54499999999996
 20
608.601
 40
0.332
  0
CIRCLE
  8
_0-2_1-0
  6
CONTINUOUS
 62
    7
 10
453.28399999999988
 20
607.89700000000005
 40
0.332
  0
CIRCLE
  8
_0-2_1-0
  6
CONTINUOUS
 62
    7
 10
458.21499999999992
 20
606.95800000000008
 40
0.332
  0
CIRCLE
  8
_0-2_1-0
  6
CONTINUOUS
 62
    7
 10
432.38799999999992
 20
602.96600000000001
 40
0.332
  0
CIRCLE
  8
_0-2_1-0
  6
CONTINUOUS
 62
    7
 10
432.15300000000002
 20
601.32299999999998
 40
0.332
  0
CIRCLE
  8
_0-2_1-0
  6
CONTINUOUS
 62
    7
 10
432.85699999999997
 20
599.91399999999999
 40
0.332
  0
CIRCLE
  8
_0-2_1-0
  6
CONTINUOUS
 62
    7
 10
433.09199999999987
 20
597.80100000000004
 40
0.332
  0
CIRCLE
  8
_0-2_1-0
  6
CONTINUOUS
 62
    7
 10
439.90099999999995
 20
597.56600000000003
 40
0.332
  0
CIRCLE
  8
_0-2_1-0
  6
CONTINUOUS
 62
    7
 10
447.64899999999989
 20
600.149
 40
0.332
  0
CIRCLE
  8
_0-2_1-0
  6
CONTINUOUS
 62
    7
 10
450.23199999999997
 20
601.55799999999999
 40
0.332
  0
CIRCLE
  8
_0-2_1-0
  6
CONTINUOUS
 62
    7
 10
443.6579999999999
 20
600.38400000000001
 40
0.332
  0
CIRCLE
  8
_0-2_1-0
  6
CONTINUOUS
 62
    7
 10
439.43200000000002
 20
602.26200000000006
 40
0.332
  0
CIRCLE
  8
_0-2_1-0
  6
CONTINUOUS
 62
    7
 10
435.90999999999997
 20
599.44500000000005
 40
0.332
  0
CIRCLE
  8
_0-2_1-0
  6
CONTINUOUS
 62
    7
 10
460.32799999999997
 20
604.61000000000001
 40
0.332
  0
CIRCLE
  8
_0-2_1-0
  6
CONTINUOUS
 62
    7
 10
467.13699999999994
 20
604.61000000000001
 40
0.332
  0
CIRCLE
  8
_0-2_1-0
  6
CONTINUOUS
 62
    7
 10
468.54599999999994
 20
589.58300000000008
 40
0.332
  0
CIRCLE
  8
_0-2_1-0
  6
CONTINUOUS
 62
    7
 10
464.55399999999997
 20
588.87900000000002
 40
0.332
  0
CIRCLE
  8
_0-2_1-0
  6
CONTINUOUS
 62
    7
 10
461.50199999999995
 20
587.70500000000004
 40
0.332
  0
CIRCLE
  8
_0-2_1-0
  6
CONTINUOUS
 62
    7
 10
456.33699999999999
 20
586.29600000000005
 40
0.332
  0
CIRCLE
  8
_0-2_1-0
  6
CONTINUOUS
 62
    7
 10
448.11899999999991
 20
582.54000000000008
 40
0.332
  0
CIRCLE
  8
_0-2_1-0
  6
CONTINUOUS
 62
    7
 10
444.83199999999988
 20
580.19200000000001
 40
0.332
  0
CIRCLE
  8
_0-2_1-0
  6
CONTINUOUS
 62
    7
 10
453.04899999999998
 20
582.30500000000006
 40
0.332
  0
CIRCLE
  8
_0-2_1-0
  6
CONTINUOUS
 62
    7
 10
457.27599999999995
 20
581.601
 40
0.332
  0
CIRCLE
  8
_0-2_1-0
  6
CONTINUOUS
 62
    7
 10
457.74499999999989
 20
571.73900000000003
 40
0.332
  0
CIRCLE
  8
_0-2_1-0
  6
CONTINUOUS
 62
    7
 10
459.3889999999999
 20
569.39100000000008
 40
0.332
  0
CIRCLE
  8
_0-2_1-0
  6
CONTINUOUS
 62
    7
 10
462.2059999999999
 20
571.26999999999998
 40
0.332
  0
CIRCLE
  8
_0-2_1-0
  6
CONTINUOUS
 62
    7
 10
465.02399999999989
 20
567.74800000000005
 40
0.332
  0
CIRCLE
  8
_0-2_1-0
  6
CONTINUOUS
 62
    7
 10
466.43299999999999
 20
563.75600000000009
 40
0.332
  0
CIRCLE
  8
_0-2_1-0
  6
CONTINUOUS
 62
    7
 10
466.90199999999993
 20
559.06100000000004
 40
0.332
  0
CIRCLE
  8
_0-2_1-0
  6
CONTINUOUS
 62
    7
 10
468.07600000000002
 20
557.41700000000003
 40
0.332
  0
CIRCLE
  8
_0-2_1-0
  6
CONTINUOUS
 62
    7
 10
470.89400000000001
 20
555.774
 40
0.332
  0
CIRCLE
  8
_0-2_1-0
  6
CONTINUOUS
 62
    7
 10
468.31099999999992
 20
550.84299999999996
 40
0.332
  0
CIRCLE
  8
_0-2_1-0
  6
CONTINUOUS
 62
    7
 10
461.73699999999997
 20
550.84299999999996
 40
0.332
  0
CIRCLE
  8
_0-2_1-0
  6
CONTINUOUS
 62
    7
 10
457.04099999999994
 20
549.90400000000011
 40
0.332
  0
CIRCLE
  8
_0-2_1-0
  6
CONTINUOUS
 62
    7
 10
455.39699999999993
 20
552.72100000000012
 40
0.332
  0
CIRCLE
  8
_0-2_1-0
  6
CONTINUOUS
 62
    7
 10
455.16300000000001
 20
555.30400000000009
 40
0.332
  0
CIRCLE
  8
_0-2_1-0
  6
CONTINUOUS
 62
    7
 10
454.69299999999998
 20
559.76499999999999
 40
0.332
  0
CIRCLE
  8
_0-2_1-0
  6
CONTINUOUS
 62
    7
 10
452.34500000000003
 20
563.99099999999999
 40
0.332
  0
CIRCLE
  8
_0-2_1-0
  6
CONTINUOUS
 62
    7
 10
448.11899999999991
 20
569.39100000000008
 40
0.332
  0
CIRCLE
  8
_0-2_1-0
  6
CONTINUOUS
 62
    7
 10
446.94499999999994
 20
572.20900000000006
 40
0.332
  0
CIRCLE
  8
_0-2_1-0
  6
CONTINUOUS
 62
    7
 10
446.47499999999991
 20
575.26100000000008
 40
0.332
  0
CIRCLE
  8
_0-2_1-0
  6
CONTINUOUS
 62
    7
 10
446.47499999999991
 20
577.13900000000001
 40
0.332
  0
CIRCLE
  8
_0-2_1-0
  6
CONTINUOUS
 62
    7
 10
447.17999999999995
 20
578.78300000000002
 40
0.332
  0
CIRCLE
  8
_0-2_1-0
  6
CONTINUOUS
 62
    7
 10
453.04899999999998
 20
572.44400000000007
 40
0.332
  0
CIRCLE
  8
_0-2_1-0
  6
CONTINUOUS
 62
    7
 10
457.04099999999994
 20
573.14800000000002
 40
0.332
  0
ARC
  8
_0-8_1-6
  6
CONTINUOUS
 62
    7
 10
1109.1119999999999
 20
693.673
 40
21.878
 50
127.77017200000002
 51
241.75672899999998
  0
ARC
  8
_0-8_1-6
  6
CONTINUOUS
 62
    7
 10
1086.3099999999999
 20
651.22600000000011
 40
26.305
 50
290.93908699999997
 51
61.756805000000014
  0
TEXT
  8
_0-1_0-0
 62
    7
 10
742.56700000000001
 20
115.13500000000001
 40
9.75
 41
1
 50
0
  1
縮尺
  0
TEXT
  8
_0-1_0-0
 62
    7
 10
1918.6189999999999
 20
156.48900000000003
 40
9.75
 41
1
 50
0
  1
ＮＯ
  0
TEXT
  8
_0-1_0-0
 62
    7
 10
106.08099999999993
 20
163.78399999999999
 40
9.75
 41
1
 50
0
  1
和形
  0
TEXT
  8
_0-2_1-0
 62
    7
 10
882.64199999999983
 20
108.75300000000003
 40
9.75
 41
0.7
 50
0
  1
1/5
  0
TEXT
  8
_0-9_1-A
 62
    7
 10
332.71899999999988
 20
942.49900000000002
 40
9.75
 41
0.8
 50
24.227999999999994
  1
245
  0
TEXT
  8
_0-7_1-5
 62
    7
 10
1047.354
 20
1068.0830000000001
 40
9.75
 41
1
 50
0
  1
桟瓦
  0
TEXT
  8
_0-7_1-5
 62
    7
 10
345.97499999999997
 20
815.23000000000002
 40
9.75
 41
1
 50
0
  1
万十軒瓦
  0
TEXT
  8
_0-7_1-5
 62
    7
 10
231.7179999999999
 20
119.13800000000002
 40
9.75
 41
1
 50
0
  1
軒先　1
  0
TEXT
  8
_0-7_1-5
 62
    7
 10
160.88899999999995
 20
143.22000000000003
 40
9.75
 41
1
 50
0
  1
鉄骨
  0
TEXT
  8
_0-6_1-4
 62
    7
 10
551.29199999999992
 20
1040.857
 40
9.75
 41
0.8
 50
24.228000000000133
  1
237
  0
TEXT
  8
_0-6_1-4
 62
    7
 10
766.03499999999997
 20
1137.491
 40
9.75
 41
0.8
 50
24.228000000000065
  1
237
  0
TEXT
  8
_0-6_1-4
 62
    7
 10
980.3359999999999
 20
1233.9270000000001
 40
9.75
 41
0.8
 50
24.22800000000008
  1
237
  0
TEXT
  8
_0-6_1-4
 62
    7
 10
1194.636
 20
1330.3610000000001
 40
9.75
 41
0.8
 50
24.228000000000065
  1
237
  0
TEXT
  8
_0-7_1-5
 62
    7
 10
373.75799999999998
 20
317.99800000000005
 40
9.75
 41
1
 50
0
  1
ＡＬＣ板
  0
TEXT
  8
_0-0_0
 62
    7
 10
1954.7649999999999
 20
135.899
 40
9.75
 41
1
 50
0
  1
Ｊ
  0
POINT
  8
_0-6_1-4
 62
    7
 10
453.71599999999989
 20
994.20600000000013
  0
POINT
  8
_0-6_1-4
 62
    7
 10
453.71599999999989
 20
994.20600000000013
  0
POINT
  8
_0-6_1-4
 62
    7
 10
668.0179999999998
 20
1090.6420000000001
  0
POINT
  8
_0-6_1-4
 62
    7
 10
883.20100000000002
 20
1187.4739999999999
  0
POINT
  8
_0-6_1-4
 62
    7
 10
1096.6209999999999
 20
1283.5130000000001
  0
POINT
  8
_0-6_1-4
 62
    7
 10
1311.8019999999999
 20
1380.3440000000001
  0
POINT
  8
_0-9_1-A
 62
    7
 10
230.87299999999999
 20
893.92600000000004
  0
POINT
  8
_0-9_1-A
 62
    7
 10
453.71599999999989
 20
994.20600000000013
  0
LINE
  8
_0-5_1-3
  6
CONTINUOUS
 62
    3
 10
1429.4099999999999
 20
568.779
 11
1315.4199999999996
 21
517.48300000000006
  0
LINE
  8
_0-c_ADD_LINE
  6
HIDDEN
 62
    3
 10
375.02199999999988
 20
576.11599999999999
 11
365.73499999999996
 21
612.06900000000007
  0
LINE
  8
_0-9_1-A
  6
CONTINUOUS
 62
    3
 10
391.88299999999998
 20
566.82000000000005
 11
398.89799999999991
 21
539.66500000000008
  0
LINE
  8
_0-9_1-A
  6
CONTINUOUS
 62
    3
 10
375.02199999999988
 20
576.11599999999999
 11
365.00100000000003
 21
614.90899999999999
  0
LINE
  8
_0-c_ADD_LINE
  6
HIDDEN
 62
    3
 10
375.02199999999988
 20
576.11599999999999
 11
387.54899999999992
 21
527.625
  0
LINE
  8
_0-9_1-A
  6
CONTINUOUS
 62
    3
 10
375.02199999999988
 20
576.11599999999999
 11
387.54899999999992
 21
527.625
  0
LINE
  8
_0-9_1-A
  6
CONTINUOUS
 62
    3
 10
351.64799999999985
 20
610.62700000000007
 11
365.00100000000003
 21
614.90899999999999
  0
LINE
  8
_0-9_1-A
  6
CONTINUOUS
 62
    3
 10
351.64799999999985
 20
610.62700000000007
 11
374.19499999999999
 21
523.34299999999996
  0
LINE
  8
_0-9_1-A
  6
CONTINUOUS
 62
    3
 10
374.19499999999999
 20
523.34299999999996
 11
387.54899999999992
 21
527.625
  0
LINE
  8
_0-9_1-A
  6
CONTINUOUS
 62
    3
 10
385.54399999999987
 20
535.38300000000004
 11
398.89799999999991
 21
539.66500000000008
  0
LINE
  8
_0-9_1-A
  6
CONTINUOUS
 62
    3
 10
375.02199999999988
 20
576.11599999999999
 11
387.54899999999992
 21
527.625
  0
LINE
  8
_0-a_1-B
  6
CONTINUOUS
 62
    3
 10
608.20899999999995
 20
650.88999999999999
 11
886.67900000000009
 21
753.38700000000006
  0
LINE
  8
_0-a_1-B
  6
CONTINUOUS
 62
    3
 10
890.1339999999999
 20
744.00200000000018
 11
898.57999999999993
 21
747.11099999999999
  0
LINE
  8
_0-a_1-B
  6
CONTINUOUS
 62
    3
 10
611.78999999999996
 20
667.12600000000009
 11
882.78199999999993
 21
766.87099999999998
  0
LINE
  8
_0-a_1-B
  6
CONTINUOUS
 62
    3
 10
607.04599999999994
 20
656.85500000000002
 11
609.13299999999992
 21
651.18600000000004
  0
LINE
  8
_0-a_1-B
  6
CONTINUOUS
 62
    3
 10
822.50999999999999
 20
747.32600000000002
 11
1100.981
 21
849.82299999999998
  0
LINE
  8
_0-a_1-B
  6
CONTINUOUS
 62
    3
 10
1104.4349999999999
 20
840.4380000000001
 11
1112.8809999999999
 21
843.54700000000003
  0
LINE
  8
_0-a_1-B
  6
CONTINUOUS
 62
    3
 10
1100.981
 20
849.82299999999998
 11
1104.4349999999999
 21
840.4380000000001
  0
LINE
  8
_0-a_1-B
  6
CONTINUOUS
 62
    3
 10
826.09199999999998
 20
763.56200000000001
 11
1097.0840000000001
 21
863.30600000000004
  0
LINE
  8
_0-a_1-B
  6
CONTINUOUS
 62
    3
 10
821.34799999999996
 20
753.29100000000017
 11
823.43399999999997
 21
747.62200000000007
  0
LINE
  8
_0-a_1-B
  6
CONTINUOUS
 62
    3
 10
1036.8119999999999
 20
843.76100000000008
 11
1315.2829999999999
 21
946.25800000000004
  0
LINE
  8
_0-a_1-B
  6
CONTINUOUS
 62
    3
 10
1318.7369999999999
 20
936.87400000000002
 11
1327.183
 21
939.98299999999995
  0
LINE
  8
_0-a_1-B
  6
CONTINUOUS
 62
    3
 10
1315.2829999999999
 20
946.25800000000004
 11
1318.7369999999999
 21
936.87400000000002
  0
LINE
  8
_0-a_1-B
  6
CONTINUOUS
 62
    3
 10
1040.393
 20
859.99800000000005
 11
1311.385
 21
959.74200000000008
  0
LINE
  8
_0-a_1-B
  6
CONTINUOUS
 62
    3
 10
1035.6489999999999
 20
849.72700000000009
 11
1037.7360000000001
 21
844.05799999999999
  0
LINE
  8
_0-a_1-B
  6
CONTINUOUS
 62
    3
 10
1318.7369999999999
 20
936.87400000000002
 11
1327.183
 21
939.98299999999995
  0
LINE
  8
_0-a_1-B
  6
CONTINUOUS
 62
    3
 10
1315.2829999999999
 20
946.25800000000004
 11
1318.7369999999999
 21
936.87400000000002
  0
LINE
  8
_0-a_1-B
  6
CONTINUOUS
 62
    3
 10
1251.1130000000001
 20
940.197
 11
1529.5840000000001
 21
1042.694
  0
LINE
  8
_0-a_1-B
  6
CONTINUOUS
 62
    3
 10
1529.5840000000001
 20
1042.694
 11
1533.038
 21
1033.3090000000002
  0
LINE
  8
_0-a_1-B
  6
CONTINUOUS
 62
    3
 10
1254.6949999999999
 20
956.43299999999999
 11
1525.6869999999999
 21
1056.1780000000001
  0
LINE
  8
_0-a_1-B
  6
CONTINUOUS
 62
    3
 10
1249.951
 20
946.16200000000003
 11
1252.037
 21
940.49300000000005
  0
LINE
  8
_0-a_1-B
  6
CONTINUOUS
 62
    3
 10
1464.2190000000001
 20
1042.673
 11
1466.3049999999998
 21
1037.0029999999999
  0
LINE
  8
_0-3_1-1
  6
DOT_17
 62
    3
 10
541.42399999999998
 20
577.11500000000001
 11
1652.365
 21
1077.038
  0
LINE
  8
_0-a_1-B
  6
CONTINUOUS
 62
    3
 10
1465.3819999999998
 20
1036.7069999999999
 11
1641.3650000000002
 21
1101.482
  0
LINE
  8
_0-a_1-B
  6
CONTINUOUS
 62
    3
 10
1468.963
 20
1052.9440000000002
 11
1635.606
 21
1114.28
  0
LINE
  8
_0-a_1-B
  6
CONTINUOUS
 62
    3
 10
1524.7980000000002
 20
1058.577
 11
1525.653
 21
1056.252
  0
LINE
  8
_0-a_1-B
  6
CONTINUOUS
 62
    3
 10
1524.8029999999999
 20
1058.579
 11
1525.6869999999999
 21
1056.1780000000001
  0
LINE
  8
_0-a_1-B
  6
CONTINUOUS
 62
    3
 10
1524.7980000000002
 20
1058.576
 11
1525.653
 21
1056.252
  0
LINE
  8
_0-a_1-B
  6
CONTINUOUS
 62
    3
 10
1532.3049999999998
 20
1061.3399999999999
 11
1541.451
 21
1036.4930000000002
  0
LINE
  8
_0-a_1-B
  6
CONTINUOUS
 62
    3
 10
1310.53
 20
962.06600000000003
 11
1311.385
 21
959.74200000000008
  0
LINE
  8
_0-a_1-B
  6
CONTINUOUS
 62
    3
 10
1318.0369999999998
 20
964.83000000000004
 11
1327.183
 21
939.98299999999995
  0
LINE
  8
_0-a_1-B
  6
CONTINUOUS
 62
    3
 10
1310.53
 20
962.06600000000003
 11
1311.385
 21
959.74200000000008
  0
LINE
  8
_0-a_1-B
  6
CONTINUOUS
 62
    3
 10
1318.0369999999998
 20
964.83000000000004
 11
1327.183
 21
939.98299999999995
  0
LINE
  8
_0-a_1-B
  6
CONTINUOUS
 62
    3
 10
1096.2279999999998
 20
865.63100000000009
 11
1097.0840000000001
 21
863.30600000000004
  0
LINE
  8
_0-a_1-B
  6
CONTINUOUS
 62
    3
 10
1103.7359999999999
 20
868.39400000000001
 11
1112.8809999999999
 21
843.54700000000003
  0
LINE
  8
_0-a_1-B
  6
CONTINUOUS
 62
    3
 10
881.92699999999991
 20
769.19499999999994
 11
882.78199999999993
 21
766.87099999999998
  0
LINE
  8
_0-a_1-B
  6
CONTINUOUS
 62
    3
 10
889.43399999999997
 20
771.95800000000008
 11
898.57999999999993
 21
747.11099999999999
  0
LINE
  8
_0-2_1-0
  6
CONTINUOUS
 62
    3
 10
555.01099999999997
 20
537.17300000000012
 11
557.74699999999996
 21
538.404
  0
LINE
  8
_0-2_1-0
  6
CONTINUOUS
 62
    3
 10
579.63299999999992
 20
482.45700000000005
 11
582.36899999999991
 21
483.6880000000001
  0
LINE
  8
_0-2_1-0
  6
CONTINUOUS
 62
    3
 10
550.08699999999999
 20
548.1160000000001
 11
555.01099999999997
 21
537.17300000000012
  0
LINE
  8
_0-2_1-0
  6
CONTINUOUS
 62
    3
 10
551.59199999999998
 20
552.08200000000011
 11
557.74699999999996
 21
538.404
  0
LINE
  8
_0-2_1-0
  6
CONTINUOUS
 62
    3
 10
512.47000000000003
 20
536.67100000000005
 11
543.47599999999989
 21
550.62300000000005
  0
LINE
  8
_0-2_1-0
  6
CONTINUOUS
 62
    3
 10
508.50299999999993
 20
538.17600000000004
 11
544.98000000000002
 21
554.59000000000003
  0
LINE
  8
_0-2_1-0
  6
CONTINUOUS
 62
    3
 10
544.43299999999999
 20
453.45800000000003
 11
509.96199999999999
 21
530.06000000000006
  0
LINE
  8
_0-2_1-0
  6
CONTINUOUS
 62
    3
 10
582.04999999999995
 20
464.90300000000002
 11
551.04499999999996
 21
450.95000000000005
  0
LINE
  8
_0-2_1-0
  6
CONTINUOUS
 62
    3
 10
584.55799999999999
 20
471.51400000000001
 11
579.63299999999992
 21
482.45700000000005
  0
LINE
  8
_0-2_1-0
  6
CONTINUOUS
 62
    3
 10
586.01699999999994
 20
463.39800000000002
 11
549.53999999999996
 21
446.98400000000004
  0
LINE
  8
_0-2_1-0
  6
CONTINUOUS
 62
    3
 10
588.52499999999998
 20
470.01000000000005
 11
582.36899999999991
 21
483.6880000000001
  0
LINE
  8
_0-2_1-0
  6
CONTINUOUS
 62
    3
 10
542.92799999999988
 20
449.49099999999999
 11
505.99599999999987
 21
531.56400000000008
  0
LINE
  8
_0-2_1-0
  6
DOT_17
 62
    3
 10
541.42399999999998
 20
577.11500000000001
 11
450.80700000000002
 21
536.33699999999999
  0
LINE
  8
_0-2_1-0
  6
CONTINUOUS
 62
    3
 10
455.80199999999991
 20
542.97100000000012
 11
438.36299999999994
 21
581.72500000000002
  0
LINE
  8
_0-2_1-0
  6
DOT_17
 62
    3
 10
438.36299999999994
 20
581.72500000000002
 11
428.27099999999996
 21
604.15100000000007
  0
LINE
  8
_0-9_1-A
  6
CONTINUOUS
 62
    3
 10
661.404
 20
653.245
 11
391.88299999999998
 21
566.82000000000005
  0
LINE
  8
_0-a_1-B
  6
CONTINUOUS
 62
    3
 10
656.97899999999993
 20
668.16300000000001
 11
657.51700000000005
 21
666.70100000000002
  0
LINE
  8
_0-9_1-A
  6
CONTINUOUS
 62
    3
 10
657.51700000000005
 20
666.70100000000002
 11
375.02199999999988
 21
576.11599999999999
  0
LINE
  8
_0-2_1-0
  6
CONTINUOUS
 62
    3
 10
656.97899999999993
 20
668.16300000000001
 11
664.60299999999984
 21
670.60799999999995
  0
LINE
  8
_0-a_1-B
  6
CONTINUOUS
 62
    3
 10
664.60299999999984
 20
670.60799999999995
 11
673.63199999999995
 21
646.07899999999995
  0
LINE
  8
_0-2_1-0
  6
CONTINUOUS
 62
    3
 10
661.404
 20
653.245
 11
665.18599999999992
 21
642.971
  0
LINE
  8
_0-2_1-0
  6
CONTINUOUS
 62
    3
 10
673.63199999999995
 20
646.07899999999995
 11
665.18599999999992
 21
642.971
  0
LINE
  8
_0-5_1-3
  6
CONTINUOUS
 62
    3
 10
1212.829
 20
745.46400000000006
 11
1326.819
 21
796.75900000000001
  0
LINE
  8
_0-5_1-3
  6
CONTINUOUS
 62
    3
 10
1366.5329999999999
 20
563.51200000000006
 11
1281.1769999999999
 21
753.19200000000001
  0
LINE
  8
_0-c_ADD_LINE
  6
HIDDEN
 62
    3
 10
1318.6120000000001
 20
793.06600000000003
 11
1322.3049999999998
 21
784.85900000000004
  0
LINE
  8
_0-5_1-3
  6
CONTINUOUS
 62
    3
 10
1327.777
 20
787.32100000000003
 11
1287.1959999999999
 21
769.06000000000006
  0
LINE
  8
_0-5_1-3
  6
CONTINUOUS
 62
    3
 10
1329.2809999999999
 20
791.28800000000001
 11
1326.819
 21
796.75900000000001
  0
LINE
  8
_0-5_1-3
  6
CONTINUOUS
 62
    3
 10
1422.981
 20
575.755
 11
1382.4009999999998
 21
557.49400000000003
  0
LINE
  8
_0-5_1-3
  6
CONTINUOUS
 62
    3
 10
1426.9479999999999
 20
574.25
 11
1429.4099999999999
 21
568.779
  0
LINE
  8
_0-5_1-3
  6
CONTINUOUS
 62
    3
 10
1361.0619999999999
 20
561.05000000000007
 11
1275.7059999999999
 21
750.73000000000002
  0
LINE
  8
_0-c_ADD_LINE
  6
HIDDEN
 62
    3
 10
1221.0360000000001
 20
749.15700000000004
 11
1224.73
 21
740.95000000000005
  0
LINE
  8
_0-5_1-3
  6
CONTINUOUS
 62
    3
 10
1219.258
 20
738.48700000000008
 11
1259.8389999999999
 21
756.74900000000002
  0
LINE
  8
_0-5_1-3
  6
CONTINUOUS
 62
    3
 10
1215.2909999999999
 20
739.99199999999996
 11
1212.829
 21
745.46400000000006
  0
LINE
  8
_0-5_1-3
  6
CONTINUOUS
 62
    3
 10
1314.4630000000002
 20
526.92200000000003
 11
1355.0430000000001
 21
545.18299999999999
  0
LINE
  8
_0-5_1-3
  6
CONTINUOUS
 62
    3
 10
1312.9579999999999
 20
522.95500000000004
 11
1315.4199999999996
 21
517.48300000000006
  0
LINE
  8
_0-8_1-6
  6
CONTINUOUS
 62
    3
 10
886.67900000000009
 20
753.38700000000006
 11
890.1339999999999
 21
744.00200000000018
  0
LINE
  8
_0-a_1-B
  6
CONTINUOUS
 62
    3
 10
1532.3049999999998
 20
1061.3399999999999
 11
1541.4789999999998
 21
1036.4160000000002
  0
LINE
  8
_0-a_1-B
  6
CONTINUOUS
 62
    3
 10
1533.038
 20
1033.3090000000002
 11
1541.4789999999998
 21
1036.4160000000002
  0
ARC
  8
_0-9_1-A
  6
CONTINUOUS
 62
    3
 10
456.42099999999994
 20
591.13800000000003
 40
106.571
 50
169.46289100000001
 51
219.50543200000004
  0
ARC
  8
_0-a_1-B
  6
CONTINUOUS
 62
    3
 10
614.553
 20
659.61900000000003
 40
8
 50
110.206802
 51
200.207382
  0
ARC
  8
_0-a_1-B
  6
CONTINUOUS
 62
    3
 10
828.8549999999999
 20
756.05400000000009
 40
8
 50
110.206802
 51
200.207382
  0
ARC
  8
_0-a_1-B
  6
CONTINUOUS
 62
    3
 10
1043.1569999999999
 20
852.49000000000001
 40
8
 50
110.206802
 51
200.207382
  0
ARC
  8
_0-a_1-B
  6
CONTINUOUS
 62
    3
 10
1257.4579999999999
 20
948.92600000000004
 40
8
 50
110.206802
 51
200.207382
  0
ARC
  8
_0-a_1-B
  6
CONTINUOUS
 62
    3
 10
1471.7259999999999
 20
1045.4359999999999
 40
8
 50
110.206802
 51
200.207382
  0
ARC
  8
_0-2_1-0
  6
CONTINUOUS
 62
    3
 10
545.52699999999993
 20
546.06399999999996
 40
5
 50
24.227737000000001
 51
114.227737
  0
ARC
  8
_0-2_1-0
  6
CONTINUOUS
 62
    3
 10
547.03199999999993
 20
550.03100000000006
 40
5
 50
24.227737000000001
 51
114.227737
  0
ARC
  8
_0-2_1-0
  6
CONTINUOUS
 62
    3
 10
514.52199999999993
 20
532.11099999999999
 40
5
 50
114.227737
 51
204.22773699999999
  0
ARC
  8
_0-2_1-0
  6
CONTINUOUS
 62
    3
 10
510.55499999999995
 20
533.61599999999999
 40
5
 50
114.227737
 51
204.22773699999999
  0
ARC
  8
_0-2_1-0
  6
CONTINUOUS
 62
    3
 10
548.99299999999994
 20
455.50999999999999
 40
5
 50
204.22773699999999
 51
294.22772200000003
  0
ARC
  8
_0-2_1-0
  6
CONTINUOUS
 62
    3
 10
547.48799999999994
 20
451.54300000000001
 40
5
 50
204.22773699999999
 51
294.22772200000003
  0
ARC
  8
_0-2_1-0
  6
CONTINUOUS
 62
    3
 10
579.99799999999993
 20
469.46200000000005
 40
5
 50
294.22772200000009
 51
24.22773700000003
  0
ARC
  8
_0-2_1-0
  6
CONTINUOUS
 62
    3
 10
583.96499999999992
 20
467.95799999999997
 40
5
 50
294.22772200000009
 51
24.22773700000003
  0
ARC
  8
_0-2_1-0
  6
DOT_17
 62
    3
 10
448.50699999999995
 20
578.27800000000002
 40
32.847000000000001
 50
25.639693999999999
 51
128.030563
  0
ARC
  8
_0-5_1-3
  6
CONTINUOUS
 62
    3
 10
1292.1199999999999
 20
758.11599999999999
 40
12
 50
114.227737
 51
204.22773699999999
  0
ARC
  8
_0-5_1-3
  6
CONTINUOUS
 62
    3
 10
1377.4759999999997
 20
568.43700000000001
 40
12
 50
204.22773699999999
 51
294.22772200000003
  0
ARC
  8
_0-5_1-3
  6
CONTINUOUS
 62
    3
 10
1326.5460000000003
 20
790.05700000000002
 40
3
 50
294.22772200000009
 51
24.22773700000003
  0
ARC
  8
_0-5_1-3
  6
CONTINUOUS
 62
    3
 10
1424.212
 20
573.01900000000001
 40
3
 50
24.227737000000001
 51
114.227737
  0
ARC
  8
_0-5_1-3
  6
CONTINUOUS
 62
    3
 10
1264.7629999999999
 20
745.80600000000004
 40
12
 50
24.227722000000021
 51
114.22772200000001
  0
ARC
  8
_0-5_1-3
  6
CONTINUOUS
 62
    3
 10
1350.1189999999999
 20
556.12600000000009
 40
12
 50
294.22772200000009
 51
24.227722000000071
  0
ARC
  8
_0-5_1-3
  6
CONTINUOUS
 62
    3
 10
1218.027
 20
741.22300000000007
 40
3
 50
204.22772199999997
 51
294.22772200000003
  0
ARC
  8
_0-5_1-3
  6
CONTINUOUS
 62
    3
 10
1315.694
 20
524.18600000000004
 40
3
 50
114.22772200000007
 51
204.22772200000003
  0
LINE
  8
_0-0_0
  6
CONTINUOUS
 62
    5
 10
2066.8919999999998
 20
92.838000000000136
 11
66.891999999999996
 21
92.838000000000136
  0
LINE
  8
_0-0_0
  6
CONTINUOUS
 62
    5
 10
2066.8919999999998
 20
192.83799999999999
 11
66.891999999999996
 21
192.83799999999999
  0
LINE
  8
_0-0_0
  6
CONTINUOUS
 62
    5
 10
718.24299999999994
 20
192.83799999999999
 11
718.24299999999994
 21
92.838000000000136
  0
LINE
  8
_0-0_0
  6
CONTINUOUS
 62
    5
 10
718.24299999999994
 20
142.83800000000008
 11
1107.432
 21
142.83800000000008
  0
LINE
  8
_0-0_0
  6
CONTINUOUS
 62
    5
 10
1107.432
 20
192.83799999999999
 11
1107.432
 21
92.838000000000136
  0
LINE
  8
_0-0_0
  6
CONTINUOUS
 62
    5
 10
1891.8920000000001
 20
92.838000000000136
 11
1891.8920000000001
 21
192.83799999999999
  0
LINE
  8
_0-0_0
  6
CONTINUOUS
 62
    5
 10
66.891999999999996
 20
1442.8379999999997
 11
2066.8919999999998
 21
1442.8379999999997
  0
TEXT
  8
_0-7_1-5
 62
    7
 10
2008.7629999999999
 20
120.31600000000005
 40
9.75
 41
0.7
 50
0
  1
32
  0
TEXT
  8
_0-7_1-5
 62
    7
 10
1767.8007100202976
 20
640.50145546558394
 40
12.5
 41
1
 50
0
  1
※　地域により瓦桟木の大きさは、異なります
  0
TEXT
  8
_0-7_1-5
 62
    7
 10
1575.9490000000001
 20
641.65200000000004
 40
12.5
 41
1
 50
0
  1
瓦桟　
  0
TEXT
  8
_0-7_1-5
 62
    7
 10
1575.9569999999999
 20
606.65200000000004
 40
12.5
 41
1
 50
0
  1
流し桟
  0
TEXT
  8
_0-7_1-5
 62
    7
 10
1575.9569999999999
 20
571.65200000000004
 40
12.5
 41
1
 50
0
  1
下葺き材
  0
TEXT
  8
_0-7_1-5
 62
    7
 10
1575.9569999999999
 20
536.65200000000004
 40
12.5
 41
1
 50
0
  1
野地板
  0
TEXT
  8
_0-7_1-5
 62
    7
 10
1575.9569999999999
 20
501.65200000000004
 40
12.5
 41
1
 50
0
  1
垂木
  0
TEXT
  8
_0-7_1-5
 62
    7
 10
1646.731
 20
501.65200000000004
 40
12.5
 41
1
 50
0
  1
Ｃ－100ｘ50ｘ20ｘ3.2
  0
TEXT
  8
_0-8_1-6
 62
    7
 10
1646.731
 20
571.65200000000004
 40
12.5
 41
1
 50
0
  1
ゴムアス系ルーフィング
  0
TEXT
  8
_0-8_1-6
 62
    7
 10
1646.731
 20
536.65200000000004
 40
12.5
 41
1
 50
0
  1
硬質木片セメント板　ｔ＝25
  0
TEXT
  8
_0-7_1-5
 62
    7
 10
1645.8933985034585
 20
641.03406968380614
 40
12.5
 41
1
 50
0
  1
15×30　樹脂桟木
  0
TEXT
  8
_0-7_1-5
 62
    7
 10
1575.9490000000001
 20
641.65200000000004
 40
12.5
 41
1
 50
0
  1
瓦桟　
  0
TEXT
  8
_0-7_1-5
 62
    7
 10
1785.367
 20
501.65200000000004
 40
12.5
 41
1
 50
0
  1
＠606
  0
TEXT
  8
_0-8_1-6
 62
    7
 10
1354.73
 20
293.51300000000003
 40
15
 41
1
 50
0
  1
＊　耐火仕様ではありません
  0
TEXT
  8
_0-8_1-6
 62
    7
 10
278.17439392725447
 20
413.50549103491187
 40
9.75
 41
1
 50
0
  1
面戸、漆喰
  0
TEXT
  8
_0-7_1-5
 62
    7
 10
1332.6663685870196
 20
242.22667572902623
 40
12.5
 41
1
 50
0
  1
※軒面戸の納まりには、木製、金属製、樹脂製、面戸付き軒瓦等があります。
  0
TEXT
  8
_0-7_1-5
 62
    7
 10
1344.0093604392016
 20
223.45056492091658
 40
12.5
 41
1
 50
0
  1
その他に漆喰またはモルタル仕上げもありますが、この場合は、左官仕事となります。
  0
ENDSEC
  0
EOF
