  0
SECTION
  2
HEADER
  9
$ACADVER
  1
AC1009
  9
$INSBASE
 10
0
 20
0
 30
0
  9
$EXTMIN
 10
0
 20
0
  9
$EXTMAX
 10
420
 20
297
  9
$LIMMIN
 10
0
 20
0
  9
$LIMMAX
 10
420
 20
297
  9
$LTSCALE
 40
1
  0
ENDSEC
  0
SECTION
  2
TABLES
  0
TABLE
  2
LTYPE
 70
     9
  0
LTYPE
  2
CONTINUOUS
 70
    64
  3
実線
 72
    65
 73
     0
 40
0.0
  0
LTYPE
  2
DASHED1
 70
    64
  3
--  --  --  --  --  --  --  --  
 72
    65
 73
     2
 40
2.5
 49
1.25
 49
-1.25
  0
LTYPE
  2
DASHED2
 70
    64
  3
----    ----    ----    ----    
 72
    65
 73
     2
 40
5.0
 49
2.5
 49
-2.5
  0
LTYPE
  2
DASHED3
 70
    64
  3
------  ------  ------  ------  
 72
    65
 73
     2
 40
5.0
 49
3.75
 49
-1.25
  0
LTYPE
  2
CENTER1
 70
    64
  3
----- - ----- - ----- - ----- - 
 72
    65
 73
     4
 40
10.0
 49
6.25
 49
-1.25
 49
1.25
 49
-1.25
  0
LTYPE
  2
CENTER2
 70
    64
  3
----------  --  ----------  --  
 72
    65
 73
     4
 40
20.0
 49
12.5
 49
-2.5
 49
2.5
 49
-2.5
  0
LTYPE
  2
PHANTOM1
 70
    64
  3
--- - - --- - - --- - - --- - - 
 72
    65
 73
     6
 40
10.0
 49
3.25
 49
-1.25
 49
1.25
 49
-1.25
 49
1.25
 49
-1.25
  0
LTYPE
  2
PHANTOM2
 70
    64
  3
--------  -  -  --------  -  -  
 72
    65
 73
     6
 40
20.0
 49
10.0
 49
-2.5
 49
1.25
 49
-2.5
 49
1.25
 49
-2.5
  0
LTYPE
  2
DOT
 70
    64
  3
-   -   -   -   -   -   -   -   
 72
    65
 73
     2
 40
2.5
 49
0.625
 49
-1.875
  0
LTYPE
  2
DUMMY
 70
    64
  3
ダミー
 72
    65
 73
     0
 40
0.0
  0
LTYPE
  2
RAND1
 70
    64
  3
ランダム線1
 72
    65
 73
     4
 40
10.0
 49
1.0
 49
-2.0
 49
3.0
 49
-4.0
  0
LTYPE
  2
RAND2
 70
    64
  3
ランダム線2
 72
    65
 73
     4
 40
14.0
 49
2.0
 49
-3.0
 49
4.0
 49
-5.0
  0
LTYPE
  2
RAND3
 70
    64
  3
ランダム線3
 72
    65
 73
     4
 40
18.0
 49
3.0
 49
-4.0
 49
5.0
 49
-6.0
  0
LTYPE
  2
RAND4
 70
    64
  3
ランダム線4
 72
    65
 73
     4
 40
22.0
 49
4.0
 49
-5.0
 49
6.0
 49
-7.0
  0
LTYPE
  2
RAND5
 70
    64
  3
ランダム線5
 72
    65
 73
     4
 40
26.0
 49
5.0
 49
-6.0
 49
7.0
 49
-8.0
  0
LTYPE
  2
LONG1
 70
    64
  3
----------  --  ----------  --  
 72
    65
 73
     4
 40
40.0
 49
32.5
 49
-2.5
 49
2.5
 49
-2.5
  0
LTYPE
  2
LONG2
 70
    64
  3
--------  -  -  --------  -  -  
 72
    65
 73
     6
 40
40.0
 49
30.0
 49
-2.5
 49
1.25
 49
-2.5
 49
1.25
 49
-2.5
  0
LTYPE
  2
LONG3
 70
    64
  3
+++++++++++++++..+++++++++++++++
 72
    65
 73
     2
 40
40.0
 49
37.5
 49
-2.5
  0
LTYPE
  2
LONG4
 70
    64
  3
+++++++++++++++..+++++++++++++++
 72
    65
 73
     2
 40
80.0
 49
75.0
 49
-5.0
  0
LTYPE
  2
LONG5
 70
    64
  3
----------  --  ----------  --  
 72
    65
 73
     4
 40
60.0
 49
37.5
 49
-7.5
 49
7.5
 49
-7.5
  0
LTYPE
  2
dashed
 70
   64
  3
-------   -------------   ------
 72
   65
 73
    2
 40
7.5
 49
6
 49
-1.5
  0
LTYPE
  2
dashed_spaced
 70
   64
  3
----        --------        ----
 72
   65
 73
    2
 40
12
 49
6
 49
-6
  0
LTYPE
  2
long_dashed_dotted
 70
   64
  3
------------- --- --------------
 72
   65
 73
    4
 40
15.25
 49
12
 49
-1.5
 49
0.25
 49
-1.5
  0
LTYPE
  2
long_dashed_double-dotted
 70
   64
  3
----------- --- --- ------------
 72
   65
 73
    6
 40
17
 49
12
 49
-1.5
 49
0.25
 49
-1.5
 49
0.25
 49
-1.5
  0
LTYPE
  2
long_dashed_triplicate-dotted
 70
   64
  3
--------- --- --- --- ----------
 72
   65
 73
    8
 40
18.75
 49
12
 49
-1.5
 49
0.25
 49
-1.5
 49
0.25
 49
-1.5
 49
0.25
 49
-1.5
  0
LTYPE
  2
dotted
 70
   64
  3
   -       -       -       -    
 72
   65
 73
    2
 40
1.75
 49
0.25
 49
-1.5
  0
LTYPE
  2
chain
 70
   64
  3
-------------- -- --------------
 72
   65
 73
    4
 40
18.5
 49
12
 49
-1.5
 49
3.5
 49
-1.5
  0
LTYPE
  2
chain_double_dash
 70
   64
  3
------------ -- -- -------------
 72
   65
 73
    6
 40
23.5
 49
12
 49
-1.5
 49
3.5
 49
-1.5
 49
3.5
 49
-1.5
  0
LTYPE
  2
dashed_dotted
 70
   64
  3
-----------     -     ----------
 72
   65
 73
    4
 40
9.25
 49
6
 49
-1.5
 49
0.25
 49
-1.5
  0
LTYPE
  2
double-dashed_dotted
 70
   64
  3
------   -----------   -   -----
 72
   65
 73
    6
 40
16.75
 49
6
 49
-1.5
 49
6
 49
-1.5
 49
0.25
 49
-1.5
  0
LTYPE
  2
dashed_double-dotted
 70
   64
  3
---------    -    -    ---------
 72
   65
 73
    6
 40
11
 49
6
 49
-1.5
 49
0.25
 49
-1.5
 49
0.25
 49
-1.5
  0
LTYPE
  2
double-dashed_double-dotted
 70
   64
  3
-----   ---------   -   -   ----
 72
   65
 73
    8
 40
18.5
 49
6
 49
-1.5
 49
6
 49
-1.5
 49
0.25
 49
-1.5
 49
0.25
 49
-1.5
  0
LTYPE
  2
dashed_triplicate-dotted
 70
   64
  3
-------    -    -    -    ------
 72
   65
 73
    8
 40
12.75
 49
6
 49
-1.5
 49
0.25
 49
-1.5
 49
0.25
 49
-1.5
 49
0.25
 49
-1.5
  0
LTYPE
  2
double-dashed_triplicate-dotted
 70
   64
  3
-----  ---------  -  -  -  -----
 72
   65
 73
   10
 40
20.25
 49
6
 49
-1.5
 49
6
 49
-1.5
 49
0.25
 49
-1.5
 49
0.25
 49
-1.5
 49
0.25
 49
-1.5
  0
LTYPE
  2
undefined
 70
   64
  3
--------------------------------
 72
   65
 73
    0
 40
0
  0
LTYPE
  2
DOT_17
 70
   64
  3
--             ---             -
 72
   65
 73
    2
 40
5
 49
1
 49
-4
  0
LTYPE
  2
DASHED
 70
   64
  3
---          ------          ---
 72
   65
 73
    2
 40
5
 49
2
 49
-3
  0
LTYPE
  2
DASHED2_19
 70
   64
  3
---          ------          ---
 72
   65
 73
    2
 40
10
 49
4
 49
-6
  0
LTYPE
  2
CENTER
 70
   64
  3
----------    ----    ----------
 72
   65
 73
    4
 40
9
 49
6
 49
-1
 49
1
 49
-1
  0
LTYPE
  2
CENTER2_21
 70
   64
  3
----------    ----    ----------
 72
   65
 73
    4
 40
18
 49
12
 49
-2
 49
2
 49
-2
  0
LTYPE
  2
PHANTOM
 70
   64
  3
---------   ---   ---   --------
 72
   65
 73
    6
 40
10
 49
5
 49
-1
 49
1
 49
-1
 49
1
 49
-1
  0
LTYPE
  2
PHANTOM2_23
 70
   64
  3
------    ----    ----    ------
 72
   65
 73
    6
 40
16
 49
6
 49
-2
 49
2
 49
-2
 49
2
 49
-2
  0
LTYPE
  2
HIDDEN
 70
   64
  3
--             ---             -
 72
   65
 73
    2
 40
2.5
 49
0.5
 49
-2
  0
ENDTAB
  0
TABLE
  2
STYLE
  5
3
100
AcDbSymbolTable
 70
     1
  0
STYLE
  5
10
100
AcDbSymbolTableRecord
100
AcDbTextStyleTableRecord
  2
STANDARD
 70
     0
 40
0.0
 41
1.0
 50
0.0
 71
     0
 42
0.2
  3
txt
  4
bigfont.shx
  0
STYLE
  5
26
100
AcDbSymbolTableRecord
100
AcDbTextStyleTableRecord
  2
TATEGAKI
 70
    68
 40
0.0
 41
1.0
 50
0.0
 71
     0
 42
1.0
  3
txt
  4
bigfont.shx
  0
ENDTAB
  0
TABLE
  2
LAYER
 70
    6
  0
LAYER
  2
_0-0_
 70
   64
 62
    7
  6
CONTINUOUS
  0
LAYER
  2
_1-0_
 70
   64
 62
    7
  6
CONTINUOUS
  0
LAYER
  2
_1-1_
 70
   64
 62
    7
  6
CONTINUOUS
  0
LAYER
  2
_1-2_
 70
   64
 62
    7
  6
CONTINUOUS
  0
LAYER
  2
_1-3_
 70
   64
 62
    7
  6
CONTINUOUS
  0
LAYER
  2
ADD_LINE
 70
   64
 62
    7
  6
CONTINUOUS
  0
ENDTAB
  0
ENDSEC
  0
SECTION
  2
BLOCKS
  0
ENDSEC
  0
SECTION
  2
ENTITIES
  0
LINE
  8
_0-0_
  6
CONTINUOUS
 62
    5
 10
6.7567526327597136
 20
280.13513513513516
 11
406.75677325274495
 21
280.13513513513516
  0
LINE
  8
_0-0_
  6
CONTINUOUS
 62
    5
 10
406.75677325274495
 20
10.13513513513513
 11
6.7567526327597136
 21
10.13513513513513
  0
LINE
  8
_0-0_
  6
CONTINUOUS
 62
    5
 10
406.75677325274495
 20
30.135133073136615
 11
6.7567402607685949
 21
30.135133073136615
  0
LINE
  8
_0-0_
  6
CONTINUOUS
 62
    5
 10
371.75678150073907
 20
10.13513513513513
 11
371.75678150073907
 21
30.135133073136615
  0
LINE
  8
_0-0_
  6
CONTINUOUS
 62
    5
 10
137.02703939901818
 20
30.135133073136615
 11
137.02703939901818
 21
10.13513513513513
  0
LINE
  8
_0-0_
  6
CONTINUOUS
 62
    5
 10
214.86486486486487
 20
30.135133073136615
 11
214.86486486486487
 21
10.13513513513513
  0
LINE
  8
_0-0_
  6
CONTINUOUS
 62
    5
 10
137.02703939901818
 20
20.135134104135886
 11
214.86486486486487
 21
20.135134104135886
  0
LINE
  8
_0-0_
  6
CONTINUOUS
 62
    5
 10
396.48648648648651
 20
25.945945945945951
 11
383.91891891891896
 21
13.378379924877265
  0
LINE
  8
_1-1_
  6
CONTINUOUS
 62
    7
 10
126.31341470254435
 20
136.32645065720018
 11
66.486474114495365
 21
136.32645065720018
  0
LINE
  8
_1-1_
  6
CONTINUOUS
 62
    7
 10
268.30924369193411
 20
132.3484348606419
 11
268.30924369193411
 21
162.3484348606419
  0
LINE
  8
_1-1_
  6
CONTINUOUS
 62
    7
 10
268.30924369193411
 20
162.3484348606419
 11
271.30925358952703
 21
162.3484348606419
  0
LINE
  8
_1-1_
  6
CONTINUOUS
 62
    7
 10
271.30925358952703
 20
162.3484348606419
 11
271.30925358952703
 21
132.3484348606419
  0
LINE
  8
_1-1_
  6
CONTINUOUS
 62
    7
 10
268.30924369193411
 20
162.3484348606419
 11
271.30925358952703
 21
132.3484348606419
  0
LINE
  8
_1-1_
  6
CONTINUOUS
 62
    7
 10
126.31341470254435
 20
136.32645065720018
 11
242.83313648120779
 21
136.32645065720018
  0
LINE
  8
_1-1_
  6
CONTINUOUS
 62
    7
 10
66.486474114495365
 20
133.32645313159841
 11
242.83313648120779
 21
133.32645313159841
  0
LINE
  8
_1-1_
  6
CONTINUOUS
 62
    7
 10
242.83313648120779
 20
136.32645065720018
 11
242.83313648120779
 21
133.32645313159841
  0
LINE
  8
_1-1_
  6
CONTINUOUS
 62
    7
 10
235.47618144267315
 20
132.72644867768159
 11
235.47618144267315
 21
133.32644075960727
  0
LINE
  8
_1-1_
  6
CONTINUOUS
 62
    7
 10
235.47618144267315
 20
133.32644075960727
 11
240.2761675860431
 21
133.32644075960727
  0
LINE
  8
_1-1_
  6
CONTINUOUS
 62
    7
 10
240.2761675860431
 20
133.32644075960727
 11
240.2761675860431
 21
132.72644867768159
  0
LINE
  8
_1-1_
  6
CONTINUOUS
 62
    7
 10
240.2761675860431
 20
132.72644867768159
 11
235.47618144267315
 21
132.72644867768159
  0
LINE
  8
_1-1_
  6
CONTINUOUS
 62
    7
 10
235.47618144267315
 20
132.72644867768159
 11
240.2761675860431
 21
133.32644075960727
  0
LINE
  8
_1-1_
  6
CONTINUOUS
 62
    7
 10
66.486474114495365
 20
132.72644867768159
 11
240.2761675860431
 21
132.72644867768159
  0
LINE
  8
_1-1_
  6
CONTINUOUS
 62
    3
 10
243.88814565297722
 20
132.47366415487755
 11
243.88814565297722
 21
136.32645065720018
  0
LINE
  8
_1-1_
  6
CONTINUOUS
 62
    3
 10
243.88814565297722
 20
136.32645065720018
 11
247.99698288376268
 21
136.32645065720018
  0
LINE
  8
_1-1_
  6
CONTINUOUS
 62
    3
 10
265.36748112858953
 20
162.47366415487755
 11
265.36748112858953
 21
158.96979254645271
  0
LINE
  8
_1-1_
  6
CONTINUOUS
 62
    3
 10
265.36748112858953
 20
162.47366415487755
 11
267.80305604676943
 21
162.47366415487755
  0
LINE
  8
_1-1_
  6
CONTINUOUS
 62
    3
 10
267.80305604676943
 20
132.47366415487755
 11
267.80305604676943
 21
162.47366415487755
  0
LINE
  8
_1-0_
  6
CONTINUOUS
 62
    3
 10
242.81123805690459
 20
156.28124752560177
 11
242.81123805690459
 21
150.88124455632391
  0
LINE
  8
_1-2_
  6
CONTINUOUS
 62
    3
 10
263.31123145850933
 20
159.88124950512037
 11
263.31123145850933
 21
156.28124752560177
  0
LINE
  8
_1-0_
  6
CONTINUOUS
 62
    3
 10
245.0314660974451
 20
163.21938592034419
 11
245.0314660974451
 21
157.8193829510663
  0
LINE
  8
_1-2_
  6
CONTINUOUS
 62
    3
 10
265.53145949904984
 20
166.81938789986276
 11
265.53145949904984
 21
163.21938592034419
  0
LINE
  8
_1-1_
  6
CONTINUOUS
 62
    7
 10
272.27033460462417
 20
131.49927087732263
 11
66.486474114495365
 21
131.49927087732263
  0
LINE
  8
_1-1_
  6
CONTINUOUS
 62
    3
 10
243.88814565297722
 20
132.47366415487755
 11
267.80305604676943
 21
132.47366415487755
  0
LINE
  8
_1-1_
  6
DASHED1
 62
    3
 10
271.80579108160896
 20
131.99859206740922
 11
66.486474114495365
 21
131.99859206740922
  0
LINE
  8
_1-1_
  6
CONTINUOUS
 62
    7
 10
271.30925358952703
 20
132.3484348606419
 11
268.30924369193411
 21
132.3484348606419
  0
LINE
  8
_1-1_
  6
CONTINUOUS
 62
    7
 10
252.66617233688768
 20
165.98612192514781
 11
252.12566478832349
 21
168.93702738993878
  0
LINE
  8
_1-1_
  6
CONTINUOUS
 62
    7
 10
252.12566478832349
 20
168.93702738993878
 11
269.83109757706927
 21
172.18009742530617
  0
LINE
  8
_1-1_
  6
CONTINUOUS
 62
    7
 10
269.83109757706927
 20
172.18009742530617
 11
270.37160512563344
 21
169.22919196051521
  0
LINE
  8
_1-1_
  6
CONTINUOUS
 62
    7
 10
270.37160512563344
 20
169.22919196051521
 11
252.66617233688768
 21
165.98612192514781
  0
LINE
  8
_1-1_
  6
CONTINUOUS
 62
    7
 10
252.12566478832349
 20
168.93702738993878
 11
270.37160512563344
 21
169.22919196051521
  0
LINE
  8
_1-1_
  6
CONTINUOUS
 62
    3
 10
251.24178499788852
 20
169.1636204075169
 11
251.13221864442568
 21
165.54784413930534
  0
LINE
  8
_1-1_
  6
CONTINUOUS
 62
    7
 10
265.27033625422297
 20
172.77940904771961
 11
267.67032932590797
 21
172.77940904771961
  0
LINE
  8
_1-1_
  6
CONTINUOUS
 62
    7
 10
267.67032932590797
 20
174.34112548828125
 11
267.67032932590797
 21
182.34112713788008
  0
LINE
  8
_1-1_
  6
CONTINUOUS
 62
    7
 10
267.67032932590797
 20
182.34112713788008
 11
271.27033130542651
 21
182.34112713788008
  0
LINE
  8
_1-1_
  6
CONTINUOUS
 62
    7
 10
271.27033130542651
 20
182.34112713788008
 11
271.27033130542651
 21
174.34112548828125
  0
LINE
  8
_1-1_
  6
CONTINUOUS
 62
    7
 10
271.27033130542651
 20
174.34112548828125
 11
267.67032932590797
 21
174.34112548828125
  0
LINE
  8
_1-1_
  6
CONTINUOUS
 62
    7
 10
271.27033130542651
 20
182.34112713788008
 11
267.67032932590797
 21
174.34112548828125
  0
LINE
  8
_1-1_
  6
CONTINUOUS
 62
    3
 10
251.24178499788852
 20
169.1636204075169
 11
271.55330348659209
 21
172.88403897672086
  0
LINE
  8
_1-1_
  6
CONTINUOUS
 62
    3
 10
271.55330348659209
 20
172.88403897672086
 11
271.55330348659209
 21
184.88897787558068
  0
LINE
  8
_1-1_
  6
CONTINUOUS
 62
    7
 10
272.27033460462417
 20
199.29039620064401
 11
272.27033460462417
 21
214.86486486486487
  0
LINE
  8
_1-1_
  6
CONTINUOUS
 62
    7
 10
267.67032932590797
 20
172.77940904771961
 11
267.67032932590797
 21
214.86486486486487
  0
LINE
  8
_1-1_
  6
CONTINUOUS
 62
    7
 10
265.27033625422297
 20
172.77940904771961
 11
265.27033625422297
 21
214.86486486486487
  0
LINE
  8
_1-1_
  6
CONTINUOUS
 62
    7
 10
203.09510514542865
 20
132.72644867768159
 11
203.09510514542865
 21
133.32644075960727
  0
LINE
  8
_1-1_
  6
CONTINUOUS
 62
    7
 10
203.09510514542865
 20
133.32644075960727
 11
207.89507891680745
 21
133.32644075960727
  0
LINE
  8
_1-1_
  6
CONTINUOUS
 62
    7
 10
207.89507891680745
 20
133.32644075960727
 11
207.89507891680745
 21
132.72644867768159
  0
LINE
  8
_1-1_
  6
CONTINUOUS
 62
    7
 10
207.89507891680745
 20
132.72644867768159
 11
203.09510514542865
 21
132.72644867768159
  0
LINE
  8
_1-1_
  6
CONTINUOUS
 62
    7
 10
203.09510514542865
 20
132.72644867768159
 11
207.89507891680745
 21
133.32644075960727
  0
LINE
  8
_1-1_
  6
CONTINUOUS
 62
    7
 10
141.45506162901182
 20
132.72644867768159
 11
141.45506162901182
 21
133.32644075960727
  0
LINE
  8
_1-1_
  6
CONTINUOUS
 62
    7
 10
141.45506162901182
 20
133.32644075960727
 11
146.25504777238177
 21
133.32644075960727
  0
LINE
  8
_1-1_
  6
CONTINUOUS
 62
    7
 10
146.25504777238177
 20
133.32644075960727
 11
146.25504777238177
 21
132.72644867768159
  0
LINE
  8
_1-1_
  6
CONTINUOUS
 62
    7
 10
146.25504777238177
 20
132.72644867768159
 11
141.45506162901182
 21
132.72644867768159
  0
LINE
  8
_1-1_
  6
CONTINUOUS
 62
    7
 10
141.45506162901182
 20
132.72644867768159
 11
146.25504777238177
 21
133.32644075960727
  0
LINE
  8
_1-1_
  6
CONTINUOUS
 62
    7
 10
80.341879354940886
 20
132.72644867768159
 11
80.341879354940886
 21
133.32644075960727
  0
LINE
  8
_1-1_
  6
CONTINUOUS
 62
    7
 10
80.341879354940886
 20
133.32644075960727
 11
85.141865498310821
 21
133.32644075960727
  0
LINE
  8
_1-1_
  6
CONTINUOUS
 62
    7
 10
85.141865498310821
 20
133.32644075960727
 11
85.141865498310821
 21
132.72644867768159
  0
LINE
  8
_1-1_
  6
CONTINUOUS
 62
    7
 10
85.141865498310821
 20
132.72644867768159
 11
80.341879354940886
 21
132.72644867768159
  0
LINE
  8
_1-1_
  6
CONTINUOUS
 62
    7
 10
80.341879354940886
 20
132.72644867768159
 11
85.141865498310821
 21
133.32644075960727
  0
LINE
  8
_1-3_
  6
CONTINUOUS
 62
    7
 10
265.93233675570104
 20
200.51151172534841
 11
256.27097464896536
 21
227.0558785103463
  0
LINE
  8
_1-3_
  6
CONTINUOUS
 62
    7
 10
261.91455737964526
 20
169.64991389094172
 11
249.71980739284209
 21
203.15468865471919
  0
LINE
  8
_1-3_
  6
CONTINUOUS
 62
    7
 10
251.16003088048987
 20
167.13458911792654
 11
242.86255707611909
 21
189.93169011296453
  0
LINE
  8
_1-3_
  6
CONTINUOUS
 62
    7
 10
247.58531725084461
 20
161.62059062236065
 11
241.25847893792232
 21
179.00342374234586
  0
LINE
  8
_1-3_
  6
CONTINUOUS
 62
    7
 10
233.6168196394637
 20
165.87186658704604
 11
240.99065007390203
 21
145.61244655299831
  0
LINE
  8
_1-3_
  6
CONTINUOUS
 62
    7
 10
245.76331886085305
 20
154.33268366633234
 11
241.25847893792232
 21
179.00342374234586
  0
LINE
  8
_1-3_
  6
CONTINUOUS
 62
    7
 10
240.91253332189612
 20
145.82708822714318
 11
251.83658084353885
 21
147.65210538297086
  0
LINE
  8
_1-3_
  6
CONTINUOUS
 62
    7
 10
255.03286000844597
 20
133.70864868164062
 11
232.83733471019849
 21
72.726918813344597
  0
LINE
  8
_1-3_
  6
CONTINUOUS
 62
    7
 10
255.03286000844597
 20
133.70864868164062
 11
255.9741953256968
 21
132.41811391469597
  0
LINE
  8
_1-3_
  6
CONTINUOUS
 62
    7
 10
256.27097464896536
 20
227.0558785103463
 11
252.75077201224664
 21
227.0558785103463
  0
LINE
  8
_1-3_
  6
CONTINUOUS
 62
    7
 10
249.71980739284209
 20
203.15468865471919
 11
246.92272289379224
 21
203.15468865471919
  0
LINE
  8
_1-3_
  6
CONTINUOUS
 62
    7
 10
242.86255707611909
 20
189.93169011296453
 11
240.87883201805323
 21
189.93169011296453
  0
LINE
  8
_1-3_
  6
CONTINUOUS
 62
    7
 10
241.25847893792232
 20
179.00342374234586
 11
238.9361572265625
 21
179.00342374234586
  0
LINE
  8
_1-3_
  6
CONTINUOUS
 62
    7
 10
233.6168196394637
 20
165.87186658704604
 11
230.08617504222974
 21
165.87186658704604
  0
LINE
  8
_1-3_
  6
CONTINUOUS
 62
    7
 10
232.83733471019849
 20
72.726918813344597
 11
223.7837837837838
 21
72.726918813344597
  0
LINE
  8
_1-3_
  6
CONTINUOUS
 62
    7
 10
113.60742929819469
 20
176.82719050226987
 11
126.5013328758446
 21
176.82719050226987
  0
LINE
  8
_1-3_
  6
CONTINUOUS
 62
    7
 10
113.60742929819469
 20
182.51539900496201
 11
124.43100387985642
 21
182.51539900496201
  0
LINE
  8
_1-3_
  6
CONTINUOUS
 62
    7
 10
113.60742929819469
 20
187.95627903293919
 11
122.45068111935178
 21
187.95627903293919
  0
LINE
  8
_1-3_
  6
CONTINUOUS
 62
    7
 10
113.60742929819469
 20
193.89179126636404
 11
120.29033351588895
 21
193.89179126636404
  0
LINE
  8
_1-3_
  6
CONTINUOUS
 62
    7
 10
117.64015403953759
 20
201.17309157912797
 11
113.60742929819469
 21
201.17309157912797
  0
LINE
  8
_1-3_
  6
CONTINUOUS
 62
    3
 10
271.55330348659209
 20
184.88897787558068
 11
271.55330348659209
 21
202.88897540118245
  0
LINE
  8
_1-1_
  6
CONTINUOUS
 62
    7
 10
272.27033460462417
 20
127.89926889780406
 11
66.486474114495365
 21
127.89926889780406
  0
LINE
  8
_1-1_
  6
CONTINUOUS
 62
    4
 10
66.486474114495365
 20
128.10928344726562
 11
66.696482477961354
 21
127.89926889780406
  0
LINE
  8
_1-1_
  6
CONTINUOUS
 62
    4
 10
66.486474114495365
 20
130.37200927734375
 11
68.959208308039479
 21
127.89926889780406
  0
LINE
  8
_1-1_
  6
CONTINUOUS
 62
    4
 10
67.621925972603464
 20
131.49927087732263
 11
71.221940324113177
 21
127.89926889780406
  0
LINE
  8
_1-1_
  6
CONTINUOUS
 62
    4
 10
69.884676546663854
 20
131.49927087732263
 11
73.484678526182449
 21
127.89926889780406
  0
LINE
  8
_1-1_
  6
CONTINUOUS
 62
    4
 10
72.147414748733127
 20
131.49927087732263
 11
75.747416728251693
 21
127.89926889780406
  0
LINE
  8
_1-1_
  6
CONTINUOUS
 62
    4
 10
74.41015295080237
 20
131.49927087732263
 11
78.010154930320937
 21
127.89926889780406
  0
LINE
  8
_1-1_
  6
CONTINUOUS
 62
    4
 10
76.672891152871614
 20
131.49927087732263
 11
80.272893132390209
 21
127.89926889780406
  0
LINE
  8
_1-1_
  6
CONTINUOUS
 62
    4
 10
78.935629354940886
 20
131.49927087732263
 11
82.535625148463893
 21
127.89926889780406
  0
LINE
  8
_1-1_
  6
CONTINUOUS
 62
    4
 10
81.198367557010158
 20
131.49927087732263
 11
84.798363350533151
 21
127.89926889780406
  0
LINE
  8
_1-1_
  6
CONTINUOUS
 62
    4
 10
83.461105759079402
 20
131.49927087732263
 11
87.061089180611276
 21
127.89926889780406
  0
LINE
  8
_1-1_
  6
CONTINUOUS
 62
    4
 10
85.723819217166394
 20
131.49927087732263
 11
89.323827382680534
 21
127.89926889780406
  0
LINE
  8
_1-1_
  6
CONTINUOUS
 62
    4
 10
87.986569791226785
 20
131.49927087732263
 11
91.586559398754233
 21
127.89926889780406
  0
LINE
  8
_1-1_
  6
CONTINUOUS
 62
    4
 10
90.24929562130491
 20
131.49927087732263
 11
93.84929760082349
 21
127.89926889780406
  0
LINE
  8
_1-1_
  6
CONTINUOUS
 62
    4
 10
92.512021451383035
 20
131.49927087732263
 11
96.112035802892748
 21
127.89926889780406
  0
LINE
  8
_1-1_
  6
CONTINUOUS
 62
    4
 10
94.774772025443411
 20
131.49927087732263
 11
98.374774004961992
 21
127.89926889780406
  0
LINE
  8
_1-1_
  6
CONTINUOUS
 62
    4
 10
97.037497855521536
 20
131.49927087732263
 11
100.63751220703125
 21
127.89926889780406
  0
LINE
  8
_1-1_
  6
CONTINUOUS
 62
    4
 10
99.300236057590794
 20
131.49927087732263
 11
102.90024422310495
 21
127.89926889780406
  0
LINE
  8
_1-1_
  6
CONTINUOUS
 62
    4
 10
101.56296188766892
 20
131.49927087732263
 11
105.1629638671875
 21
127.89926889780406
  0
LINE
  8
_1-1_
  6
CONTINUOUS
 62
    4
 10
103.82570008973818
 20
131.49927087732263
 11
107.42570206925676
 21
127.89926889780406
  0
LINE
  8
_1-1_
  6
CONTINUOUS
 62
    4
 10
106.0884259198163
 20
131.49927087732263
 11
109.68844027132602
 21
127.89926889780406
  0
LINE
  8
_1-1_
  6
CONTINUOUS
 62
    4
 10
108.35116412188556
 20
131.49927087732263
 11
111.95117847339527
 21
127.89926889780406
  0
LINE
  8
_1-1_
  6
CONTINUOUS
 62
    4
 10
110.61390232395482
 20
131.49927087732263
 11
114.21391667546453
 21
127.89926889780406
  0
LINE
  8
_1-1_
  6
CONTINUOUS
 62
    4
 10
112.87665289801521
 20
131.49927087732263
 11
116.47665487753379
 21
127.89926889780406
  0
LINE
  8
_1-1_
  6
CONTINUOUS
 62
    4
 10
115.13939110008447
 20
131.49927087732263
 11
118.73939307960305
 21
127.89926889780406
  0
LINE
  8
_1-1_
  6
CONTINUOUS
 62
    4
 10
117.40210455817146
 20
131.49927087732263
 11
121.00213128167231
 21
127.89926889780406
  0
LINE
  8
_1-1_
  6
CONTINUOUS
 62
    4
 10
119.66485513223185
 20
131.49927087732263
 11
123.26485711175043
 21
127.89926889780406
  0
LINE
  8
_1-1_
  6
CONTINUOUS
 62
    4
 10
121.92759333430111
 20
131.49927087732263
 11
125.52758294182856
 21
127.89926889780406
  0
LINE
  8
_1-1_
  6
CONTINUOUS
 62
    4
 10
124.19031916437923
 20
131.49927087732263
 11
127.79032114389781
 21
127.89926889780406
  0
LINE
  8
_1-1_
  6
CONTINUOUS
 62
    4
 10
126.45305736644849
 20
131.49927087732263
 11
130.05305934596706
 21
127.89926889780406
  0
LINE
  8
_1-1_
  6
CONTINUOUS
 62
    4
 10
128.71579556851773
 20
131.49927087732263
 11
132.31578517604518
 21
127.89926889780406
  0
LINE
  8
_1-1_
  6
CONTINUOUS
 62
    4
 10
130.97853377058701
 20
131.49927087732263
 11
134.57853575010557
 21
127.89926889780406
  0
LINE
  8
_1-1_
  6
CONTINUOUS
 62
    4
 10
133.24125960066513
 20
131.49927087732263
 11
136.84127395217484
 21
127.89926889780406
  0
LINE
  8
_1-1_
  6
CONTINUOUS
 62
    4
 10
135.50399780273438
 20
131.49927087732263
 11
139.10401215424409
 21
127.89926889780406
  0
LINE
  8
_1-1_
  6
CONTINUOUS
 62
    4
 10
137.7667236328125
 20
131.49927087732263
 11
141.36672561233109
 21
127.89926889780406
  0
LINE
  8
_1-1_
  6
CONTINUOUS
 62
    4
 10
140.02944946289062
 20
131.49927087732263
 11
143.62946381440034
 21
127.89926889780406
  0
LINE
  8
_1-1_
  6
CONTINUOUS
 62
    4
 10
142.29220003695102
 20
131.49927087732263
 11
145.89220201646961
 21
127.89926889780406
  0
LINE
  8
_1-1_
  6
CONTINUOUS
 62
    4
 10
144.55493823902029
 20
131.49927087732263
 11
148.15494021853885
 21
127.89926889780406
  0
LINE
  8
_1-1_
  6
CONTINUOUS
 62
    4
 10
146.81767644108953
 20
131.49927087732263
 11
150.41767842060813
 21
127.89926889780406
  0
LINE
  8
_1-1_
  6
CONTINUOUS
 62
    4
 10
149.08040227116766
 20
131.49927087732263
 11
152.68041662267737
 21
127.89926889780406
  0
LINE
  8
_1-1_
  6
CONTINUOUS
 62
    4
 10
151.34315284522805
 20
131.49927087732263
 11
154.94315482474664
 21
127.89926889780406
  0
LINE
  8
_1-1_
  6
CONTINUOUS
 62
    4
 10
153.60589104729732
 20
131.49927087732263
 11
157.20589302681589
 21
127.89926889780406
  0
LINE
  8
_1-1_
  6
CONTINUOUS
 62
    4
 10
155.8686045053843
 20
131.49927087732263
 11
159.46861885689401
 21
127.89926889780406
  0
LINE
  8
_1-1_
  6
CONTINUOUS
 62
    4
 10
158.13134270745357
 20
131.49927087732263
 11
161.73134468697214
 21
127.89926889780406
  0
LINE
  8
_1-1_
  6
CONTINUOUS
 62
    4
 10
160.39408090952281
 20
131.49927087732263
 11
163.99408288904141
 21
127.89926889780406
  0
LINE
  8
_1-1_
  6
CONTINUOUS
 62
    4
 10
162.65681911159206
 20
131.49927087732263
 11
166.25683346310177
 21
127.89926889780406
  0
LINE
  8
_1-1_
  6
CONTINUOUS
 62
    4
 10
164.91954494167018
 20
131.49927087732263
 11
168.5195592931799
 21
127.89926889780406
  0
LINE
  8
_1-1_
  6
CONTINUOUS
 62
    4
 10
167.18228314373945
 20
131.49927087732263
 11
170.78229749524917
 21
127.89926889780406
  0
LINE
  8
_1-1_
  6
CONTINUOUS
 62
    4
 10
169.44503371779984
 20
131.49927087732263
 11
173.04503569731841
 21
127.89926889780406
  0
LINE
  8
_1-1_
  6
CONTINUOUS
 62
    4
 10
171.70775954787797
 20
131.49927087732263
 11
175.30777389938768
 21
127.89926889780406
  0
LINE
  8
_1-1_
  6
CONTINUOUS
 62
    4
 10
173.97048537795609
 20
131.49927087732263
 11
177.57049972946581
 21
127.89926889780406
  0
LINE
  8
_1-1_
  6
CONTINUOUS
 62
    4
 10
176.23322358002534
 20
131.49927087732263
 11
179.83322555954393
 21
127.89926889780406
  0
LINE
  8
_1-1_
  6
CONTINUOUS
 62
    4
 10
178.49596178209461
 20
131.49927087732263
 11
182.09597613360432
 21
127.89926889780406
  0
LINE
  8
_1-1_
  6
CONTINUOUS
 62
    4
 10
180.75869998416385
 20
131.49927087732263
 11
184.35870196368245
 21
127.89926889780406
  0
LINE
  8
_1-1_
  6
CONTINUOUS
 62
    4
 10
183.02143818623313
 20
131.49927087732263
 11
186.62144016575169
 21
127.89926889780406
  0
LINE
  8
_1-1_
  6
CONTINUOUS
 62
    4
 10
185.28417638830237
 20
131.49927087732263
 11
188.88419073981208
 21
127.89926889780406
  0
LINE
  8
_1-1_
  6
CONTINUOUS
 62
    4
 10
187.54691459037164
 20
131.49927087732263
 11
191.14691656989021
 21
127.89926889780406
  0
LINE
  8
_1-1_
  6
CONTINUOUS
 62
    4
 10
189.80965279244089
 20
131.49927087732263
 11
193.40965477195948
 21
127.89926889780406
  0
LINE
  8
_1-1_
  6
CONTINUOUS
 62
    4
 10
192.07236625052789
 20
131.49927087732263
 11
195.67238060203761
 21
127.89926889780406
  0
LINE
  8
_1-1_
  6
CONTINUOUS
 62
    4
 10
194.33510445259714
 20
131.49927087732263
 11
197.93511880410685
 21
127.89926889780406
  0
LINE
  8
_1-1_
  6
CONTINUOUS
 62
    4
 10
196.59785502665753
 20
131.49927087732263
 11
200.19784463418497
 21
127.89926889780406
  0
LINE
  8
_1-1_
  6
CONTINUOUS
 62
    4
 10
198.86058085673565
 20
131.49927087732263
 11
202.46059520824537
 21
127.89926889780406
  0
LINE
  8
_1-1_
  6
CONTINUOUS
 62
    4
 10
201.12331905880492
 20
131.49927087732263
 11
204.72332103832349
 21
127.89926889780406
  0
LINE
  8
_1-1_
  6
CONTINUOUS
 62
    4
 10
203.38604488888305
 20
131.49927087732263
 11
206.9860344964105
 21
127.89926889780406
  0
LINE
  8
_1-1_
  6
CONTINUOUS
 62
    4
 10
205.64879546294341
 20
131.49927087732263
 11
209.24877269847974
 21
127.89926889780406
  0
LINE
  8
_1-1_
  6
CONTINUOUS
 62
    4
 10
207.91150892103042
 20
131.49927087732263
 11
211.51151090054898
 21
127.89926889780406
  0
LINE
  8
_1-1_
  6
CONTINUOUS
 62
    4
 10
210.17424712309966
 20
131.49927087732263
 11
213.77424910261826
 21
127.89926889780406
  0
LINE
  8
_1-1_
  6
CONTINUOUS
 62
    4
 10
212.43698532516893
 20
131.49927087732263
 11
216.0369873046875
 21
127.89926889780406
  0
LINE
  8
_1-1_
  6
CONTINUOUS
 62
    4
 10
214.69972352723818
 20
131.49927087732263
 11
218.29972550675677
 21
127.89926889780406
  0
LINE
  8
_1-1_
  6
CONTINUOUS
 62
    4
 10
216.96246172930745
 20
131.49927087732263
 11
220.56246370882602
 21
127.89926889780406
  0
LINE
  8
_1-1_
  6
CONTINUOUS
 62
    4
 10
219.22519993137669
 20
131.49927087732263
 11
222.82520191089529
 21
127.89926889780406
  0
LINE
  8
_1-1_
  6
CONTINUOUS
 62
    4
 10
221.48793813344597
 20
131.49927087732263
 11
225.08794011296453
 21
127.89926889780406
  0
LINE
  8
_1-1_
  6
CONTINUOUS
 62
    4
 10
223.75067633551521
 20
131.49927087732263
 11
227.3506783150338
 21
127.89926889780406
  0
LINE
  8
_1-1_
  6
CONTINUOUS
 62
    4
 10
226.01341453758448
 20
131.49927087732263
 11
229.61341651710305
 21
127.89926889780406
  0
LINE
  8
_1-1_
  6
CONTINUOUS
 62
    4
 10
228.27615273965372
 20
131.49927087732263
 11
231.87615471917232
 21
127.89926889780406
  0
LINE
  8
_1-1_
  6
CONTINUOUS
 62
    4
 10
230.538890941723
 20
131.49927087732263
 11
234.13889292124156
 21
127.89926889780406
  0
LINE
  8
_1-1_
  6
CONTINUOUS
 62
    4
 10
232.80160439980997
 20
131.49927087732263
 11
236.40163112331084
 21
127.89926889780406
  0
LINE
  8
_1-1_
  6
CONTINUOUS
 62
    4
 10
235.06436734586151
 20
131.49927087732263
 11
238.66436932538008
 21
127.89926889780406
  0
LINE
  8
_1-1_
  6
CONTINUOUS
 62
    4
 10
237.32708080394849
 20
131.49927087732263
 11
240.92705803948482
 21
127.89926889780406
  0
LINE
  8
_1-1_
  6
CONTINUOUS
 62
    4
 10
239.5897942620355
 20
131.49927087732263
 11
243.18979624155406
 21
127.89926889780406
  0
LINE
  8
_1-1_
  6
CONTINUOUS
 62
    4
 10
241.85253246410474
 20
131.49927087732263
 11
245.45253444362334
 21
127.89926889780406
  0
LINE
  8
_1-1_
  6
CONTINUOUS
 62
    4
 10
244.11529541015625
 20
131.49927087732263
 11
247.71527264569258
 21
127.89926889780406
  0
LINE
  8
_1-1_
  6
CONTINUOUS
 62
    4
 10
246.37800886824326
 20
131.49927087732263
 11
249.97801084776185
 21
127.89926889780406
  0
LINE
  8
_1-1_
  6
CONTINUOUS
 62
    4
 10
248.6407470703125
 20
131.49927087732263
 11
252.24074904983109
 21
127.89926889780406
  0
LINE
  8
_1-1_
  6
CONTINUOUS
 62
    4
 10
250.90348527238177
 20
131.49927087732263
 11
254.50348725190034
 21
127.89926889780406
  0
LINE
  8
_1-1_
  6
CONTINUOUS
 62
    4
 10
253.16622347445102
 20
131.49927087732263
 11
256.76622545396958
 21
127.89926889780406
  0
LINE
  8
_1-1_
  6
CONTINUOUS
 62
    4
 10
255.42896167652029
 20
131.49927087732263
 11
259.02896365603885
 21
127.89926889780406
  0
LINE
  8
_1-1_
  6
CONTINUOUS
 62
    4
 10
257.69169987858953
 20
131.49927087732263
 11
261.29170185810813
 21
127.89926889780406
  0
LINE
  8
_1-1_
  6
CONTINUOUS
 62
    4
 10
259.9544380806588
 20
131.49927087732263
 11
263.5544400601774
 21
127.89926889780406
  0
LINE
  8
_1-1_
  6
CONTINUOUS
 62
    4
 10
262.21717628272808
 20
131.49927087732263
 11
265.81717826224661
 21
127.89926889780406
  0
LINE
  8
_1-1_
  6
CONTINUOUS
 62
    4
 10
264.47988974081505
 20
131.49927087732263
 11
268.07991646431589
 21
127.89926889780406
  0
LINE
  8
_1-1_
  6
CONTINUOUS
 62
    4
 10
266.74262794288433
 20
131.49927087732263
 11
270.34265466638516
 21
127.89926889780406
  0
LINE
  8
_1-1_
  6
CONTINUOUS
 62
    4
 10
269.00539088893584
 20
131.49927087732263
 11
272.27033460462417
 21
128.23431478964318
  0
LINE
  8
_1-1_
  6
CONTINUOUS
 62
    4
 10
271.26810434702281
 20
131.49927087732263
 11
272.27033460462417
 21
130.49705299171242
  0
LINE
  8
_1-1_
  6
CONTINUOUS
 62
    4
 10
270.4519983240076
 20
127.89926889780406
 11
272.27033460462417
 21
129.71760517842063
  0
LINE
  8
_1-1_
  6
CONTINUOUS
 62
    4
 10
268.18923537795609
 20
127.89926889780406
 11
271.78926210145693
 21
131.49927087732263
  0
LINE
  8
_1-1_
  6
CONTINUOUS
 62
    4
 10
265.92649717588682
 20
127.89926889780406
 11
269.52649915540542
 21
131.49927087732263
  0
LINE
  8
_1-1_
  6
CONTINUOUS
 62
    4
 10
263.66378371779984
 20
127.89926889780406
 11
267.26376095333615
 21
131.49927087732263
  0
LINE
  8
_1-1_
  6
CONTINUOUS
 62
    4
 10
261.40102077174834
 20
127.89926889780406
 11
265.00102275126693
 21
131.49927087732263
  0
LINE
  8
_1-1_
  6
CONTINUOUS
 62
    4
 10
259.13828256967906
 20
127.89926889780406
 11
262.73828454919766
 21
131.49927087732263
  0
LINE
  8
_1-1_
  6
CONTINUOUS
 62
    4
 10
256.87554436760979
 20
127.89926889780406
 11
260.47554634712839
 21
131.49927087732263
  0
LINE
  8
_1-1_
  6
CONTINUOUS
 62
    4
 10
254.61280616554055
 20
127.89926889780406
 11
258.21280814505911
 21
131.49927087732263
  0
LINE
  8
_1-1_
  6
CONTINUOUS
 62
    4
 10
252.3500679634713
 20
127.89926889780406
 11
255.9500451990076
 21
131.49927087732263
  0
LINE
  8
_1-1_
  6
CONTINUOUS
 62
    4
 10
250.08732976140203
 20
127.89926889780406
 11
253.68730699693836
 21
131.49927087732263
  0
LINE
  8
_1-1_
  6
CONTINUOUS
 62
    4
 10
247.82456681535052
 20
127.89926889780406
 11
251.42454405088685
 21
131.49927087732263
  0
LINE
  8
_1-1_
  6
CONTINUOUS
 62
    4
 10
245.56180386929901
 20
127.89926889780406
 11
249.16183059279984
 21
131.49927087732263
  0
LINE
  8
_1-1_
  6
CONTINUOUS
 62
    4
 10
243.29909041121201
 20
127.89926889780406
 11
246.89906764674834
 21
131.49927087732263
  0
LINE
  8
_1-1_
  6
CONTINUOUS
 62
    4
 10
241.03635220914276
 20
127.89926889780406
 11
244.63632944467906
 21
131.49927087732263
  0
LINE
  8
_1-1_
  6
CONTINUOUS
 62
    4
 10
238.77358926309122
 20
127.89926889780406
 11
242.37359124260982
 21
131.49927087732263
  0
LINE
  8
_1-1_
  6
CONTINUOUS
 62
    4
 10
236.51085106102198
 20
127.89926889780406
 11
240.11085304054055
 21
131.49927087732263
  0
LINE
  8
_1-1_
  6
CONTINUOUS
 62
    4
 10
234.24811285895271
 20
127.89926889780406
 11
237.8481148384713
 21
131.49927087732263
  0
LINE
  8
_1-1_
  6
CONTINUOUS
 62
    4
 10
231.98537465688347
 20
127.89926889780406
 11
235.58535189241977
 21
131.49927087732263
  0
LINE
  8
_1-1_
  6
CONTINUOUS
 62
    4
 10
229.72261171083193
 20
127.89926889780406
 11
233.32261369035052
 21
131.49927087732263
  0
LINE
  8
_1-1_
  6
CONTINUOUS
 62
    4
 10
227.45984876478042
 20
127.89926889780406
 11
231.05987548828125
 21
131.49927087732263
  0
LINE
  8
_1-1_
  6
CONTINUOUS
 62
    4
 10
225.19713530669341
 20
127.89926889780406
 11
228.79711254222974
 21
131.49927087732263
  0
LINE
  8
_1-1_
  6
CONTINUOUS
 62
    4
 10
222.93439710462417
 20
127.89926889780406
 11
226.5343743401605
 21
131.49927087732263
  0
LINE
  8
_1-1_
  6
CONTINUOUS
 62
    4
 10
220.67163415857266
 20
127.89926889780406
 11
224.27163613809122
 21
131.49927087732263
  0
LINE
  8
_1-1_
  6
CONTINUOUS
 62
    4
 10
218.40889595650339
 20
127.89926889780406
 11
222.00889793602198
 21
131.49927087732263
  0
LINE
  8
_1-1_
  6
CONTINUOUS
 62
    4
 10
216.14615775443414
 20
127.89926889780406
 11
219.74615973395271
 21
131.49927087732263
  0
LINE
  8
_1-1_
  6
CONTINUOUS
 62
    4
 10
213.88341955236487
 20
127.89926889780406
 11
217.48342153188347
 21
131.49927087732263
  0
LINE
  8
_1-1_
  6
CONTINUOUS
 62
    4
 10
211.62065660631336
 20
127.89926889780406
 11
215.22065858583193
 21
131.49927087732263
  0
LINE
  8
_1-1_
  6
CONTINUOUS
 62
    4
 10
209.35791840424409
 20
127.89926889780406
 11
212.95789563978042
 21
131.49927087732263
  0
LINE
  8
_1-1_
  6
CONTINUOUS
 62
    4
 10
207.0951678301837
 20
127.89926889780406
 11
210.69518218169341
 21
131.49927087732263
  0
LINE
  8
_1-1_
  6
CONTINUOUS
 62
    4
 10
204.83242962811445
 20
127.89926889780406
 11
208.4324192356419
 21
131.49927087732263
  0
LINE
  8
_1-1_
  6
CONTINUOUS
 62
    4
 10
202.56969142604521
 20
127.89926889780406
 11
206.16968103357266
 21
131.49927087732263
  0
LINE
  8
_1-1_
  6
CONTINUOUS
 62
    4
 10
200.30695322397594
 20
127.89926889780406
 11
203.90694283150339
 21
131.49927087732263
  0
LINE
  8
_1-1_
  6
CONTINUOUS
 62
    4
 10
198.04420264991555
 20
127.89926889780406
 11
201.64420462943414
 21
131.49927087732263
  0
LINE
  8
_1-1_
  6
CONTINUOUS
 62
    4
 10
195.7814644478463
 20
127.89926889780406
 11
199.38146642736487
 21
131.49927087732263
  0
LINE
  8
_1-1_
  6
CONTINUOUS
 62
    4
 10
193.51873861776818
 20
127.89926889780406
 11
197.11872822529563
 21
131.49927087732263
  0
LINE
  8
_1-1_
  6
CONTINUOUS
 62
    4
 10
191.25598804370779
 20
127.89926889780406
 11
194.85599002322635
 21
131.49927087732263
  0
LINE
  8
_1-1_
  6
CONTINUOUS
 62
    4
 10
188.99326221362966
 20
127.89926889780406
 11
192.59325182115711
 21
131.49927087732263
  0
LINE
  8
_1-1_
  6
CONTINUOUS
 62
    4
 10
186.73052401156039
 20
127.89926889780406
 11
190.33051361908784
 21
131.49927087732263
  0
LINE
  8
_1-1_
  6
CONTINUOUS
 62
    4
 10
184.4677734375
 20
127.89926889780406
 11
188.06776304502745
 21
131.49927087732263
  0
LINE
  8
_1-1_
  6
CONTINUOUS
 62
    4
 10
182.20502286343961
 20
127.89926889780406
 11
185.80503721494932
 21
131.49927087732263
  0
LINE
  8
_1-1_
  6
CONTINUOUS
 62
    4
 10
179.94229703336148
 20
127.89926889780406
 11
183.54228664088893
 21
131.49927087732263
  0
LINE
  8
_1-1_
  6
CONTINUOUS
 62
    4
 10
177.67955883129224
 20
127.89926889780406
 11
181.27954843881969
 21
131.49927087732263
  0
LINE
  8
_1-1_
  6
CONTINUOUS
 62
    4
 10
175.41680825723185
 20
127.89926889780406
 11
179.01682260874156
 21
131.49927087732263
  0
LINE
  8
_1-1_
  6
CONTINUOUS
 62
    4
 10
173.15408242715372
 20
127.89926889780406
 11
176.75407203468117
 21
131.49927087732263
  0
LINE
  8
_1-1_
  6
CONTINUOUS
 62
    4
 10
170.89134422508448
 20
127.89926889780406
 11
174.49134620460305
 21
131.49927087732263
  0
LINE
  8
_1-1_
  6
CONTINUOUS
 62
    4
 10
168.62860602301521
 20
127.89926889780406
 11
172.2286080025338
 21
131.49927087732263
  0
LINE
  8
_1-1_
  6
CONTINUOUS
 62
    4
 10
166.36586782094597
 20
127.89926889780406
 11
169.96585742847341
 21
131.49927087732263
  0
LINE
  8
_1-1_
  6
CONTINUOUS
 62
    4
 10
164.10310487489443
 20
127.89926889780406
 11
167.70309448242187
 21
131.49927087732263
  0
LINE
  8
_1-1_
  6
CONTINUOUS
 62
    4
 10
161.84036667282518
 20
127.89926889780406
 11
165.44036865234375
 21
131.49927087732263
  0
LINE
  8
_1-1_
  6
CONTINUOUS
 62
    4
 10
159.57762847075591
 20
127.89926889780406
 11
163.17763045027451
 21
131.49927087732263
  0
LINE
  8
_1-1_
  6
CONTINUOUS
 62
    4
 10
157.31489026868667
 20
127.89926889780406
 11
160.91486750422297
 21
131.49927087732263
  0
LINE
  8
_1-1_
  6
CONTINUOUS
 62
    4
 10
155.0521520666174
 20
127.89926889780406
 11
158.65214167414484
 21
131.49927087732263
  0
LINE
  8
_1-1_
  6
CONTINUOUS
 62
    4
 10
152.789401492557
 20
127.89926889780406
 11
156.3894034720756
 21
131.49927087732263
  0
LINE
  8
_1-1_
  6
CONTINUOUS
 62
    4
 10
150.52666329048776
 20
127.89926889780406
 11
154.12667764199747
 21
131.49927087732263
  0
LINE
  8
_1-1_
  6
CONTINUOUS
 62
    4
 10
148.26391271642737
 20
127.89926889780406
 11
151.86391469594597
 21
131.49927087732263
  0
LINE
  8
_1-1_
  6
CONTINUOUS
 62
    4
 10
146.00117451435813
 20
127.89926889780406
 11
149.60118886586784
 21
131.49927087732263
  0
LINE
  8
_1-1_
  6
CONTINUOUS
 62
    4
 10
143.73843631228885
 20
127.89926889780406
 11
147.33845066379857
 21
131.49927087732263
  0
LINE
  8
_1-1_
  6
CONTINUOUS
 62
    4
 10
141.47569811021961
 20
127.89926889780406
 11
145.07568771774706
 21
131.49927087732263
  0
LINE
  8
_1-1_
  6
CONTINUOUS
 62
    4
 10
139.21295990815034
 20
127.89926889780406
 11
142.81294951567779
 21
131.49927087732263
  0
LINE
  8
_1-1_
  6
CONTINUOUS
 62
    4
 10
136.95022170608109
 20
127.89926889780406
 11
140.55022368559966
 21
131.49927087732263
  0
LINE
  8
_1-1_
  6
CONTINUOUS
 62
    4
 10
134.68748350401182
 20
127.89926889780406
 11
138.28747311153927
 21
131.49927087732263
  0
LINE
  8
_1-1_
  6
CONTINUOUS
 62
    4
 10
132.42472055796031
 20
127.89926889780406
 11
136.02471016548776
 21
131.49927087732263
  0
LINE
  8
_1-1_
  6
CONTINUOUS
 62
    4
 10
130.16198235589104
 20
127.89926889780406
 11
133.76198433540964
 21
131.49927087732263
  0
LINE
  8
_1-1_
  6
CONTINUOUS
 62
    4
 10
127.8992441538218
 20
127.89926889780406
 11
131.49923376134925
 21
131.49927087732263
  0
LINE
  8
_1-1_
  6
CONTINUOUS
 62
    4
 10
125.63650595175254
 20
127.89926889780406
 11
129.23650793127112
 21
131.49927087732263
  0
LINE
  8
_1-1_
  6
CONTINUOUS
 62
    4
 10
123.37376774968328
 20
127.89926889780406
 11
126.97375735721073
 21
131.49927087732263
  0
LINE
  8
_1-1_
  6
CONTINUOUS
 62
    4
 10
121.11101717562289
 20
127.89926889780406
 11
124.7110315271326
 21
131.49927087732263
  0
LINE
  8
_1-1_
  6
CONTINUOUS
 62
    4
 10
118.8482666015625
 20
127.89926889780406
 11
122.44828095307221
 21
131.49927087732263
  0
LINE
  8
_1-1_
  6
CONTINUOUS
 62
    4
 10
116.58554077148437
 20
127.89926889780406
 11
120.18553037901184
 21
131.49927087732263
  0
LINE
  8
_1-1_
  6
CONTINUOUS
 62
    4
 10
114.322790197424
 20
127.89926889780406
 11
117.92279217694258
 21
131.49927087732263
  0
LINE
  8
_1-1_
  6
CONTINUOUS
 62
    4
 10
112.06005199535474
 20
127.89926889780406
 11
115.66005397487332
 21
131.49927087732263
  0
LINE
  8
_1-1_
  6
CONTINUOUS
 62
    4
 10
109.79731379328548
 20
127.89926889780406
 11
113.39730340081293
 21
131.49927087732263
  0
LINE
  8
_1-1_
  6
CONTINUOUS
 62
    4
 10
107.53457559121622
 20
127.89926889780406
 11
111.13457757073481
 21
131.49927087732263
  0
LINE
  8
_1-1_
  6
CONTINUOUS
 62
    4
 10
105.27183738914697
 20
127.89926889780406
 11
108.87183936866555
 21
131.49927087732263
  0
LINE
  8
_1-1_
  6
CONTINUOUS
 62
    4
 10
103.00908681508658
 20
127.89926889780406
 11
106.60908879460516
 21
131.49927087732263
  0
LINE
  8
_1-1_
  6
CONTINUOUS
 62
    4
 10
100.74634861301732
 20
127.89926889780406
 11
104.3463505925359
 21
131.49927087732263
  0
LINE
  8
_1-1_
  6
CONTINUOUS
 62
    4
 10
98.48361041094806
 20
127.89926889780406
 11
102.08361239046664
 21
131.49927087732263
  0
LINE
  8
_1-1_
  6
CONTINUOUS
 62
    4
 10
96.220872208878802
 20
127.89926889780406
 11
99.820874188397383
 21
131.49927087732263
  0
LINE
  8
_1-1_
  6
CONTINUOUS
 62
    4
 10
93.958121634818411
 20
127.89926889780406
 11
97.558123614336992
 21
131.49927087732263
  0
LINE
  8
_1-1_
  6
CONTINUOUS
 62
    4
 10
91.695377246753594
 20
127.89926889780406
 11
95.295385412267748
 21
131.49927087732263
  0
LINE
  8
_1-1_
  6
CONTINUOUS
 62
    4
 10
89.432639044684336
 20
127.89926889780406
 11
93.03264721019849
 21
131.49927087732263
  0
LINE
  8
_1-1_
  6
CONTINUOUS
 62
    4
 10
87.169900842615078
 20
127.89926889780406
 11
90.769909008129233
 21
131.49927087732263
  0
LINE
  8
_1-1_
  6
CONTINUOUS
 62
    4
 10
84.90716264054582
 20
127.89926889780406
 11
88.507158434068842
 21
131.49927087732263
  0
LINE
  8
_1-1_
  6
CONTINUOUS
 62
    4
 10
82.644424438476563
 20
127.89926889780406
 11
86.244420231999584
 21
131.49927087732263
  0
LINE
  8
_1-1_
  6
CONTINUOUS
 62
    4
 10
80.381680050411745
 20
127.89926889780406
 11
83.981669657939193
 21
131.49927087732263
  0
LINE
  8
_1-1_
  6
CONTINUOUS
 62
    4
 10
78.118941848342502
 20
127.89926889780406
 11
81.718943827861068
 21
131.49927087732263
  0
LINE
  8
_1-1_
  6
CONTINUOUS
 62
    4
 10
75.856203646273229
 20
127.89926889780406
 11
79.456193253800677
 21
131.49927087732263
  0
LINE
  8
_1-1_
  6
CONTINUOUS
 62
    4
 10
73.593465444203957
 20
127.89926889780406
 11
77.193479795713699
 21
131.49927087732263
  0
LINE
  8
_1-1_
  6
CONTINUOUS
 62
    4
 10
71.330727242134714
 20
127.89926889780406
 11
74.93072922165328
 21
131.49927087732263
  0
LINE
  8
_1-1_
  6
CONTINUOUS
 62
    4
 10
69.06798904006547
 20
127.89926889780406
 11
72.667978647592918
 21
131.49927087732263
  0
LINE
  8
_1-1_
  6
CONTINUOUS
 62
    4
 10
66.805250837996198
 20
127.89926889780406
 11
70.405252817514793
 21
131.49927087732263
  0
LINE
  8
_1-1_
  6
CONTINUOUS
 62
    4
 10
66.486474114495365
 20
129.84323037637247
 11
68.142514615445521
 21
131.49927087732263
  0
LINE
  8
_1-1_
  6
CONTINUOUS
 62
    7
 10
272.27033460462417
 20
127.89926889780406
 11
274.67032767630911
 21
127.89926889780406
  0
LINE
  8
_1-1_
  6
CONTINUOUS
 62
    7
 10
272.27033460462417
 20
199.29039620064401
 11
272.27033460462417
 21
127.89926889780406
  0
LINE
  8
_1-1_
  6
CONTINUOUS
 62
    3
 10
274.07033559438344
 20
123.89926807300465
 11
274.67032767630911
 21
123.89926807300465
  0
LINE
  8
_1-1_
  6
CONTINUOUS
 62
    3
 10
274.67032767630911
 20
111.89927797059755
 11
274.07033559438344
 21
111.89927797059755
  0
LINE
  8
_1-1_
  6
CONTINUOUS
 62
    3
 10
273.07033229518584
 20
127.29926444388725
 11
266.27033955342063
 21
127.29926444388725
  0
LINE
  8
_1-1_
  6
CONTINUOUS
 62
    3
 10
274.07033559438344
 20
126.29926114468962
 11
274.07033559438344
 21
123.89926807300465
  0
LINE
  8
_1-1_
  6
CONTINUOUS
 62
    3
 10
274.67032767630911
 20
126.89926559860642
 11
274.67032767630911
 21
123.89926807300465
  0
LINE
  8
_1-1_
  6
CONTINUOUS
 62
    3
 10
273.67032437711151
 20
127.89926889780406
 11
265.67034747149495
 21
127.89926889780406
  0
LINE
  8
_1-1_
  6
CONTINUOUS
 62
    3
 10
274.07033559438344
 20
109.49928489891259
 11
274.07033559438344
 21
111.89927797059755
  0
LINE
  8
_1-1_
  6
CONTINUOUS
 62
    3
 10
274.67032767630911
 20
108.89928044499578
 11
274.67032767630911
 21
111.89927797059755
  0
LINE
  8
_1-1_
  6
CONTINUOUS
 62
    3
 10
266.27033955342063
 20
108.49928159971496
 11
273.07033229518584
 21
108.49928159971496
  0
LINE
  8
_1-1_
  6
CONTINUOUS
 62
    3
 10
265.27033625422297
 20
109.49928489891259
 11
265.27033625422297
 21
126.29926114468962
  0
LINE
  8
_1-1_
  6
CONTINUOUS
 62
    3
 10
264.67034417229729
 20
108.89928044499578
 11
264.67034417229729
 21
126.89926559860642
  0
LINE
  8
_1-1_
  6
CONTINUOUS
 62
    3
 10
188.86777310758023
 20
123.89926807300465
 11
189.46776518950591
 21
123.89926807300465
  0
LINE
  8
_1-1_
  6
CONTINUOUS
 62
    3
 10
189.46776518950591
 20
111.89927797059755
 11
188.86777310758023
 21
111.89927797059755
  0
LINE
  8
_1-1_
  6
CONTINUOUS
 62
    3
 10
187.8677698083826
 20
127.29926444388725
 11
181.0677770666174
 21
127.29926444388725
  0
LINE
  8
_1-1_
  6
CONTINUOUS
 62
    3
 10
188.86777310758023
 20
126.29926114468962
 11
188.86777310758023
 21
123.89926807300465
  0
LINE
  8
_1-1_
  6
CONTINUOUS
 62
    3
 10
189.46776518950591
 20
126.89926559860642
 11
189.46776518950591
 21
123.89926807300465
  0
LINE
  8
_1-1_
  6
CONTINUOUS
 62
    3
 10
188.46776189030828
 20
127.89926889780406
 11
180.46778498469175
 21
127.89926889780406
  0
LINE
  8
_1-1_
  6
CONTINUOUS
 62
    3
 10
188.86777310758023
 20
109.49928489891259
 11
188.86777310758023
 21
111.89927797059755
  0
LINE
  8
_1-1_
  6
CONTINUOUS
 62
    3
 10
189.46776518950591
 20
108.89928044499578
 11
189.46776518950591
 21
111.89927797059755
  0
LINE
  8
_1-1_
  6
CONTINUOUS
 62
    3
 10
181.0677770666174
 20
108.49928159971496
 11
187.8677698083826
 21
108.49928159971496
  0
LINE
  8
_1-1_
  6
CONTINUOUS
 62
    3
 10
180.06777376741977
 20
109.49928489891259
 11
180.06777376741977
 21
126.29926114468962
  0
LINE
  8
_1-1_
  6
CONTINUOUS
 62
    3
 10
179.46778168549409
 20
108.89928044499578
 11
179.46778168549409
 21
126.89926559860642
  0
LINE
  8
_1-1_
  6
CONTINUOUS
 62
    3
 10
180.46778498469175
 20
107.89927714579815
 11
188.46776189030828
 21
107.89927714579815
  0
LINE
  8
ADD_LINE
  6
DOT
 62
    3
 10
188.46776189030828
 20
127.89926889780406
 11
190.08299956450591
 21
127.89926889780406
  0
LINE
  8
ADD_LINE
  6
DOT
 62
    3
 10
189.46776518950591
 20
126.89926559860642
 11
189.46776518950591
 21
128.59800184095229
  0
LINE
  8
_1-1_
  6
CONTINUOUS
 62
    3
 10
99.070327346389362
 20
123.89926807300465
 11
99.67031942831504
 21
123.89926807300465
  0
LINE
  8
_1-1_
  6
CONTINUOUS
 62
    3
 10
99.67031942831504
 20
111.89927797059755
 11
99.070327346389362
 21
111.89927797059755
  0
LINE
  8
_1-1_
  6
CONTINUOUS
 62
    3
 10
98.070324047191733
 20
127.29926444388725
 11
91.270331305426524
 21
127.29926444388725
  0
LINE
  8
_1-1_
  6
CONTINUOUS
 62
    3
 10
99.070327346389362
 20
126.29926114468962
 11
99.070327346389362
 21
123.89926807300465
  0
LINE
  8
_1-1_
  6
CONTINUOUS
 62
    3
 10
98.67031612911741
 20
127.89926889780406
 11
90.670339223500847
 21
127.89926889780406
  0
LINE
  8
_1-1_
  6
CONTINUOUS
 62
    3
 10
99.070327346389362
 20
109.49928489891259
 11
99.070327346389362
 21
111.89927797059755
  0
LINE
  8
_1-1_
  6
CONTINUOUS
 62
    3
 10
99.67031942831504
 20
108.89928044499578
 11
99.67031942831504
 21
111.89927797059755
  0
LINE
  8
_1-1_
  6
CONTINUOUS
 62
    3
 10
91.270331305426524
 20
108.49928159971496
 11
98.070324047191733
 21
108.49928159971496
  0
LINE
  8
_1-1_
  6
CONTINUOUS
 62
    3
 10
90.270328006228894
 20
109.49928489891259
 11
90.270328006228894
 21
126.29926114468962
  0
LINE
  8
_1-1_
  6
CONTINUOUS
 62
    3
 10
89.670335924303217
 20
108.89928044499578
 11
89.670335924303217
 21
126.89926559860642
  0
LINE
  8
_1-1_
  6
CONTINUOUS
 62
    3
 10
90.670339223500847
 20
107.89927714579815
 11
98.67031612911741
 21
107.89927714579815
  0
LINE
  8
ADD_LINE
  6
DOT
 62
    3
 10
98.67031612911741
 20
127.89926889780406
 11
100.28555380331504
 21
127.89926889780406
  0
LINE
  8
_1-3_
  6
CONTINUOUS
 62
    7
 10
144.30963877085094
 20
127.89926889780406
 11
117.64015403953759
 21
201.17309157912797
  0
LINE
  8
_1-1_
  6
CONTINUOUS
 62
    3
 10
99.67031942831504
 20
126.89926559860642
 11
99.67031942831504
 21
123.89926807300465
  0
LINE
  8
_1-1_
  6
CONTINUOUS
 62
    7
 10
274.67032767630911
 20
214.86486486486487
 11
274.67032767630911
 21
127.89926889780406
  0
LINE
  8
_1-1_
  6
CONTINUOUS
 62
    7
 10
273.67032437711151
 20
107.89926477380702
 11
66.486474114495365
 21
107.89926477380702
  0
LINE
  8
_1-1_
  6
DASHED1
 62
    3
 10
271.80579108160896
 20
131.99859206740922
 11
271.80579108160896
 21
212.88898364917654
  0
LINE
  8
_1-3_
  6
CONTINUOUS
 62
    7
 10
305.13472273543078
 20
212.88898364917654
 11
279.11427265888938
 21
212.88898364917654
  0
LINE
  8
_1-3_
  6
CONTINUOUS
 62
    7
 10
305.13472273543078
 20
202.88897540118245
 11
279.11427265888938
 21
202.88897540118245
  0
LINE
  8
_1-3_
  6
CONTINUOUS
 62
    7
 10
305.13472273543078
 20
212.88898364917654
 11
305.13472273543078
 21
202.88897540118245
  0
LINE
  8
_1-3_
  6
CONTINUOUS
 62
    7
 10
305.13472273543078
 20
172.88403897672086
 11
279.11427265888938
 21
172.88403897672086
  0
LINE
  8
_1-3_
  6
CONTINUOUS
 62
    7
 10
305.13472273543078
 20
202.88897540118245
 11
305.13472273543078
 21
172.88403897672086
  0
LINE
  8
_1-3_
  6
CONTINUOUS
 62
    7
 10
293.08314143000422
 20
212.88898364917654
 11
279.11427265888938
 21
212.88898364917654
  0
LINE
  8
_1-3_
  6
CONTINUOUS
 62
    7
 10
293.08314143000422
 20
131.99859206740922
 11
279.11427265888938
 21
131.99859206740922
  0
LINE
  8
_1-3_
  6
CONTINUOUS
 62
    7
 10
293.08314143000422
 20
212.88898364917654
 11
293.08314143000422
 21
131.99859206740922
  0
LINE
  8
_1-3_
  6
CONTINUOUS
 62
    7
 10
113.60742929819469
 20
201.17309157912797
 11
74.569559870539479
 21
201.17309157912797
  0
LINE
  8
_1-3_
  6
CONTINUOUS
 62
    7
 10
113.60742929819469
 20
187.95627903293919
 11
74.784096382759714
 21
187.95627903293919
  0
LINE
  8
_1-3_
  6
CONTINUOUS
 62
    7
 10
113.60742929819469
 20
182.51539900496201
 11
103.31715558026289
 21
182.51539900496201
  0
LINE
  8
_1-3_
  6
CONTINUOUS
 62
    7
 10
113.60742929819469
 20
176.82719050226987
 11
103.42442074337522
 21
176.82719050226987
  0
LINE
  8
_1-0_
  6
CONTINUOUS
 62
    3
 10
106.77321562895904
 20
146.16986661343961
 11
108.16268920898437
 21
146.16986661343961
  0
LINE
  8
_1-0_
  6
CONTINUOUS
 62
    3
 10
108.16268920898437
 20
146.16986661343961
 11
108.16268920898437
 21
142.98863178974875
  0
LINE
  8
_1-0_
  6
CONTINUOUS
 62
    3
 10
108.16268920898437
 20
146.16986661343961
 11
108.16268920898437
 21
142.98863178974875
  0
LINE
  8
_1-0_
  6
CONTINUOUS
 62
    3
 10
105.83428047798776
 20
149.05204566749367
 11
100.1626071414432
 21
145.82708822714318
  0
LINE
  8
_1-0_
  6
CONTINUOUS
 62
    3
 10
159.7731925345756
 20
146.16986661343961
 11
161.16266611460094
 21
146.16986661343961
  0
LINE
  8
_1-0_
  6
CONTINUOUS
 62
    3
 10
100.1626071414432
 20
145.82708822714318
 11
100.1626071414432
 21
143.02713342615075
  0
LINE
  8
_1-0_
  6
CONTINUOUS
 62
    3
 10
104.7350785538957
 20
145.39577587230787
 11
100.1626071414432
 21
143.02713342615075
  0
LINE
  8
_1-0_
  6
CONTINUOUS
 62
    3
 10
161.16266611460094
 20
146.16986661343961
 11
161.16266611460094
 21
142.98863178974875
  0
LINE
  8
_1-0_
  6
CONTINUOUS
 62
    3
 10
161.16266611460094
 20
146.16986661343961
 11
161.16266611460094
 21
142.98863178974875
  0
LINE
  8
_1-0_
  6
CONTINUOUS
 62
    3
 10
158.83425738360432
 20
149.05205803948482
 11
153.16261497703761
 21
145.82708822714318
  0
LINE
  8
_1-0_
  6
CONTINUOUS
 62
    3
 10
212.77318181218328
 20
146.16985424144849
 11
214.16268013619089
 21
146.16985424144849
  0
LINE
  8
_1-0_
  6
CONTINUOUS
 62
    3
 10
153.16261497703761
 20
145.82708822714318
 11
153.16261497703761
 21
143.02713342615075
  0
LINE
  8
_1-0_
  6
CONTINUOUS
 62
    3
 10
157.7350802034945
 20
145.39576350031672
 11
153.16261497703761
 21
143.02713342615075
  0
LINE
  8
_1-0_
  6
CONTINUOUS
 62
    3
 10
214.16268013619089
 20
146.16985424144849
 11
214.16268013619089
 21
142.98863178974875
  0
LINE
  8
_1-0_
  6
CONTINUOUS
 62
    3
 10
214.16268013619089
 20
146.16985424144849
 11
214.16268013619089
 21
142.98863178974875
  0
LINE
  8
_1-0_
  6
CONTINUOUS
 62
    3
 10
212.77325604413008
 20
146.16986661343961
 11
214.16272962415542
 21
146.16986661343961
  0
LINE
  8
_1-0_
  6
CONTINUOUS
 62
    3
 10
214.16272962415542
 20
146.16986661343961
 11
214.16272962415542
 21
142.98863178974875
  0
LINE
  8
_1-0_
  6
CONTINUOUS
 62
    3
 10
214.16272962415542
 20
146.16986661343961
 11
214.16272962415542
 21
142.98863178974875
  0
LINE
  8
_1-0_
  6
CONTINUOUS
 62
    3
 10
211.8343208931588
 20
149.05204566749367
 11
206.16266611460094
 21
145.82708822714318
  0
LINE
  8
_1-0_
  6
CONTINUOUS
 62
    3
 10
265.77323294974661
 20
146.16986661343961
 11
267.16270652977198
 21
146.16986661343961
  0
LINE
  8
_1-0_
  6
CONTINUOUS
 62
    3
 10
206.16266611460094
 20
145.82708822714318
 11
206.16266611460094
 21
143.02713342615075
  0
LINE
  8
_1-0_
  6
CONTINUOUS
 62
    3
 10
210.73511896906675
 20
145.39577587230787
 11
206.16266611460094
 21
143.02713342615075
  0
LINE
  8
_1-0_
  6
CONTINUOUS
 62
    3
 10
267.16270652977198
 20
146.16986661343961
 11
267.16270652977198
 21
142.98863178974875
  0
LINE
  8
_1-0_
  6
CONTINUOUS
 62
    3
 10
267.16270652977198
 20
146.16986661343961
 11
267.16270652977198
 21
142.98863178974875
  0
ARC
  8
_1-0_
  6
CONTINUOUS
 62
    3
 10
263.31123145850933
 20
114.66923069309544
 40
41.612016832506335
 50
90
 51
119.5146484375
  0
ARC
  8
_1-0_
  6
CONTINUOUS
 62
    3
 10
263.31123145850933
 20
99.713225493559975
 40
60.168024011560391
 50
90
 51
109.9202880859375
  0
ARC
  8
_1-0_
  6
CONTINUOUS
 62
    3
 10
265.53145949904984
 20
121.60736908783784
 40
41.612016832506335
 50
90
 51
119.5146484375
  0
ARC
  8
_1-0_
  6
CONTINUOUS
 62
    3
 10
265.53145949904984
 20
106.65136388830237
 40
60.168024011560391
 50
90
 51
109.9202880859375
  0
ARC
  8
_1-1_
  6
CONTINUOUS
 62
    5
 10
244.47524612014359
 20
158.13208502692146
 40
2.2994091704085067
 50
345.13334655761719
 51
14.667602539062505
  0
CIRCLE
  8
_1-2_
  6
CONTINUOUS
 62
    7
 10
252.49086122255068
 20
151.13404145111909
 40
0.2324253240147152
  0
CIRCLE
  8
_1-2_
  6
CONTINUOUS
 62
    7
 10
256.92839751372469
 20
151.79145194388727
 40
0.2324253240147152
  0
CIRCLE
  8
_1-2_
  6
CONTINUOUS
 62
    7
 10
258.57194230363177
 20
151.79145194388727
 40
0.2324253240147152
  0
CIRCLE
  8
_1-2_
  6
CONTINUOUS
 62
    7
 10
254.95617840741133
 20
148.83309854043497
 40
0.2324253240147152
  0
CIRCLE
  8
_1-2_
  6
CONTINUOUS
 62
    7
 10
255.94230033255914
 20
147.35390328072214
 40
0.2324253240147152
  0
CIRCLE
  8
_1-2_
  6
CONTINUOUS
 62
    7
 10
257.91454418285474
 20
148.17567567567568
 40
0.2324253240147152
  0
CIRCLE
  8
_1-2_
  6
CONTINUOUS
 62
    7
 10
253.47698314769849
 20
146.69649278795399
 40
0.2324253240147152
  0
CIRCLE
  8
_1-2_
  6
CONTINUOUS
 62
    7
 10
251.34038976720862
 20
143.5737774823163
 40
0.2324253240147152
  0
CIRCLE
  8
_1-2_
  6
CONTINUOUS
 62
    7
 10
249.53249544710727
 20
142.75201745935388
 40
0.2324253240147152
  0
CIRCLE
  8
_1-2_
  6
CONTINUOUS
 62
    7
 10
248.54637352195948
 20
142.91636698954815
 40
0.2324253240147152
  0
CIRCLE
  8
_1-2_
  6
CONTINUOUS
 62
    7
 10
249.53249544710727
 20
144.88861083984375
 40
0.2324253240147152
  0
CIRCLE
  8
_1-2_
  6
CONTINUOUS
 62
    7
 10
250.68296690244935
 20
146.53214325775971
 40
0.2324253240147152
  0
CIRCLE
  8
_1-2_
  6
CONTINUOUS
 62
    7
 10
251.83346310177367
 20
148.01132614548143
 40
0.2324253240147152
  0
CIRCLE
  8
_1-2_
  6
CONTINUOUS
 62
    7
 10
251.0116907068201
 20
148.99744807062922
 40
0.2324253240147152
  0
CIRCLE
  8
_1-2_
  6
CONTINUOUS
 62
    7
 10
250.51861737225508
 20
150.96969192092484
 40
0.2324253240147152
  0
CIRCLE
  8
_1-2_
  6
CONTINUOUS
 62
    7
 10
250.02556878167232
 20
152.1201633762669
 40
0.2324253240147152
  0
CIRCLE
  8
_1-2_
  6
CONTINUOUS
 62
    7
 10
255.94230033255914
 20
153.92805769636826
 40
0.2324253240147152
  0
CIRCLE
  8
_1-2_
  6
CONTINUOUS
 62
    7
 10
259.72241375897386
 20
154.74981771933068
 40
0.2324253240147152
  0
CIRCLE
  8
_1-2_
  6
CONTINUOUS
 62
    7
 10
254.4631050728463
 20
153.76369579418287
 40
0.2324253240147152
  0
CIRCLE
  8
_1-2_
  6
CONTINUOUS
 62
    7
 10
254.79180413323482
 20
148.66873663824958
 40
0.2324253240147152
  0
CIRCLE
  8
_1-2_
  6
CONTINUOUS
 62
    7
 10
253.31263361750425
 20
145.05296037003802
 40
0.2324253240147152
  0
CIRCLE
  8
_1-2_
  6
CONTINUOUS
 62
    7
 10
254.4631050728463
 20
144.23118797508448
 40
0.2324253240147152
  0
CIRCLE
  8
_1-2_
  6
CONTINUOUS
 62
    7
 10
256.27099939294766
 20
144.72424893765836
 40
0.2324253240147152
  0
CIRCLE
  8
_1-2_
  6
CONTINUOUS
 62
    7
 10
260.70853568412161
 20
146.03908229518581
 40
0.2324253240147152
  0
CIRCLE
  8
_1-2_
  6
CONTINUOUS
 62
    7
 10
261.36595854888094
 20
147.51826518290753
 40
0.2324253240147152
  0
CIRCLE
  8
_1-2_
  6
CONTINUOUS
 62
    7
 10
263.17385286898229
 20
148.50438710805534
 40
0.2324253240147152
  0
CIRCLE
  8
_1-2_
  6
CONTINUOUS
 62
    7
 10
260.87288521431589
 20
149.98356999577703
 40
0.2324253240147152
  0
CIRCLE
  8
_1-2_
  6
CONTINUOUS
 62
    7
 10
261.53030807907516
 20
151.627102413693
 40
0.2324253240147152
  0
CIRCLE
  8
_1-2_
  6
CONTINUOUS
 62
    7
 10
263.83125098975933
 20
153.27063483160896
 40
0.2324253240147152
  0
CIRCLE
  8
_1-2_
  6
CONTINUOUS
 62
    7
 10
263.50255192937078
 20
153.76369579418287
 40
0.2324253240147152
  0
CIRCLE
  8
_1-2_
  6
CONTINUOUS
 62
    7
 10
264.98172244510135
 20
154.58546818913641
 40
0.2324253240147152
  0
CIRCLE
  8
_1-2_
  6
CONTINUOUS
 62
    7
 10
265.47479577966641
 20
156.22900060705237
 40
0.2324253240147152
  0
CIRCLE
  8
_1-2_
  6
CONTINUOUS
 62
    7
 10
251.99781263196792
 20
160.33783783783784
 40
0.2324253240147152
  0
CIRCLE
  8
_1-2_
  6
CONTINUOUS
 62
    7
 10
250.02556878167232
 20
159.68042734506969
 40
0.2324253240147152
  0
CIRCLE
  8
_1-2_
  6
CONTINUOUS
 62
    7
 10
248.38202399176521
 20
159.02301685230154
 40
0.2324253240147152
  0
CIRCLE
  8
_1-2_
  6
CONTINUOUS
 62
    7
 10
253.47698314769849
 20
159.5160654428843
 40
0.2324253240147152
  0
CIRCLE
  8
_1-2_
  6
CONTINUOUS
 62
    7
 10
256.76404798353042
 20
160.33783783783784
 40
0.2324253240147152
  0
CIRCLE
  8
_1-2_
  6
CONTINUOUS
 62
    7
 10
254.95617840741133
 20
161.32395976298565
 40
0.2324253240147152
  0
CIRCLE
  8
_1-2_
  6
CONTINUOUS
 62
    7
 10
254.4631050728463
 20
160.83089880041175
 40
0.2324253240147152
  0
CIRCLE
  8
_1-2_
  6
CONTINUOUS
 62
    7
 10
255.7779260583826
 20
160.33783783783784
 40
0.2324253240147152
  0
CIRCLE
  8
_1-2_
  6
CONTINUOUS
 62
    7
 10
258.57194230363177
 20
161.65267119536529
 40
0.2324253240147152
  0
CIRCLE
  8
_1-2_
  6
CONTINUOUS
 62
    7
 10
259.88678803315037
 20
161.4883092931799
 40
0.2324253240147152
  0
CIRCLE
  8
_1-2_
  6
CONTINUOUS
 62
    7
 10
261.20160901868667
 20
160.99526070259714
 40
0.2324253240147152
  0
CIRCLE
  8
_1-2_
  6
CONTINUOUS
 62
    7
 10
262.84512906461151
 20
161.15961023279141
 40
0.2324253240147152
  0
CIRCLE
  8
_1-2_
  6
CONTINUOUS
 62
    7
 10
263.99562526393584
 20
161.9813702557538
 40
0.2324253240147152
  0
CIRCLE
  8
_1-2_
  6
CONTINUOUS
 62
    7
 10
267.77573869035052
 20
163.78926457585516
 40
0.2324253240147152
  0
CIRCLE
  8
_1-2_
  6
CONTINUOUS
 62
    7
 10
266.62526723500844
 20
163.78926457585516
 40
0.2324253240147152
  0
CIRCLE
  8
_1-2_
  6
CONTINUOUS
 62
    7
 10
266.62526723500844
 20
163.95361410604943
 40
0.2324253240147152
  0
CIRCLE
  8
_1-2_
  6
CONTINUOUS
 62
    7
 10
266.95396629539698
 20
164.77538650100297
 40
0.2324253240147152
  0
CIRCLE
  8
_1-2_
  6
CONTINUOUS
 62
    7
 10
264.32432432432432
 20
160.83089880041175
 40
0.2324253240147152
  0
CIRCLE
  8
_1-2_
  6
CONTINUOUS
 62
    7
 10
263.99562526393584
 20
159.5160654428843
 40
0.2324253240147152
  0
CIRCLE
  8
_1-2_
  6
CONTINUOUS
 62
    7
 10
260.37983662373313
 20
153.10628530141472
 40
0.2324253240147152
  0
CIRCLE
  8
_1-2_
  6
CONTINUOUS
 62
    7
 10
257.75016990867823
 20
153.10628530141472
 40
0.2324253240147152
  0
CIRCLE
  8
_1-2_
  6
CONTINUOUS
 62
    7
 10
251.83346310177367
 20
153.92805769636826
 40
0.2324253240147152
  0
CIRCLE
  8
_1-2_
  6
CONTINUOUS
 62
    7
 10
253.97005648226352
 20
152.77757386903505
 40
0.2324253240147152
  0
CIRCLE
  8
_1-2_
  6
CONTINUOUS
 62
    7
 10
252.98393455711573
 20
152.1201633762669
 40
0.2324253240147152
  0
CIRCLE
  8
_1-2_
  6
CONTINUOUS
 62
    7
 10
256.59969845333615
 20
150.31226905616555
 40
0.2324253240147152
  0
CIRCLE
  8
_1-2_
  6
CONTINUOUS
 62
    7
 10
259.39371469858531
 20
148.66873663824958
 40
0.2324253240147152
  0
CIRCLE
  8
_1-2_
  6
CONTINUOUS
 62
    7
 10
252.65521075274495
 20
149.6548585633974
 40
0.2324253240147152
  0
CIRCLE
  8
_1-2_
  6
CONTINUOUS
 62
    7
 10
254.62745460304055
 20
150.64098048854518
 40
0.2324253240147152
  0
CIRCLE
  8
_1-2_
  6
CONTINUOUS
 62
    7
 10
258.90064136402026
 20
155.24287868190456
 40
0.2324253240147152
  0
CIRCLE
  8
_1-2_
  6
CONTINUOUS
 62
    7
 10
256.59969845333615
 20
154.42110628695102
 40
0.2324253240147152
  0
CIRCLE
  8
_1-2_
  6
CONTINUOUS
 62
    7
 10
248.71072305215372
 20
141.93024506440034
 40
0.2324253240147152
  0
CIRCLE
  8
_1-2_
  6
CONTINUOUS
 62
    7
 10
252.49086122255068
 20
142.25894412478885
 40
0.2324253240147152
  0
CIRCLE
  8
_1-2_
  6
CONTINUOUS
 62
    7
 10
253.31263361750425
 20
142.91636698954815
 40
0.2324253240147152
  0
CIRCLE
  8
_1-2_
  6
CONTINUOUS
 62
    7
 10
251.66908882759714
 20
144.39554987726984
 40
0.2324253240147152
  0
CIRCLE
  8
_1-2_
  6
CONTINUOUS
 62
    7
 10
258.4075927734375
 20
145.05296037003802
 40
0.2324253240147152
  0
CIRCLE
  8
_1-2_
  6
CONTINUOUS
 62
    7
 10
256.43534892314193
 20
144.06683844489021
 40
0.2324253240147152
  0
CIRCLE
  8
_1-2_
  6
CONTINUOUS
 62
    7
 10
257.58582037848396
 20
147.18955375052789
 40
0.2324253240147152
  0
CIRCLE
  8
_1-2_
  6
CONTINUOUS
 62
    7
 10
259.55806422877959
 20
147.51826518290753
 40
0.2324253240147152
  0
CIRCLE
  8
_1-2_
  6
CONTINUOUS
 62
    7
 10
261.20160901868667
 20
148.34002520586995
 40
0.2324253240147152
  0
CIRCLE
  8
_1-2_
  6
CONTINUOUS
 62
    7
 10
263.00947859480578
 20
149.49050903320312
 40
0.2324253240147152
  0
CIRCLE
  8
_1-2_
  6
CONTINUOUS
 62
    7
 10
263.00947859480578
 20
150.96969192092484
 40
0.2324253240147152
  0
CIRCLE
  8
_1-2_
  6
CONTINUOUS
 62
    7
 10
263.00947859480578
 20
152.1201633762669
 40
0.2324253240147152
  0
CIRCLE
  8
_1-2_
  6
CONTINUOUS
 62
    7
 10
263.00947859480578
 20
153.27063483160896
 40
0.2324253240147152
  0
CIRCLE
  8
_1-2_
  6
CONTINUOUS
 62
    7
 10
262.68077953441724
 20
154.42110628695102
 40
0.2324253240147152
  0
CIRCLE
  8
_1-2_
  6
CONTINUOUS
 62
    7
 10
262.35208047402875
 20
154.74981771933068
 40
0.2324253240147152
  0
CIRCLE
  8
_1-2_
  6
CONTINUOUS
 62
    7
 10
261.36595854888094
 20
154.74981771933068
 40
0.2324253240147152
  0
CIRCLE
  8
_1-2_
  6
CONTINUOUS
 62
    7
 10
260.05113756334458
 20
153.10628530141472
 40
0.2324253240147152
  0
CIRCLE
  8
_1-2_
  6
CONTINUOUS
 62
    7
 10
258.4075927734375
 20
153.92805769636826
 40
0.2324253240147152
  0
CIRCLE
  8
_1-2_
  6
CONTINUOUS
 62
    7
 10
257.25712131809547
 20
149.98356999577703
 40
0.2324253240147152
  0
CIRCLE
  8
_1-2_
  6
CONTINUOUS
 62
    7
 10
257.42147084828969
 20
149.49050903320312
 40
0.2324253240147152
  0
CIRCLE
  8
_1-2_
  6
CONTINUOUS
 62
    7
 10
259.55806422877959
 20
150.80533001873945
 40
0.2324253240147152
  0
CIRCLE
  8
_1-2_
  6
CONTINUOUS
 62
    7
 10
255.1205279376056
 20
150.80533001873945
 40
0.2324253240147152
  0
CIRCLE
  8
_1-2_
  6
CONTINUOUS
 62
    7
 10
249.86121925147805
 20
148.34002520586995
 40
0.2324253240147152
  0
CIRCLE
  8
_1-2_
  6
CONTINUOUS
 62
    7
 10
249.53249544710727
 20
148.34002520586995
 40
0.2324253240147152
  0
CIRCLE
  8
_1-2_
  6
CONTINUOUS
 62
    7
 10
249.36814591691302
 20
149.98356999577703
 40
0.2324253240147152
  0
CIRCLE
  8
_1-2_
  6
CONTINUOUS
 62
    7
 10
249.86121925147805
 20
151.79145194388727
 40
0.2324253240147152
  0
CIRCLE
  8
_1-2_
  6
CONTINUOUS
 62
    7
 10
249.86121925147805
 20
152.1201633762669
 40
0.2324253240147152
  0
CIRCLE
  8
_1-2_
  6
CONTINUOUS
 62
    7
 10
248.87509732633026
 20
145.71037086280617
 40
0.2324253240147152
  0
CIRCLE
  8
_1-2_
  6
CONTINUOUS
 62
    7
 10
250.84731643264359
 20
144.39554987726984
 40
0.2324253240147152
  0
CIRCLE
  8
_1-2_
  6
CONTINUOUS
 62
    7
 10
248.38202399176521
 20
144.06683844489021
 40
0.2324253240147152
  0
CIRCLE
  8
_1-2_
  6
CONTINUOUS
 62
    7
 10
247.88897540118245
 20
141.76589553420609
 40
0.2324253240147152
  0
ARC
  8
_1-1_
  6
CONTINUOUS
 62
    3
 10
265.67034747149495
 20
126.89926559860642
 40
0.9999999162313101
 50
90
 51
180
  0
ARC
  8
_1-1_
  6
CONTINUOUS
 62
    3
 10
266.27033955342063
 20
126.29926114468962
 40
0.9999999162313101
 50
90
 51
180
  0
ARC
  8
_1-1_
  6
CONTINUOUS
 62
    3
 10
273.07033229518584
 20
126.29926114468962
 40
0.9999999162313101
 50
0
 51
90
  0
ARC
  8
_1-1_
  6
CONTINUOUS
 62
    3
 10
273.67032437711151
 20
126.89926559860642
 40
0.9999999162313101
 50
0
 51
90
  0
ARC
  8
_1-1_
  6
CONTINUOUS
 62
    3
 10
273.07033229518584
 20
109.49928489891259
 40
0.9999999162313101
 50
270
 51
0
  0
ARC
  8
_1-1_
  6
CONTINUOUS
 62
    3
 10
266.27033955342063
 20
109.49928489891259
 40
0.9999999162313101
 50
180
 51
270
  0
ARC
  8
_1-1_
  6
CONTINUOUS
 62
    3
 10
265.67034747149495
 20
108.89928044499578
 40
0.9999999162313101
 50
180
 51
270
  0
ARC
  8
_1-1_
  6
CONTINUOUS
 62
    3
 10
180.46778498469175
 20
126.89926559860642
 40
0.9999999162313101
 50
90
 51
180
  0
ARC
  8
_1-1_
  6
CONTINUOUS
 62
    3
 10
181.0677770666174
 20
126.29926114468962
 40
0.9999999162313101
 50
90
 51
180
  0
ARC
  8
_1-1_
  6
CONTINUOUS
 62
    3
 10
187.8677698083826
 20
126.29926114468962
 40
0.9999999162313101
 50
0
 51
90
  0
ARC
  8
_1-1_
  6
CONTINUOUS
 62
    3
 10
188.46776189030828
 20
126.89926559860642
 40
0.9999999162313101
 50
0
 51
90
  0
ARC
  8
_1-1_
  6
CONTINUOUS
 62
    3
 10
187.8677698083826
 20
109.49928489891259
 40
0.9999999162313101
 50
270
 51
0
  0
ARC
  8
_1-1_
  6
CONTINUOUS
 62
    3
 10
188.46776189030828
 20
108.89928044499578
 40
0.9999999162313101
 50
270
 51
0
  0
ARC
  8
_1-1_
  6
CONTINUOUS
 62
    3
 10
181.0677770666174
 20
109.49928489891259
 40
0.9999999162313101
 50
180
 51
270
  0
ARC
  8
_1-1_
  6
CONTINUOUS
 62
    3
 10
180.46778498469175
 20
108.89928044499578
 40
0.9999999162313101
 50
180
 51
270
  0
ARC
  8
_1-1_
  6
CONTINUOUS
 62
    3
 10
90.670339223500847
 20
126.89926559860642
 40
0.9999999162313101
 50
90
 51
180
  0
ARC
  8
_1-1_
  6
CONTINUOUS
 62
    3
 10
91.270331305426524
 20
126.29926114468962
 40
0.9999999162313101
 50
90
 51
180
  0
ARC
  8
_1-1_
  6
CONTINUOUS
 62
    3
 10
98.070324047191733
 20
126.29926114468962
 40
0.9999999162313101
 50
0
 51
90
  0
ARC
  8
_1-1_
  6
CONTINUOUS
 62
    3
 10
98.67031612911741
 20
126.89926559860642
 40
0.9999999162313101
 50
0
 51
90
  0
ARC
  8
_1-1_
  6
CONTINUOUS
 62
    3
 10
98.070324047191733
 20
109.49928489891259
 40
0.9999999162313101
 50
270
 51
0
  0
ARC
  8
_1-1_
  6
CONTINUOUS
 62
    3
 10
98.67031612911741
 20
108.89928044499578
 40
0.9999999162313101
 50
270
 51
0
  0
ARC
  8
_1-1_
  6
CONTINUOUS
 62
    3
 10
91.270331305426524
 20
109.49928489891259
 40
0.9999999162313101
 50
180
 51
270
  0
ARC
  8
_1-1_
  6
CONTINUOUS
 62
    3
 10
90.670339223500847
 20
108.89928044499578
 40
0.9999999162313101
 50
180
 51
270
  0
ARC
  8
_1-1_
  6
CONTINUOUS
 62
    3
 10
273.67032437711151
 20
108.89928044499578
 40
0.9999999162313101
 50
270
 51
0
  0
ARC
  8
_1-0_
  6
CONTINUOUS
 62
    3
 10
105.73332503035262
 20
146.14047076251057
 40
1.0402513194728542
 50
309.08184814453125
 51
1.6144714355468908
  0
ARC
  8
_1-0_
  6
CONTINUOUS
 62
    3
 10
107.67414402317357
 20
146.60362862251901
 40
3.0627306731971538
 50
42.6905517578125
 51
126.92074584960937
  0
ARC
  8
_1-0_
  6
CONTINUOUS
 62
    3
 10
158.73332667995143
 20
146.14047076251057
 40
1.0402513194728542
 50
309.08184814453125
 51
1.6144714355468908
  0
ARC
  8
_1-0_
  6
CONTINUOUS
 62
    3
 10
137.2953631426837
 20
185.99196562895904
 40
46.274049088761615
 50
233.73811340332031
 51
298.51937866210937
  0
ARC
  8
_1-0_
  6
CONTINUOUS
 62
    3
 10
107.4874259330131
 20
141.67720072978253
 40
4.6263270764737516
 50
47.123046875000007
 51
126.50717163085939
  0
ARC
  8
_1-0_
  6
CONTINUOUS
 62
    3
 10
137.60226275469807
 20
185.43134122281461
 40
48.543530025997683
 50
236.25315856933597
 51
299.03501892089844
  0
ARC
  8
_1-0_
  6
CONTINUOUS
 62
    3
 10
160.6741456727724
 20
146.60362862251901
 40
3.0627306731971538
 50
42.6905517578125
 51
126.92074584960937
  0
ARC
  8
_1-0_
  6
CONTINUOUS
 62
    3
 10
211.73331595755914
 20
146.14045839051943
 40
1.0402513194728542
 50
309.08184814453125
 51
1.6144714355468908
  0
ARC
  8
_1-0_
  6
CONTINUOUS
 62
    3
 10
190.29534004830026
 20
185.99196562895904
 40
46.274049088761615
 50
233.73811340332031
 51
298.51937866210937
  0
ARC
  8
_1-0_
  6
CONTINUOUS
 62
    3
 10
160.48742758261193
 20
141.67718835779138
 40
4.6263270764737516
 50
47.123046875000007
 51
126.50717163085939
  0
ARC
  8
_1-0_
  6
CONTINUOUS
 62
    3
 10
190.60226440429688
 20
185.43134122281461
 40
48.543530025997683
 50
236.25315856933597
 51
299.03501892089844
  0
ARC
  8
_1-0_
  6
CONTINUOUS
 62
    3
 10
84.295330563107058
 20
185.99196562895904
 40
46.274049088761615
 50
251.19485473632813
 51
298.51937866210937
  0
ARC
  8
_1-0_
  6
CONTINUOUS
 62
    3
 10
84.602254919103672
 20
185.43134122281461
 40
48.543530025997683
 50
251.72351074218753
 51
299.03501892089844
  0
ARC
  8
_1-0_
  6
CONTINUOUS
 62
    3
 10
211.73336544552367
 20
146.14047076251057
 40
1.0402513194728542
 50
309.08184814453125
 51
1.6144714355468908
  0
ARC
  8
_1-0_
  6
CONTINUOUS
 62
    3
 10
213.67418443834461
 20
146.60362862251901
 40
3.0627306731971538
 50
42.6905517578125
 51
126.92074584960937
  0
ARC
  8
_1-0_
  6
CONTINUOUS
 62
    3
 10
264.7333670951225
 20
146.14047076251057
 40
1.0402513194728542
 50
309.08184814453125
 51
1.6144714355468908
  0
ARC
  8
_1-0_
  6
CONTINUOUS
 62
    3
 10
243.29540355785474
 20
185.99196562895904
 40
46.274049088761615
 50
233.73811340332031
 51
298.51937866210937
  0
ARC
  8
_1-0_
  6
CONTINUOUS
 62
    3
 10
213.48746634818414
 20
141.67720072978253
 40
4.6263270764737516
 50
47.123046875000007
 51
126.50717163085939
  0
ARC
  8
_1-0_
  6
CONTINUOUS
 62
    3
 10
243.60230316986909
 20
185.43134122281461
 40
48.543530025997683
 50
236.25315856933597
 51
299.03501892089844
  0
ARC
  8
_1-1_
  6
CONTINUOUS
 62
    5
 10
229.4545601509713
 20
149.89409575591216
 40
19.372094644082559
 50
328.58334350585937
 51
10.87223815917968
  0
TEXT
  8
_0-0_
 62
    7
 10
141.89189395389042
 20
14.594594594594582
 40
2.5
 41
1
 50
0
  1
縮尺
  0
TEXT
  8
_0-0_
 62
    7
 10
377.10214563318203
 20
22.865493362014362
 40
2.5
 41
1
 50
0
  1
ＮＯ
  0
TEXT
  8
_0-0_
 62
    7
 10
14.594594336844779
 20
24.324324324324323
 40
2.5
 41
1
 50
0
  1
和形
  0
TEXT
  8
_0-0_
 62
    7
 10
383.23801896378802
 20
18.523427086907475
 40
3
 41
1
 50
0
  1
Ｊ
  0
TEXT
  8
_1-0_
 62
    7
 10
169.90681828679266
 20
13.3181144095756
 40
2.5
 41
1
 50
0
  1
1/5
  0
TEXT
  8
_1-3_
 62
    7
 10
39.721904445338907
 20
15.395235628695104
 40
2.5
 41
1
 50
0
  1
壁際　　1
  0
TEXT
  8
_1-3_
 62
    7
 10
242.97219353753167
 20
226.320140941723
 40
2.5
 41
1
 50
0
  1
外壁
  0
TEXT
  8
_1-3_
 62
    7
 10
226.11293895824537
 20
201.92221564215583
 40
2.5
 41
1
 50
0
  1
雨押え板
  0
TEXT
  8
_1-3_
 62
    7
 10
238.58605462151607
 20
201.64808943464951
 40
2.5
 41
1
 50
0
  1
15ｘ90
  0
TEXT
  8
_1-3_
 62
    7
 10
226.85171178869302
 20
189.01361413904141
 40
2.5
 41
1
 50
0
  1
水切り鉄板
  0
TEXT
  8
_1-3_
 62
    7
 10
227.45747334248313
 20
178.51377744932432
 40
2.5
 41
1
 50
0
  1
割のし
  0
TEXT
  8
_1-3_
 62
    7
 10
219.1787596006651
 20
164.58128233213682
 40
2.5
 41
1
 50
0
  1
面土漆喰
  0
TEXT
  8
_1-3_
 62
    7
 10
211.75310701937292
 20
71.844412313925261
 40
2.5
 41
1
 50
0
  1
捨谷
  0
TEXT
  8
_1-3_
 62
    7
 10
25.556194717819636
 20
20.211577544341225
 40
2.5
 41
1
 50
0
  1
鉄骨
  0
TEXT
  8
_1-1_
 62
    7
 10
222.79765773463896
 20
161.40926464183912
 40
2.5
 41
1
 50
0
  1
及び葺き土
  0
TEXT
  8
_1-1_
 62
    7
 10
308.90013411238385
 20
182.59678196262669
 40
2.5
 41
1
 50
0
  1
水切り鉄板立上がり寸法
  0
TEXT
  8
_1-1_
 62
    7
 10
295.82700574720229
 20
155.32349457611909
 40
2.5
 41
1
 50
0
  1
下葺き材立上がり寸法
  0
TEXT
  8
_1-3_
 62
    7
 10
304.63472108583193
 20
206.63897952517948
 40
2.5
 41
1
 50
90
  1
50
  0
TEXT
  8
_1-3_
 62
    7
 10
304.63472108583193
 20
186.01150100295609
 40
2.5
 41
1
 50
90
  1
150
  0
TEXT
  8
_1-3_
 62
    7
 10
292.67229234850089
 20
152.18183569006018
 40
2.5
 41
1
 50
90
  1
300 以上
  0
TEXT
  8
_1-3_
 62
    7
 10
307.93220396299625
 20
209.67629922402872
 40
3
 41
1
 50
0
  1
下葺き材立上げ長さは、300ｍｍ以上かつ
  0
TEXT
  8
_1-3_
 62
    7
 10
308.31882703626479
 20
204.02920284786742
 40
3
 41
1
 50
0
  1
雨押え板上端より50mm以上とする
  0
TEXT
  8
_1-3_
 62
    7
 10
394.45476222682646
 20
15.507148020976302
 40
2.5
 41
1
 50
0
  1
36
  0
TEXT
  8
_1-3_
 62
    7
 10
65.938988762932865
 20
190.04029145111909
 40
2.5
 41
1
 50
0
  1
※　地域により瓦桟木の大きさは、異なります
  0
TEXT
  8
_1-3_
 62
    7
 10
56.941416972392318
 20
198.83803908889359
 40
2.5
 41
1
 50
0
  1
桟瓦
  0
TEXT
  8
_1-3_
 62
    7
 10
56.941416972392318
 20
192.83804403769005
 40
2.5
 41
1
 50
0
  1
瓦桟
  0
TEXT
  8
_1-3_
 62
    7
 10
56.941416972392318
 20
186.83804898648648
 40
2.5
 41
1
 50
0
  1
流桟
  0
TEXT
  8
_1-1_
 62
    7
 10
57.26543529613599
 20
180.83805393528294
 40
2.5
 41
1
 50
0
  1
下葺き材　ゴムアス系ルーフィング
  0
TEXT
  8
_1-1_
 62
    7
 10
57.265433234137447
 20
174.8380588840794
 40
2.5
 41
1
 50
0
  1
硬質木片セメント板　　ｔ＝18
  0
TEXT
  8
_1-1_
 62
    7
 10
65.705384950380079
 20
192.9784661370355
 40
2.5
 41
1
 50
0
  1
１５×３０以上
  0
POINT
  8
_1-3_
 62
    7
 10
305.13472273543078
 20
212.88898364917654
  0
POINT
  8
_1-3_
 62
    7
 10
305.13472273543078
 20
202.88897540118245
  0
POINT
  8
_1-3_
 62
    7
 10
305.13472273543078
 20
172.88403897672086
  0
POINT
  8
_1-3_
 62
    7
 10
293.08314143000422
 20
212.88898364917654
  0
POINT
  8
_1-3_
 62
    7
 10
293.08314143000422
 20
131.99859206740922
  0
ENDSEC
  0
EOF
