  0
SECTION
  2
HEADER
  9
$ACADVER
  1
AC1009
  9
$INSBASE
 10
0
 20
0
 30
0
  9
$EXTMIN
 10
0
 20
0
  9
$EXTMAX
 10
420
 20
297
  9
$LIMMIN
 10
0
 20
0
  9
$LIMMAX
 10
420
 20
297
  9
$LTSCALE
 40
1
  0
ENDSEC
  0
SECTION
  2
TABLES
  0
TABLE
  2
LTYPE
 70
     9
  0
LTYPE
  2
CONTINUOUS
 70
    64
  3
実線
 72
    65
 73
     0
 40
0.0
  0
LTYPE
  2
DASHED1
 70
    64
  3
--  --  --  --  --  --  --  --  
 72
    65
 73
     2
 40
2.5
 49
1.25
 49
-1.25
  0
LTYPE
  2
DASHED2
 70
    64
  3
----    ----    ----    ----    
 72
    65
 73
     2
 40
5.0
 49
2.5
 49
-2.5
  0
LTYPE
  2
DASHED3
 70
    64
  3
------  ------  ------  ------  
 72
    65
 73
     2
 40
5.0
 49
3.75
 49
-1.25
  0
LTYPE
  2
CENTER1
 70
    64
  3
----- - ----- - ----- - ----- - 
 72
    65
 73
     4
 40
10.0
 49
6.25
 49
-1.25
 49
1.25
 49
-1.25
  0
LTYPE
  2
CENTER2
 70
    64
  3
----------  --  ----------  --  
 72
    65
 73
     4
 40
20.0
 49
12.5
 49
-2.5
 49
2.5
 49
-2.5
  0
LTYPE
  2
PHANTOM1
 70
    64
  3
--- - - --- - - --- - - --- - - 
 72
    65
 73
     6
 40
10.0
 49
3.25
 49
-1.25
 49
1.25
 49
-1.25
 49
1.25
 49
-1.25
  0
LTYPE
  2
PHANTOM2
 70
    64
  3
--------  -  -  --------  -  -  
 72
    65
 73
     6
 40
20.0
 49
10.0
 49
-2.5
 49
1.25
 49
-2.5
 49
1.25
 49
-2.5
  0
LTYPE
  2
DOT
 70
    64
  3
-   -   -   -   -   -   -   -   
 72
    65
 73
     2
 40
2.5
 49
0.625
 49
-1.875
  0
LTYPE
  2
DUMMY
 70
    64
  3
ダミー
 72
    65
 73
     0
 40
0.0
  0
LTYPE
  2
RAND1
 70
    64
  3
ランダム線1
 72
    65
 73
     4
 40
10.0
 49
1.0
 49
-2.0
 49
3.0
 49
-4.0
  0
LTYPE
  2
RAND2
 70
    64
  3
ランダム線2
 72
    65
 73
     4
 40
14.0
 49
2.0
 49
-3.0
 49
4.0
 49
-5.0
  0
LTYPE
  2
RAND3
 70
    64
  3
ランダム線3
 72
    65
 73
     4
 40
18.0
 49
3.0
 49
-4.0
 49
5.0
 49
-6.0
  0
LTYPE
  2
RAND4
 70
    64
  3
ランダム線4
 72
    65
 73
     4
 40
22.0
 49
4.0
 49
-5.0
 49
6.0
 49
-7.0
  0
LTYPE
  2
RAND5
 70
    64
  3
ランダム線5
 72
    65
 73
     4
 40
26.0
 49
5.0
 49
-6.0
 49
7.0
 49
-8.0
  0
LTYPE
  2
LONG1
 70
    64
  3
----------  --  ----------  --  
 72
    65
 73
     4
 40
40.0
 49
32.5
 49
-2.5
 49
2.5
 49
-2.5
  0
LTYPE
  2
LONG2
 70
    64
  3
--------  -  -  --------  -  -  
 72
    65
 73
     6
 40
40.0
 49
30.0
 49
-2.5
 49
1.25
 49
-2.5
 49
1.25
 49
-2.5
  0
LTYPE
  2
LONG3
 70
    64
  3
+++++++++++++++..+++++++++++++++
 72
    65
 73
     2
 40
40.0
 49
37.5
 49
-2.5
  0
LTYPE
  2
LONG4
 70
    64
  3
+++++++++++++++..+++++++++++++++
 72
    65
 73
     2
 40
80.0
 49
75.0
 49
-5.0
  0
LTYPE
  2
LONG5
 70
    64
  3
----------  --  ----------  --  
 72
    65
 73
     4
 40
60.0
 49
37.5
 49
-7.5
 49
7.5
 49
-7.5
  0
LTYPE
  2
dashed
 70
   64
  3
-------   -------------   ------
 72
   65
 73
    2
 40
7.5
 49
6
 49
-1.5
  0
LTYPE
  2
dashed_spaced
 70
   64
  3
----        --------        ----
 72
   65
 73
    2
 40
12
 49
6
 49
-6
  0
LTYPE
  2
long_dashed_dotted
 70
   64
  3
------------- --- --------------
 72
   65
 73
    4
 40
15.25
 49
12
 49
-1.5
 49
0.25
 49
-1.5
  0
LTYPE
  2
long_dashed_double-dotted
 70
   64
  3
----------- --- --- ------------
 72
   65
 73
    6
 40
17
 49
12
 49
-1.5
 49
0.25
 49
-1.5
 49
0.25
 49
-1.5
  0
LTYPE
  2
long_dashed_triplicate-dotted
 70
   64
  3
--------- --- --- --- ----------
 72
   65
 73
    8
 40
18.75
 49
12
 49
-1.5
 49
0.25
 49
-1.5
 49
0.25
 49
-1.5
 49
0.25
 49
-1.5
  0
LTYPE
  2
dotted
 70
   64
  3
   -       -       -       -    
 72
   65
 73
    2
 40
1.75
 49
0.25
 49
-1.5
  0
LTYPE
  2
chain
 70
   64
  3
-------------- -- --------------
 72
   65
 73
    4
 40
18.5
 49
12
 49
-1.5
 49
3.5
 49
-1.5
  0
LTYPE
  2
chain_double_dash
 70
   64
  3
------------ -- -- -------------
 72
   65
 73
    6
 40
23.5
 49
12
 49
-1.5
 49
3.5
 49
-1.5
 49
3.5
 49
-1.5
  0
LTYPE
  2
dashed_dotted
 70
   64
  3
-----------     -     ----------
 72
   65
 73
    4
 40
9.25
 49
6
 49
-1.5
 49
0.25
 49
-1.5
  0
LTYPE
  2
double-dashed_dotted
 70
   64
  3
------   -----------   -   -----
 72
   65
 73
    6
 40
16.75
 49
6
 49
-1.5
 49
6
 49
-1.5
 49
0.25
 49
-1.5
  0
LTYPE
  2
dashed_double-dotted
 70
   64
  3
---------    -    -    ---------
 72
   65
 73
    6
 40
11
 49
6
 49
-1.5
 49
0.25
 49
-1.5
 49
0.25
 49
-1.5
  0
LTYPE
  2
double-dashed_double-dotted
 70
   64
  3
-----   ---------   -   -   ----
 72
   65
 73
    8
 40
18.5
 49
6
 49
-1.5
 49
6
 49
-1.5
 49
0.25
 49
-1.5
 49
0.25
 49
-1.5
  0
LTYPE
  2
dashed_triplicate-dotted
 70
   64
  3
-------    -    -    -    ------
 72
   65
 73
    8
 40
12.75
 49
6
 49
-1.5
 49
0.25
 49
-1.5
 49
0.25
 49
-1.5
 49
0.25
 49
-1.5
  0
LTYPE
  2
double-dashed_triplicate-dotted
 70
   64
  3
-----  ---------  -  -  -  -----
 72
   65
 73
   10
 40
20.25
 49
6
 49
-1.5
 49
6
 49
-1.5
 49
0.25
 49
-1.5
 49
0.25
 49
-1.5
 49
0.25
 49
-1.5
  0
LTYPE
  2
undefined
 70
   64
  3
--------------------------------
 72
   65
 73
    0
 40
0
  0
LTYPE
  2
DOT_17
 70
   64
  3
--             ---             -
 72
   65
 73
    2
 40
5
 49
1
 49
-4
  0
LTYPE
  2
DASHED
 70
   64
  3
---          ------          ---
 72
   65
 73
    2
 40
5
 49
2
 49
-3
  0
LTYPE
  2
DASHED2_19
 70
   64
  3
---          ------          ---
 72
   65
 73
    2
 40
10
 49
4
 49
-6
  0
LTYPE
  2
CENTER
 70
   64
  3
----------    ----    ----------
 72
   65
 73
    4
 40
9
 49
6
 49
-1
 49
1
 49
-1
  0
LTYPE
  2
CENTER2_21
 70
   64
  3
----------    ----    ----------
 72
   65
 73
    4
 40
18
 49
12
 49
-2
 49
2
 49
-2
  0
LTYPE
  2
PHANTOM
 70
   64
  3
---------   ---   ---   --------
 72
   65
 73
    6
 40
10
 49
5
 49
-1
 49
1
 49
-1
 49
1
 49
-1
  0
LTYPE
  2
PHANTOM2_23
 70
   64
  3
------    ----    ----    ------
 72
   65
 73
    6
 40
16
 49
6
 49
-2
 49
2
 49
-2
 49
2
 49
-2
  0
LTYPE
  2
HIDDEN
 70
   64
  3
--             ---             -
 72
   65
 73
    2
 40
2.5
 49
0.5
 49
-2
  0
ENDTAB
  0
TABLE
  2
STYLE
  5
3
100
AcDbSymbolTable
 70
     1
  0
STYLE
  5
10
100
AcDbSymbolTableRecord
100
AcDbTextStyleTableRecord
  2
STANDARD
 70
     0
 40
0.0
 41
1.0
 50
0.0
 71
     0
 42
0.2
  3
txt
  4
bigfont.shx
  0
STYLE
  5
26
100
AcDbSymbolTableRecord
100
AcDbTextStyleTableRecord
  2
TATEGAKI
 70
    68
 40
0.0
 41
1.0
 50
0.0
 71
     0
 42
1.0
  3
txt
  4
bigfont.shx
  0
ENDTAB
  0
TABLE
  2
LAYER
 70
    6
  0
LAYER
  2
_0-0_
 70
   64
 62
    7
  6
CONTINUOUS
  0
LAYER
  2
_1-0_
 70
   64
 62
    7
  6
CONTINUOUS
  0
LAYER
  2
_1-1_
 70
   64
 62
    7
  6
CONTINUOUS
  0
LAYER
  2
_1-2_
 70
   64
 62
    7
  6
CONTINUOUS
  0
LAYER
  2
_1-3_
 70
   64
 62
    7
  6
CONTINUOUS
  0
LAYER
  2
ADD_LINE
 70
   64
 62
    7
  6
CONTINUOUS
  0
ENDTAB
  0
ENDSEC
  0
SECTION
  2
BLOCKS
  0
ENDSEC
  0
SECTION
  2
ENTITIES
  0
LINE
  8
_0-0_
  6
CONTINUOUS
 62
    5
 10
6.7567526327597136
 20
280.13513513513516
 11
406.75677325274495
 21
280.13513513513516
  0
LINE
  8
_0-0_
  6
CONTINUOUS
 62
    5
 10
406.75677325274495
 20
10.13513513513513
 11
6.7567526327597136
 21
10.13513513513513
  0
LINE
  8
_0-0_
  6
CONTINUOUS
 62
    5
 10
406.75677325274495
 20
30.135133073136615
 11
6.7567402607685949
 21
30.135133073136615
  0
LINE
  8
_0-0_
  6
CONTINUOUS
 62
    5
 10
371.75678150073907
 20
10.13513513513513
 11
371.75678150073907
 21
30.135133073136615
  0
LINE
  8
_0-0_
  6
CONTINUOUS
 62
    5
 10
137.02703939901818
 20
30.135133073136615
 11
137.02703939901818
 21
10.13513513513513
  0
LINE
  8
_0-0_
  6
CONTINUOUS
 62
    5
 10
214.86486486486487
 20
30.135133073136615
 11
214.86486486486487
 21
10.13513513513513
  0
LINE
  8
_0-0_
  6
CONTINUOUS
 62
    5
 10
137.02703939901818
 20
20.135134104135886
 11
214.86486486486487
 21
20.135134104135886
  0
LINE
  8
_0-0_
  6
CONTINUOUS
 62
    5
 10
396.48648648648651
 20
25.945945945945951
 11
383.91891891891896
 21
13.378379924877265
  0
LINE
  8
_1-1_
  6
CONTINUOUS
 62
    7
 10
286.69761039115286
 20
132.72644867768159
 11
286.69761039115286
 21
133.32644075960727
  0
LINE
  8
_1-1_
  6
CONTINUOUS
 62
    7
 10
286.69761039115286
 20
133.32644075960727
 11
291.49759653452281
 21
133.32644075960727
  0
LINE
  8
_1-1_
  6
CONTINUOUS
 62
    7
 10
291.49759653452281
 20
132.72644867768159
 11
286.69761039115286
 21
132.72644867768159
  0
LINE
  8
_1-1_
  6
CONTINUOUS
 62
    7
 10
286.69761039115286
 20
132.72644867768159
 11
291.49759653452281
 21
133.32644075960727
  0
LINE
  8
_1-1_
  6
CONTINUOUS
 62
    7
 10
254.31652172191724
 20
132.72644867768159
 11
254.31652172191724
 21
133.32644075960727
  0
LINE
  8
_1-1_
  6
CONTINUOUS
 62
    7
 10
254.31652172191724
 20
133.32644075960727
 11
259.11650786528719
 21
133.32644075960727
  0
LINE
  8
_1-1_
  6
CONTINUOUS
 62
    7
 10
259.11650786528719
 20
133.32644075960727
 11
259.11650786528719
 21
132.72644867768159
  0
LINE
  8
_1-1_
  6
CONTINUOUS
 62
    7
 10
259.11650786528719
 20
132.72644867768159
 11
254.31652172191724
 21
132.72644867768159
  0
LINE
  8
_1-1_
  6
CONTINUOUS
 62
    7
 10
254.31652172191724
 20
132.72644867768159
 11
259.11650786528719
 21
133.32644075960727
  0
LINE
  8
_1-1_
  6
CONTINUOUS
 62
    7
 10
192.67649057749156
 20
132.72644867768159
 11
192.67649057749156
 21
133.32644075960727
  0
LINE
  8
_1-1_
  6
CONTINUOUS
 62
    7
 10
192.67649057749156
 20
133.32644075960727
 11
197.47647672086148
 21
133.32644075960727
  0
LINE
  8
_1-1_
  6
CONTINUOUS
 62
    7
 10
197.47647672086148
 20
133.32644075960727
 11
197.47647672086148
 21
132.72644867768159
  0
LINE
  8
_1-1_
  6
CONTINUOUS
 62
    7
 10
197.47647672086148
 20
132.72644867768159
 11
192.67649057749156
 21
132.72644867768159
  0
LINE
  8
_1-1_
  6
CONTINUOUS
 62
    7
 10
192.67649057749156
 20
132.72644867768159
 11
197.47647672086148
 21
133.32644075960727
  0
LINE
  8
_1-1_
  6
CONTINUOUS
 62
    7
 10
166.00099305848818
 20
136.32645065720018
 11
166.00099305848818
 21
133.32645313159841
  0
LINE
  8
_1-1_
  6
CONTINUOUS
 62
    7
 10
173.35792335304055
 20
132.72644867768159
 11
173.35792335304055
 21
133.32644075960727
  0
LINE
  8
_1-1_
  6
CONTINUOUS
 62
    7
 10
173.35792335304055
 20
133.32644075960727
 11
168.55798669763516
 21
133.32644075960727
  0
LINE
  8
_1-1_
  6
CONTINUOUS
 62
    7
 10
168.55798669763516
 20
133.32644075960727
 11
168.55798669763516
 21
132.72644867768159
  0
LINE
  8
_1-1_
  6
CONTINUOUS
 62
    7
 10
168.55798669763516
 20
132.72644867768159
 11
173.35792335304055
 21
132.72644867768159
  0
LINE
  8
_1-1_
  6
CONTINUOUS
 62
    7
 10
173.35792335304055
 20
132.72644867768159
 11
168.55798669763516
 21
133.32644075960727
  0
LINE
  8
ADD_LINE
  6
DOT
 62
    7
 10
168.55798669763516
 20
134.80323585304055
 11
168.55798669763516
 21
128.19957423854518
  0
LINE
  8
_1-1_
  6
CONTINUOUS
 62
    3
 10
164.94595914273648
 20
132.47366415487755
 11
164.94595914273648
 21
136.32645065720018
  0
LINE
  8
_1-1_
  6
CONTINUOUS
 62
    3
 10
164.94595914273648
 20
136.32645065720018
 11
160.83717139991555
 21
136.32645065720018
  0
LINE
  8
_1-1_
  6
CONTINUOUS
 62
    3
 10
164.94595914273648
 20
132.47366415487755
 11
141.03107349292654
 21
132.47366415487755
  0
LINE
  8
_1-1_
  6
CONTINUOUS
 62
    7
 10
137.52487595016893
 20
132.3484348606419
 11
140.52488584776182
 21
132.3484348606419
  0
LINE
  8
_1-1_
  6
CONTINUOUS
 62
    7
 10
136.5637949350718
 20
199.29039620064401
 11
136.5637949350718
 21
214.86486486486487
  0
LINE
  8
_1-3_
  6
CONTINUOUS
 62
    7
 10
142.90179278399495
 20
200.51151172534841
 11
152.56315489073057
 21
227.0558785103463
  0
LINE
  8
_1-3_
  6
CONTINUOUS
 62
    7
 10
153.80126953125
 20
133.70864868164062
 11
175.99681957347974
 21
72.726918813344597
  0
LINE
  8
_1-3_
  6
CONTINUOUS
 62
    7
 10
153.80126953125
 20
133.70864868164062
 11
152.85993421399917
 21
132.41811391469597
  0
LINE
  8
_1-3_
  6
CONTINUOUS
 62
    7
 10
152.56315489073057
 20
227.0558785103463
 11
156.08335752744932
 21
227.0558785103463
  0
LINE
  8
_1-3_
  6
CONTINUOUS
 62
    7
 10
159.11429740287164
 20
203.15468865471919
 11
161.91140664590372
 21
203.15468865471919
  0
LINE
  8
_1-3_
  6
CONTINUOUS
 62
    7
 10
165.97154771959461
 20
189.93169011296453
 11
167.955322265625
 21
189.93169011296453
  0
LINE
  8
_1-3_
  6
CONTINUOUS
 62
    7
 10
175.99681957347974
 20
72.726918813344597
 11
185.05034575591216
 21
72.726918813344597
  0
LINE
  8
_1-1_
  6
CONTINUOUS
 62
    7
 10
177.53484365102409
 20
136.32645065720018
 11
166.00099305848818
 21
136.32645065720018
  0
LINE
  8
_1-1_
  6
CONTINUOUS
 62
    7
 10
167.84347946579393
 20
145.61244655299831
 11
159.81842453415331
 21
149.3699934675887
  0
LINE
  8
_1-1_
  6
CONTINUOUS
 62
    7
 10
177.53484365102409
 20
136.32645065720018
 11
373.92413165118245
 21
136.32645065720018
  0
LINE
  8
_1-1_
  6
CONTINUOUS
 62
    7
 10
166.00099305848818
 20
133.32645313159841
 11
373.92413165118245
 21
133.32645313159841
  0
LINE
  8
_1-1_
  6
CONTINUOUS
 62
    7
 10
168.55798669763516
 20
132.72644867768159
 11
373.92413165118245
 21
132.72644867768159
  0
LINE
  8
_1-1_
  6
DASHED1
 62
    3
 10
373.92413165118245
 20
131.99859206740922
 11
136.56378256308068
 21
131.99859206740922
  0
LINE
  8
_1-1_
  6
CONTINUOUS
 62
    7
 10
373.92413165118245
 20
131.49927087732263
 11
136.5637949350718
 21
131.49927087732263
  0
LINE
  8
_1-3_
  6
CONTINUOUS
 62
    7
 10
288.00948684279984
 20
174.37440614442568
 11
273.61561543232688
 21
174.37440614442568
  0
LINE
  8
_1-3_
  6
CONTINUOUS
 62
    7
 10
288.24428249049834
 20
180.47896926467484
 11
275.83750131967906
 21
180.47896926467484
  0
LINE
  8
_1-3_
  6
CONTINUOUS
 62
    7
 10
288.00948684279984
 20
186.81832803262247
 11
278.14482817778719
 21
186.81832803262247
  0
LINE
  8
_1-3_
  6
CONTINUOUS
 62
    7
 10
287.53992029138516
 20
192.2185042097762
 11
280.11034166490708
 21
192.2185042097762
  0
LINE
  8
_1-1_
  6
CONTINUOUS
 62
    7
 10
373.92413165118245
 20
127.89926889780406
 11
136.5637949350718
 21
127.89926889780406
  0
LINE
  8
_1-1_
  6
CONTINUOUS
 62
    7
 10
134.1637894913957
 20
127.89926889780406
 11
134.1637894913957
 21
214.60911106418919
  0
LINE
  8
_1-1_
  6
CONTINUOUS
 62
    7
 10
136.5637949350718
 20
127.89926889780406
 11
134.1637894913957
 21
127.89926889780406
  0
LINE
  8
ADD_LINE
  6
DOT
 62
    4
 10
136.5637949350718
 20
214.86486486486487
 11
136.5637949350718
 21
127.89926889780406
  0
LINE
  8
_1-1_
  6
CONTINUOUS
 62
    7
 10
136.5637949350718
 20
131.49927087732263
 11
134.1637894913957
 21
131.49927087732263
  0
LINE
  8
_1-1_
  6
CONTINUOUS
 62
    7
 10
136.5637949350718
 20
199.29039620064401
 11
136.5637949350718
 21
131.49927087732263
  0
LINE
  8
_1-1_
  6
CONTINUOUS
 62
    3
 10
143.56379328547297
 20
123.89926807300465
 11
144.16379773938979
 21
123.89926807300465
  0
LINE
  8
_1-1_
  6
CONTINUOUS
 62
    3
 10
144.16379773938979
 20
111.89926559860642
 11
143.56379328547297
 21
111.89926559860642
  0
LINE
  8
_1-1_
  6
CONTINUOUS
 62
    3
 10
142.56378998627534
 20
127.29926444388725
 11
135.76379724451013
 21
127.29926444388725
  0
LINE
  8
_1-1_
  6
CONTINUOUS
 62
    3
 10
143.56379328547297
 20
126.29926114468962
 11
143.56379328547297
 21
123.89926807300465
  0
LINE
  8
_1-1_
  6
CONTINUOUS
 62
    3
 10
144.16379773938979
 20
126.89926559860642
 11
144.16379773938979
 21
123.89926807300465
  0
LINE
  8
_1-1_
  6
CONTINUOUS
 62
    3
 10
143.16379444019216
 20
127.89926889780406
 11
135.16379279059333
 21
127.89926889780406
  0
LINE
  8
_1-1_
  6
CONTINUOUS
 62
    3
 10
134.7637939453125
 20
109.49927252692146
 11
134.7637939453125
 21
126.29926114468962
  0
LINE
  8
_1-1_
  6
CONTINUOUS
 62
    3
 10
134.1637894913957
 20
108.89926807300465
 11
134.1637894913957
 21
126.89926559860642
  0
LINE
  8
_1-1_
  6
CONTINUOUS
 62
    3
 10
142.56378998627534
 20
108.49926922772383
 11
135.76379724451013
 21
108.49926922772383
  0
LINE
  8
_1-1_
  6
CONTINUOUS
 62
    3
 10
143.56379328547297
 20
109.49927252692146
 11
143.56379328547297
 21
111.89926559860642
  0
LINE
  8
ADD_LINE
  6
DOT
 62
    3
 10
135.16379279059333
 20
127.89926889780406
 11
133.41225289009714
 21
127.89926889780406
  0
LINE
  8
ADD_LINE
  6
DOT
 62
    3
 10
134.1637894913957
 20
126.89926559860642
 11
134.1637894913957
 21
128.54970158757391
  0
LINE
  8
_1-1_
  6
CONTINUOUS
 62
    3
 10
228.56377678948482
 20
123.89926807300465
 11
229.1637688714105
 21
123.89926807300465
  0
LINE
  8
_1-1_
  6
CONTINUOUS
 62
    3
 10
229.1637688714105
 20
111.89926559860642
 11
228.56377678948482
 21
111.89926559860642
  0
LINE
  8
_1-1_
  6
CONTINUOUS
 62
    3
 10
227.56377349028716
 20
127.29926444388725
 11
220.76378074852198
 21
127.29926444388725
  0
LINE
  8
_1-1_
  6
CONTINUOUS
 62
    3
 10
228.56377678948482
 20
126.29926114468962
 11
228.56377678948482
 21
123.89926807300465
  0
LINE
  8
_1-1_
  6
CONTINUOUS
 62
    3
 10
229.1637688714105
 20
126.89926559860642
 11
229.1637688714105
 21
123.89926807300465
  0
LINE
  8
_1-1_
  6
CONTINUOUS
 62
    3
 10
228.16376557221284
 20
127.89926889780406
 11
220.16376392261404
 21
127.89926889780406
  0
LINE
  8
_1-1_
  6
CONTINUOUS
 62
    3
 10
219.76377744932432
 20
109.49927252692146
 11
219.76377744932432
 21
126.29926114468962
  0
LINE
  8
_1-1_
  6
CONTINUOUS
 62
    3
 10
219.16376062341641
 20
108.89926807300465
 11
219.16376062341641
 21
126.89926559860642
  0
LINE
  8
_1-1_
  6
CONTINUOUS
 62
    3
 10
228.16376557221284
 20
107.89927714579815
 11
220.16376392261404
 21
107.89927714579815
  0
LINE
  8
_1-1_
  6
CONTINUOUS
 62
    3
 10
229.1637688714105
 20
108.89926807300465
 11
229.1637688714105
 21
111.89926559860642
  0
LINE
  8
_1-1_
  6
CONTINUOUS
 62
    3
 10
227.56377349028716
 20
108.49926922772383
 11
220.76378074852198
 21
108.49926922772383
  0
LINE
  8
_1-1_
  6
CONTINUOUS
 62
    3
 10
228.56377678948482
 20
109.49927252692146
 11
228.56377678948482
 21
111.89926559860642
  0
LINE
  8
ADD_LINE
  6
DOT
 62
    3
 10
220.16376392261404
 20
127.89926889780406
 11
218.41223639410896
 21
127.89926889780406
  0
LINE
  8
ADD_LINE
  6
DOT
 62
    3
 10
219.16376062341641
 20
126.89926559860642
 11
219.16376062341641
 21
128.54970158757391
  0
LINE
  8
_1-1_
  6
CONTINUOUS
 62
    3
 10
318.56377678948479
 20
123.89926807300465
 11
319.16376887141047
 21
123.89926807300465
  0
LINE
  8
_1-1_
  6
CONTINUOUS
 62
    3
 10
319.16376887141047
 20
111.89926559860642
 11
318.56377678948479
 21
111.89926559860642
  0
LINE
  8
_1-1_
  6
CONTINUOUS
 62
    3
 10
317.56377349028719
 20
127.29926444388725
 11
310.76378074852198
 21
127.29926444388725
  0
LINE
  8
_1-1_
  6
CONTINUOUS
 62
    3
 10
318.56377678948479
 20
126.29926114468962
 11
318.56377678948479
 21
123.89926807300465
  0
LINE
  8
_1-1_
  6
CONTINUOUS
 62
    3
 10
319.16376887141047
 20
126.89926559860642
 11
319.16376887141047
 21
123.89926807300465
  0
LINE
  8
_1-1_
  6
CONTINUOUS
 62
    3
 10
318.16376557221287
 20
127.89926889780406
 11
310.1637886665963
 21
127.89926889780406
  0
LINE
  8
_1-1_
  6
CONTINUOUS
 62
    3
 10
309.76377744932432
 20
109.49927252692146
 11
309.76377744932432
 21
126.29926114468962
  0
LINE
  8
_1-1_
  6
CONTINUOUS
 62
    3
 10
309.16378536739865
 20
108.89926807300465
 11
309.16378536739865
 21
126.89926559860642
  0
LINE
  8
_1-1_
  6
CONTINUOUS
 62
    3
 10
318.16376557221287
 20
107.89927714579815
 11
310.1637886665963
 21
107.89927714579815
  0
LINE
  8
_1-1_
  6
CONTINUOUS
 62
    3
 10
319.16376887141047
 20
108.89926807300465
 11
319.16376887141047
 21
111.89926559860642
  0
LINE
  8
_1-1_
  6
CONTINUOUS
 62
    3
 10
317.56377349028719
 20
108.49926922772383
 11
310.76378074852198
 21
108.49926922772383
  0
LINE
  8
_1-1_
  6
CONTINUOUS
 62
    3
 10
318.56377678948479
 20
109.49927252692146
 11
318.56377678948479
 21
111.89926559860642
  0
LINE
  8
ADD_LINE
  6
DOT
 62
    3
 10
310.1637886665963
 20
127.89926889780406
 11
308.41223639410896
 21
127.89926889780406
  0
LINE
  8
ADD_LINE
  6
DOT
 62
    3
 10
309.16378536739865
 20
126.89926559860642
 11
309.16378536739865
 21
128.54970158757391
  0
LINE
  8
ADD_LINE
  6
DOT
 62
    3
 10
314.16377711940459
 20
128.48597346125422
 11
314.16377711940459
 21
107.07220953864021
  0
LINE
  8
_1-1_
  6
CONTINUOUS
 62
    3
 10
143.16379444019216
 20
107.89927714579815
 11
135.16379279059333
 21
107.89927714579815
  0
LINE
  8
_1-1_
  6
CONTINUOUS
 62
    3
 10
144.16379773938979
 20
108.89928044499578
 11
144.16379773938979
 21
111.89926559860642
  0
LINE
  8
_1-1_
  6
CONTINUOUS
 62
    4
 10
372.83039814717063
 20
127.89926889780406
 11
373.92413165118245
 21
128.99299002982477
  0
LINE
  8
_1-1_
  6
CONTINUOUS
 62
    4
 10
370.56765994510135
 20
127.89926889780406
 11
373.92413165118245
 21
131.25574060388513
  0
LINE
  8
_1-1_
  6
CONTINUOUS
 62
    4
 10
368.30492174303214
 20
127.89926889780406
 11
371.90494846653297
 21
131.49927087732263
  0
LINE
  8
_1-1_
  6
CONTINUOUS
 62
    4
 10
366.04218354096287
 20
127.89926889780406
 11
369.64218552048146
 21
131.49927087732263
  0
LINE
  8
_1-1_
  6
CONTINUOUS
 62
    4
 10
363.77944533889359
 20
127.89926889780406
 11
367.37944731841219
 21
131.49927087732263
  0
LINE
  8
_1-1_
  6
CONTINUOUS
 62
    4
 10
361.51670713682432
 20
127.89926889780406
 11
365.11673386032521
 21
131.49927087732263
  0
LINE
  8
_1-1_
  6
CONTINUOUS
 62
    4
 10
359.25401842271964
 20
127.89926889780406
 11
362.85399565825594
 21
131.49927087732263
  0
LINE
  8
_1-1_
  6
CONTINUOUS
 62
    4
 10
356.99123073268584
 20
127.89926889780406
 11
360.59125745618667
 21
131.49927087732263
  0
LINE
  8
_1-1_
  6
CONTINUOUS
 62
    4
 10
354.72849253061656
 20
127.89926889780406
 11
358.3285192541174
 21
131.49927087732263
  0
LINE
  8
_1-1_
  6
CONTINUOUS
 62
    4
 10
352.46575432854729
 20
127.89926889780406
 11
356.06578105204818
 21
131.49927087732263
  0
LINE
  8
_1-1_
  6
CONTINUOUS
 62
    4
 10
350.20301612647808
 20
127.89926889780406
 11
353.80304284997891
 21
131.49927087732263
  0
LINE
  8
_1-1_
  6
CONTINUOUS
 62
    4
 10
347.9402779244088
 20
127.89926889780406
 11
351.54030464790964
 21
131.49927087732263
  0
LINE
  8
_1-1_
  6
CONTINUOUS
 62
    4
 10
345.67758921030406
 20
127.89926889780406
 11
349.27759118982266
 21
131.49927087732263
  0
LINE
  8
_1-1_
  6
CONTINUOUS
 62
    4
 10
343.41485100823479
 20
127.89926889780406
 11
347.01485298775339
 21
131.49927087732263
  0
LINE
  8
_1-1_
  6
CONTINUOUS
 62
    4
 10
341.15211280616558
 20
127.89926889780406
 11
344.75211478568411
 21
131.49927087732263
  0
LINE
  8
_1-1_
  6
CONTINUOUS
 62
    4
 10
338.8893746040963
 20
127.89926889780406
 11
342.4893765836149
 21
131.49927087732263
  0
LINE
  8
_1-1_
  6
CONTINUOUS
 62
    4
 10
336.62663640202703
 20
127.89926889780406
 11
340.22666312552786
 21
131.49927087732263
  0
LINE
  8
_1-1_
  6
CONTINUOUS
 62
    4
 10
334.36389819995782
 20
127.89926889780406
 11
337.96390017947635
 21
131.49927087732263
  0
LINE
  8
_1-1_
  6
CONTINUOUS
 62
    4
 10
332.10115999788854
 20
127.89926889780406
 11
335.70116197740714
 21
131.49927087732263
  0
LINE
  8
_1-1_
  6
CONTINUOUS
 62
    4
 10
329.83842179581927
 20
127.89926889780406
 11
333.4384485193201
 21
131.49927087732263
  0
LINE
  8
_1-1_
  6
CONTINUOUS
 62
    4
 10
327.57568359375
 20
127.89926889780406
 11
331.17571031725089
 21
131.49927087732263
  0
LINE
  8
_1-1_
  6
CONTINUOUS
 62
    4
 10
325.31294539168078
 20
127.89926889780406
 11
328.91294737119932
 21
131.49927087732263
  0
LINE
  8
_1-1_
  6
CONTINUOUS
 62
    4
 10
323.05025667757604
 20
127.89926889780406
 11
326.65023391311234
 21
131.49927087732263
  0
LINE
  8
_1-1_
  6
CONTINUOUS
 62
    4
 10
320.78746898754224
 20
127.89926889780406
 11
324.38749571104307
 21
131.49927087732263
  0
LINE
  8
_1-1_
  6
CONTINUOUS
 62
    4
 10
318.52473078547297
 20
127.89926889780406
 11
322.12475750897386
 21
131.49927087732263
  0
LINE
  8
_1-1_
  6
CONTINUOUS
 62
    4
 10
316.26199258340375
 20
127.89926889780406
 11
319.86201930690459
 21
131.49927087732263
  0
LINE
  8
_1-1_
  6
CONTINUOUS
 62
    4
 10
313.99925438133448
 20
127.89926889780406
 11
317.59928110483531
 21
131.49927087732263
  0
LINE
  8
_1-1_
  6
CONTINUOUS
 62
    4
 10
311.73651617926521
 20
127.89926889780406
 11
315.33654290276604
 21
131.49927087732263
  0
LINE
  8
_1-1_
  6
CONTINUOUS
 62
    4
 10
309.47382746516047
 20
127.89926889780406
 11
313.07382944467906
 21
131.49927087732263
  0
LINE
  8
_1-1_
  6
CONTINUOUS
 62
    4
 10
307.21106451910896
 20
127.89926889780406
 11
310.81109124260979
 21
131.49927087732263
  0
LINE
  8
_1-1_
  6
CONTINUOUS
 62
    4
 10
304.94835106102198
 20
127.89926889780406
 11
308.54835304054058
 21
131.49927087732263
  0
LINE
  8
_1-1_
  6
CONTINUOUS
 62
    4
 10
302.68561285895271
 20
127.89926889780406
 11
306.2856148384713
 21
131.49927087732263
  0
LINE
  8
_1-1_
  6
CONTINUOUS
 62
    4
 10
300.42287465688344
 20
127.89926889780406
 11
304.02287663640203
 21
131.49927087732263
  0
LINE
  8
_1-1_
  6
CONTINUOUS
 62
    4
 10
298.16011171083193
 20
127.89926889780406
 11
301.76013843433276
 21
131.49927087732263
  0
LINE
  8
_1-1_
  6
CONTINUOUS
 62
    4
 10
295.89734876478042
 20
127.89926889780406
 11
299.49740023226354
 21
131.49927087732263
  0
LINE
  8
_1-1_
  6
CONTINUOUS
 62
    4
 10
293.63461056271115
 20
127.89926889780406
 11
297.23466203019427
 21
131.49927087732263
  0
LINE
  8
_1-1_
  6
CONTINUOUS
 62
    4
 10
291.37189710462417
 20
127.89926889780406
 11
294.971923828125
 21
131.49927087732263
  0
LINE
  8
_1-1_
  6
CONTINUOUS
 62
    4
 10
289.10913415857266
 20
127.89926889780406
 11
292.70916088207349
 21
131.49927087732263
  0
LINE
  8
_1-1_
  6
CONTINUOUS
 62
    4
 10
286.84639595650339
 20
127.89926889780406
 11
290.44639793602198
 21
131.49927087732263
  0
LINE
  8
_1-1_
  6
CONTINUOUS
 62
    4
 10
284.58365775443411
 20
127.89926889780406
 11
288.18365973395271
 21
131.49927087732263
  0
LINE
  8
_1-1_
  6
CONTINUOUS
 62
    4
 10
282.3209195523649
 20
127.89926889780406
 11
285.92092153188344
 21
131.49927087732263
  0
LINE
  8
_1-1_
  6
CONTINUOUS
 62
    4
 10
280.05818135029563
 20
127.89926889780406
 11
283.65818332981422
 21
131.49927087732263
  0
LINE
  8
_1-1_
  6
CONTINUOUS
 62
    4
 10
277.79539366026182
 20
127.89926889780406
 11
281.39542038376271
 21
131.49927087732263
  0
LINE
  8
_1-1_
  6
CONTINUOUS
 62
    4
 10
275.53265545819261
 20
127.89926889780406
 11
279.13268218169344
 21
131.49927087732263
  0
LINE
  8
_1-1_
  6
CONTINUOUS
 62
    4
 10
273.26991725612334
 20
127.89926889780406
 11
276.86994397962417
 21
131.49927087732263
  0
LINE
  8
_1-1_
  6
CONTINUOUS
 62
    4
 10
271.00717905405406
 20
127.89926889780406
 11
274.6072057775549
 21
131.49927087732263
  0
LINE
  8
_1-1_
  6
CONTINUOUS
 62
    4
 10
268.74444085198479
 20
127.89926889780406
 11
272.34446757548568
 21
131.49927087732263
  0
LINE
  8
_1-1_
  6
CONTINUOUS
 62
    4
 10
266.48170264991558
 20
127.89926889780406
 11
270.08170462943411
 21
131.49927087732263
  0
LINE
  8
_1-1_
  6
CONTINUOUS
 62
    4
 10
264.2189644478463
 20
127.89926889780406
 11
267.8189664273649
 21
131.49927087732263
  0
LINE
  8
_1-1_
  6
CONTINUOUS
 62
    4
 10
261.95622624577703
 20
127.89926889780406
 11
265.55622822529563
 21
131.49927087732263
  0
LINE
  8
_1-1_
  6
CONTINUOUS
 62
    4
 10
259.69348804370776
 20
127.89926889780406
 11
263.29349002322635
 21
131.49927087732263
  0
LINE
  8
_1-1_
  6
CONTINUOUS
 62
    4
 10
257.43072509765625
 20
127.89926889780406
 11
261.03072707717484
 21
131.49927087732263
  0
LINE
  8
_1-1_
  6
CONTINUOUS
 62
    4
 10
255.16798689558701
 20
127.89926889780406
 11
258.76801361908787
 21
131.49927087732263
  0
LINE
  8
_1-1_
  6
CONTINUOUS
 62
    4
 10
252.9052239495355
 20
127.89926889780406
 11
256.50525067303636
 21
131.49927087732263
  0
LINE
  8
_1-1_
  6
CONTINUOUS
 62
    4
 10
250.64248574746622
 20
127.89926889780406
 11
254.24251247096709
 21
131.49927087732263
  0
LINE
  8
_1-1_
  6
CONTINUOUS
 62
    4
 10
248.37974754539698
 20
127.89926889780406
 11
251.97974952491555
 21
131.49927087732263
  0
LINE
  8
_1-1_
  6
CONTINUOUS
 62
    4
 10
246.11700934332771
 20
127.89926889780406
 11
249.71703606682857
 21
131.49927087732263
  0
LINE
  8
_1-1_
  6
CONTINUOUS
 62
    4
 10
243.85427114125847
 20
127.89926889780406
 11
247.45427312077703
 21
131.49927087732263
  0
LINE
  8
_1-1_
  6
CONTINUOUS
 62
    4
 10
241.59153293918919
 20
127.89926889780406
 11
245.19153491870779
 21
131.49927087732263
  0
LINE
  8
_1-1_
  6
CONTINUOUS
 62
    4
 10
239.32879473711995
 20
127.89926889780406
 11
242.92879671663852
 21
131.49927087732263
  0
LINE
  8
_1-1_
  6
CONTINUOUS
 62
    4
 10
237.06603179106841
 20
127.89926889780406
 11
240.66605851456927
 21
131.49927087732263
  0
LINE
  8
_1-1_
  6
CONTINUOUS
 62
    4
 10
234.80329358899917
 20
127.89926889780406
 11
238.40329556851776
 21
131.49927087732263
  0
LINE
  8
_1-1_
  6
CONTINUOUS
 62
    4
 10
232.54055538692992
 20
127.89926889780406
 11
236.14058211043076
 21
131.49927087732263
  0
LINE
  8
_1-1_
  6
CONTINUOUS
 62
    4
 10
230.27779244087839
 20
127.89926889780406
 11
233.87781916437925
 21
131.49927087732263
  0
LINE
  8
_1-1_
  6
CONTINUOUS
 62
    4
 10
228.01507898279141
 20
127.89926889780406
 11
231.61508096230997
 21
131.49927087732263
  0
LINE
  8
_1-1_
  6
CONTINUOUS
 62
    4
 10
225.75234078072214
 20
127.89926889780406
 11
229.35234276024073
 21
131.49927087732263
  0
LINE
  8
_1-1_
  6
CONTINUOUS
 62
    4
 10
223.48957783467063
 20
127.89926889780406
 11
227.08957981418919
 21
131.49927087732263
  0
LINE
  8
_1-1_
  6
CONTINUOUS
 62
    4
 10
221.22683963260135
 20
127.89926889780406
 11
224.82686635610222
 21
131.49927087732263
  0
LINE
  8
_1-1_
  6
CONTINUOUS
 62
    4
 10
218.96410143053211
 20
127.89926889780406
 11
222.56412815403294
 21
131.49927087732263
  0
LINE
  8
_1-1_
  6
CONTINUOUS
 62
    4
 10
216.7013879724451
 20
127.89926889780406
 11
220.30136520798143
 21
131.49927087732263
  0
LINE
  8
_1-1_
  6
CONTINUOUS
 62
    4
 10
214.43864977037586
 20
127.89926889780406
 11
218.03865174989443
 21
131.49927087732263
  0
LINE
  8
_1-1_
  6
CONTINUOUS
 62
    4
 10
212.17588682432432
 20
127.89926889780406
 11
215.77588880384292
 21
131.49927087732263
  0
LINE
  8
_1-1_
  6
CONTINUOUS
 62
    4
 10
209.91314862225508
 20
127.89926889780406
 11
213.51315060177367
 21
131.49927087732263
  0
LINE
  8
_1-1_
  6
CONTINUOUS
 62
    4
 10
207.65041042018584
 20
127.89926889780406
 11
211.25043714368667
 21
131.49927087732263
  0
LINE
  8
_1-1_
  6
CONTINUOUS
 62
    4
 10
205.38767221811656
 20
127.89926889780406
 11
208.98767419763516
 21
131.49927087732263
  0
LINE
  8
_1-1_
  6
CONTINUOUS
 62
    4
 10
203.12493401604732
 20
127.89926889780406
 11
206.72496073954815
 21
131.49927087732263
  0
LINE
  8
_1-1_
  6
CONTINUOUS
 62
    4
 10
200.86219581397805
 20
127.89926889780406
 11
204.46221016548776
 21
131.49927087732263
  0
LINE
  8
_1-1_
  6
CONTINUOUS
 62
    4
 10
198.5994576119088
 20
127.89926889780406
 11
202.19948433540964
 21
131.49927087732263
  0
LINE
  8
_1-1_
  6
CONTINUOUS
 62
    4
 10
196.33671940983953
 20
127.89926889780406
 11
199.93674613334039
 21
131.49927087732263
  0
LINE
  8
_1-1_
  6
CONTINUOUS
 62
    4
 10
194.07398120777029
 20
127.89926889780406
 11
197.67399555928
 21
131.49927087732263
  0
LINE
  8
_1-1_
  6
CONTINUOUS
 62
    4
 10
191.81124300570102
 20
127.89926889780406
 11
195.41126972920188
 21
131.49927087732263
  0
LINE
  8
_1-1_
  6
CONTINUOUS
 62
    4
 10
189.54849243164063
 20
127.89926889780406
 11
193.14851915514149
 21
131.49927087732263
  0
LINE
  8
_1-1_
  6
CONTINUOUS
 62
    4
 10
187.28574185758023
 20
127.89926889780406
 11
190.88574383709883
 21
131.49927087732263
  0
LINE
  8
_1-1_
  6
CONTINUOUS
 62
    4
 10
185.02300365551099
 20
127.89926889780406
 11
188.62300563502959
 21
131.49927087732263
  0
LINE
  8
_1-1_
  6
CONTINUOUS
 62
    4
 10
182.76026545344175
 20
127.89926889780406
 11
186.36026743296031
 21
131.49927087732263
  0
LINE
  8
_1-1_
  6
CONTINUOUS
 62
    4
 10
180.49752725137247
 20
127.89926889780406
 11
184.09754160288219
 21
131.49927087732263
  0
LINE
  8
_1-1_
  6
CONTINUOUS
 62
    4
 10
178.23478904930323
 20
127.89926889780406
 11
181.8347910288218
 21
131.49927087732263
  0
LINE
  8
_1-1_
  6
CONTINUOUS
 62
    4
 10
175.97205084723396
 20
127.89926889780406
 11
179.57206519874367
 21
131.49927087732263
  0
LINE
  8
_1-1_
  6
CONTINUOUS
 62
    4
 10
173.70931264516472
 20
127.89926889780406
 11
177.30931462468328
 21
131.49927087732263
  0
LINE
  8
_1-1_
  6
CONTINUOUS
 62
    4
 10
171.44654969911318
 20
127.89926889780406
 11
175.04657642261404
 21
131.49927087732263
  0
LINE
  8
_1-1_
  6
CONTINUOUS
 62
    4
 10
169.18381149704393
 20
127.89926889780406
 11
172.78383822054477
 21
131.49927087732263
  0
LINE
  8
_1-1_
  6
CONTINUOUS
 62
    4
 10
166.92107329497466
 20
127.89926889780406
 11
170.52108764648437
 21
131.49927087732263
  0
LINE
  8
_1-1_
  6
CONTINUOUS
 62
    4
 10
164.65833509290542
 20
127.89926889780406
 11
168.25834944441513
 21
131.49927087732263
  0
LINE
  8
_1-1_
  6
CONTINUOUS
 62
    4
 10
162.39559689083615
 20
127.89926889780406
 11
165.99559887035474
 21
131.49927087732263
  0
LINE
  8
_1-1_
  6
CONTINUOUS
 62
    4
 10
160.1328586887669
 20
127.89926889780406
 11
163.73286066828547
 21
131.49927087732263
  0
LINE
  8
_1-1_
  6
CONTINUOUS
 62
    4
 10
157.87012048669763
 20
127.89926889780406
 11
161.47012246621622
 21
131.49927087732263
  0
LINE
  8
_1-1_
  6
CONTINUOUS
 62
    4
 10
155.60736991263727
 20
127.89926889780406
 11
159.20738426414698
 21
131.49927087732263
  0
LINE
  8
_1-1_
  6
CONTINUOUS
 62
    4
 10
153.344631710568
 20
127.89926889780406
 11
156.94464606207771
 21
131.49927087732263
  0
LINE
  8
_1-1_
  6
CONTINUOUS
 62
    4
 10
151.0818811365076
 20
127.89926889780406
 11
154.68190786000847
 21
131.49927087732263
  0
LINE
  8
_1-1_
  6
CONTINUOUS
 62
    4
 10
148.81914293443836
 20
127.89926889780406
 11
152.41916965793919
 21
131.49927087732263
  0
LINE
  8
_1-1_
  6
CONTINUOUS
 62
    4
 10
146.55640473236909
 20
127.89926889780406
 11
150.15640671188768
 21
131.49927087732263
  0
LINE
  8
_1-1_
  6
CONTINUOUS
 62
    4
 10
144.29366653029984
 20
127.89926889780406
 11
147.89366850981841
 21
131.49927087732263
  0
LINE
  8
_1-1_
  6
CONTINUOUS
 62
    4
 10
142.03092832823057
 20
127.89926889780406
 11
145.63095505173143
 21
131.49927087732263
  0
LINE
  8
_1-1_
  6
CONTINUOUS
 62
    4
 10
139.76819012616133
 20
127.89926889780406
 11
143.3681921056799
 21
131.49927087732263
  0
LINE
  8
_1-1_
  6
CONTINUOUS
 62
    4
 10
137.50545192409206
 20
127.89926889780406
 11
141.10547864759292
 21
131.49927087732263
  0
LINE
  8
_1-1_
  6
CONTINUOUS
 62
    4
 10
135.24268897804055
 20
127.89926889780406
 11
138.84269095755914
 21
131.49927087732263
  0
LINE
  8
_1-1_
  6
CONTINUOUS
 62
    4
 10
134.1637894913957
 20
129.08310761322846
 11
136.57997749947214
 21
131.49927087732263
  0
LINE
  8
_1-1_
  6
CONTINUOUS
 62
    4
 10
134.1637894913957
 20
131.34584581529774
 11
134.31723929740289
 21
131.49927087732263
  0
LINE
  8
_1-1_
  6
CONTINUOUS
 62
    4
 10
134.1637894913957
 20
128.86922063054266
 11
135.1337412241343
 21
127.89926889780406
  0
LINE
  8
_1-1_
  6
CONTINUOUS
 62
    4
 10
134.1637894913957
 20
131.13194646062078
 11
137.39646705421242
 21
127.89926889780406
  0
LINE
  8
_1-1_
  6
CONTINUOUS
 62
    4
 10
136.05921564875422
 20
131.49927087732263
 11
139.65920525628167
 21
127.89926889780406
  0
LINE
  8
_1-1_
  6
CONTINUOUS
 62
    4
 10
138.32195385082349
 20
131.49927087732263
 11
141.92193108635979
 21
127.89926889780406
  0
LINE
  8
_1-1_
  6
CONTINUOUS
 62
    4
 10
140.58466730891047
 20
131.49927087732263
 11
144.18466928842906
 21
127.89926889780406
  0
LINE
  8
_1-1_
  6
CONTINUOUS
 62
    4
 10
142.84743025496201
 20
131.49927087732263
 11
146.44740749049831
 21
127.89926889780406
  0
LINE
  8
_1-1_
  6
CONTINUOUS
 62
    4
 10
145.11016845703125
 20
131.49927087732263
 11
148.71014569256758
 21
127.89926889780406
  0
LINE
  8
_1-1_
  6
CONTINUOUS
 62
    4
 10
147.37288191511826
 20
131.49927087732263
 11
150.97288389463682
 21
127.89926889780406
  0
LINE
  8
_1-1_
  6
CONTINUOUS
 62
    4
 10
149.6356201171875
 20
131.49927087732263
 11
153.23562209670609
 21
127.89926889780406
  0
LINE
  8
_1-1_
  6
CONTINUOUS
 62
    4
 10
151.89835831925677
 20
131.49927087732263
 11
155.49833555479307
 21
127.89926889780406
  0
LINE
  8
_1-1_
  6
CONTINUOUS
 62
    4
 10
154.16109652132602
 20
131.49927087732263
 11
157.76107375686234
 21
127.89926889780406
  0
LINE
  8
_1-1_
  6
CONTINUOUS
 62
    4
 10
156.42380997941302
 20
131.49927087732263
 11
160.02381195893159
 21
127.89926889780406
  0
LINE
  8
_1-1_
  6
CONTINUOUS
 62
    4
 10
158.68654818148227
 20
131.49927087732263
 11
162.28655016100086
 21
127.89926889780406
  0
LINE
  8
_1-1_
  6
CONTINUOUS
 62
    4
 10
160.9493111275338
 20
131.49927087732263
 11
164.5492883630701
 21
127.89926889780406
  0
LINE
  8
_1-1_
  6
CONTINUOUS
 62
    4
 10
163.21202458562078
 20
131.49927087732263
 11
166.81202656513938
 21
127.89926889780406
  0
LINE
  8
_1-1_
  6
CONTINUOUS
 62
    4
 10
165.47478753167232
 20
131.49927087732263
 11
169.07476476720862
 21
127.89926889780406
  0
LINE
  8
_1-1_
  6
CONTINUOUS
 62
    4
 10
167.73751336175044
 20
131.49927087732263
 11
171.33749059728675
 21
127.89926889780406
  0
LINE
  8
_1-1_
  6
CONTINUOUS
 62
    4
 10
170.00022681983742
 20
131.49927087732263
 11
173.60021642736487
 21
127.89926889780406
  0
LINE
  8
_1-1_
  6
CONTINUOUS
 62
    4
 10
172.26296502190669
 20
131.49927087732263
 11
175.86295462943414
 21
127.89926889780406
  0
LINE
  8
_1-1_
  6
CONTINUOUS
 62
    4
 10
174.52570322397594
 20
131.49927087732263
 11
178.12569283150339
 21
127.89926889780406
  0
LINE
  8
_1-1_
  6
CONTINUOUS
 62
    4
 10
176.78844142604518
 20
131.49927087732263
 11
180.38843103357266
 21
127.89926889780406
  0
LINE
  8
_1-1_
  6
CONTINUOUS
 62
    4
 10
179.05117962811445
 20
131.49927087732263
 11
182.6511692356419
 21
127.89926889780406
  0
LINE
  8
_1-1_
  6
CONTINUOUS
 62
    4
 10
181.31390545819258
 20
131.49927087732263
 11
184.91389506572003
 21
127.89926889780406
  0
LINE
  8
_1-1_
  6
CONTINUOUS
 62
    4
 10
183.57665603225297
 20
131.49927087732263
 11
187.17664563978042
 21
127.89926889780406
  0
LINE
  8
_1-1_
  6
CONTINUOUS
 62
    4
 10
185.83938186233109
 20
131.49927087732263
 11
189.43938384184966
 21
127.89926889780406
  0
LINE
  8
_1-1_
  6
CONTINUOUS
 62
    4
 10
188.10210769240922
 20
131.49927087732263
 11
191.70209729993667
 21
127.89926889780406
  0
LINE
  8
_1-1_
  6
CONTINUOUS
 62
    4
 10
190.36485826646961
 20
131.49927087732263
 11
193.96483550200591
 21
127.89926889780406
  0
LINE
  8
_1-1_
  6
CONTINUOUS
 62
    4
 10
192.62758409654774
 20
131.49927087732263
 11
196.22757370407518
 21
127.89926889780406
  0
LINE
  8
_1-1_
  6
CONTINUOUS
 62
    4
 10
194.89032229861698
 20
131.49927087732263
 11
198.49031190614443
 21
127.89926889780406
  0
LINE
  8
_1-1_
  6
CONTINUOUS
 62
    4
 10
197.15306050068625
 20
131.49927087732263
 11
200.75303773622255
 21
127.89926889780406
  0
LINE
  8
_1-1_
  6
CONTINUOUS
 62
    4
 10
199.4157987027555
 20
131.49927087732263
 11
203.01578831028294
 21
127.89926889780406
  0
LINE
  8
_1-1_
  6
CONTINUOUS
 62
    4
 10
201.67853690482477
 20
131.49927087732263
 11
205.27852651235222
 21
127.89926889780406
  0
LINE
  8
_1-1_
  6
CONTINUOUS
 62
    4
 10
203.94126273490289
 20
131.49927087732263
 11
207.54125234243034
 21
127.89926889780406
  0
LINE
  8
_1-1_
  6
CONTINUOUS
 62
    4
 10
206.20400093697214
 20
131.49927087732263
 11
209.80397817250847
 21
127.89926889780406
  0
LINE
  8
_1-1_
  6
CONTINUOUS
 62
    4
 10
208.46671439505914
 20
131.49927087732263
 11
212.06671637457771
 21
127.89926889780406
  0
LINE
  8
_1-1_
  6
CONTINUOUS
 62
    4
 10
210.72945259712839
 20
131.49927087732263
 11
214.32945457664698
 21
127.89926889780406
  0
LINE
  8
_1-1_
  6
CONTINUOUS
 62
    4
 10
212.99219079919766
 20
131.49927087732263
 11
216.59219277871622
 21
127.89926889780406
  0
LINE
  8
_1-1_
  6
CONTINUOUS
 62
    4
 10
215.2549290012669
 20
131.49927087732263
 11
218.8549309807855
 21
127.89926889780406
  0
LINE
  8
_1-1_
  6
CONTINUOUS
 62
    4
 10
217.51766720333617
 20
131.49927087732263
 11
221.11764443887247
 21
127.89926889780406
  0
LINE
  8
_1-1_
  6
CONTINUOUS
 62
    4
 10
219.78040540540542
 20
131.49927087732263
 11
223.38038264094175
 21
127.89926889780406
  0
LINE
  8
_1-1_
  6
CONTINUOUS
 62
    4
 10
222.04314360747466
 20
131.49927087732263
 11
225.64312084301099
 21
127.89926889780406
  0
LINE
  8
_1-1_
  6
CONTINUOUS
 62
    4
 10
224.30588180954393
 20
131.49927087732263
 11
227.90585904508026
 21
127.89926889780406
  0
LINE
  8
_1-1_
  6
CONTINUOUS
 62
    4
 10
226.56859526763091
 20
131.49927087732263
 11
230.16857250316724
 21
127.89926889780406
  0
LINE
  8
_1-1_
  6
CONTINUOUS
 62
    4
 10
228.83133346970018
 20
131.49927087732263
 11
232.43133544921875
 21
127.89926889780406
  0
LINE
  8
_1-1_
  6
CONTINUOUS
 62
    4
 10
231.09407167176943
 20
131.49927087732263
 11
234.69404890730576
 21
127.89926889780406
  0
LINE
  8
_1-1_
  6
CONTINUOUS
 62
    4
 10
233.3568098738387
 20
131.49927087732263
 11
236.95681185335727
 21
127.89926889780406
  0
LINE
  8
_1-1_
  6
CONTINUOUS
 62
    4
 10
235.61957281989021
 20
131.49927087732263
 11
239.21955005542654
 21
127.89926889780406
  0
LINE
  8
_1-1_
  6
CONTINUOUS
 62
    4
 10
237.88231102195948
 20
131.49927087732263
 11
241.48228825749578
 21
127.89926889780406
  0
LINE
  8
_1-1_
  6
CONTINUOUS
 62
    4
 10
240.14502448004646
 20
131.49927087732263
 11
243.74502645956505
 21
127.89926889780406
  0
LINE
  8
_1-1_
  6
CONTINUOUS
 62
    4
 10
242.40776268211573
 20
131.49927087732263
 11
246.00773991765203
 21
127.89926889780406
  0
LINE
  8
_1-1_
  6
CONTINUOUS
 62
    4
 10
244.67047614020271
 20
131.49927087732263
 11
248.2704781197213
 21
127.89926889780406
  0
LINE
  8
_1-1_
  6
CONTINUOUS
 62
    4
 10
246.93321434227198
 20
131.49927087732263
 11
250.53321632179055
 21
127.89926889780406
  0
LINE
  8
_1-1_
  6
CONTINUOUS
 62
    4
 10
249.19597728832349
 20
131.49927087732263
 11
252.79595452385982
 21
127.89926889780406
  0
LINE
  8
_1-1_
  6
CONTINUOUS
 62
    4
 10
251.4586907464105
 20
131.49927087732263
 11
255.05869272592906
 21
127.89926889780406
  0
LINE
  8
_1-1_
  6
CONTINUOUS
 62
    4
 10
253.72142894847974
 20
131.49927087732263
 11
257.32143092799834
 21
127.89926889780406
  0
LINE
  8
_1-1_
  6
CONTINUOUS
 62
    4
 10
255.98416715054901
 20
131.49927087732263
 11
259.58411964210308
 21
127.89926889780406
  0
LINE
  8
_1-1_
  6
CONTINUOUS
 62
    4
 10
258.24690535261828
 20
131.49927087732263
 11
261.84685784417229
 21
127.89926889780406
  0
LINE
  8
_1-1_
  6
CONTINUOUS
 62
    4
 10
260.5096435546875
 20
131.49927087732263
 11
264.10964553420609
 21
127.89926889780406
  0
LINE
  8
_1-1_
  6
CONTINUOUS
 62
    4
 10
262.77238175675677
 20
131.49927087732263
 11
266.37238373627537
 21
127.89926889780406
  0
LINE
  8
_1-1_
  6
CONTINUOUS
 62
    4
 10
265.03509521484375
 20
131.49927087732263
 11
268.63509719436234
 21
127.89926889780406
  0
LINE
  8
_1-1_
  6
CONTINUOUS
 62
    4
 10
267.29783341691302
 20
131.49927087732263
 11
270.89783539643162
 21
127.89926889780406
  0
LINE
  8
_1-1_
  6
CONTINUOUS
 62
    4
 10
269.56057161898229
 20
131.49927087732263
 11
273.16057359850083
 21
127.89926889780406
  0
LINE
  8
_1-1_
  6
CONTINUOUS
 62
    4
 10
271.8233345650338
 20
131.49927087732263
 11
275.4233118005701
 21
127.89926889780406
  0
LINE
  8
_1-1_
  6
CONTINUOUS
 62
    4
 10
274.08604802312078
 20
131.49927087732263
 11
277.68602525865708
 21
127.89926889780406
  0
LINE
  8
_1-1_
  6
CONTINUOUS
 62
    4
 10
276.34878622519005
 20
131.49927087732263
 11
279.94878820470865
 21
127.89926889780406
  0
LINE
  8
_1-1_
  6
CONTINUOUS
 62
    4
 10
278.61152442725933
 20
131.49927087732263
 11
282.21150166279563
 21
127.89926889780406
  0
LINE
  8
_1-1_
  6
CONTINUOUS
 62
    4
 10
280.87426262932854
 20
131.49927087732263
 11
284.4742398648649
 21
127.89926889780406
  0
LINE
  8
_1-1_
  6
CONTINUOUS
 62
    4
 10
283.13700083139781
 20
131.49927087732263
 11
286.73697806693411
 21
127.89926889780406
  0
LINE
  8
_1-1_
  6
CONTINUOUS
 62
    4
 10
285.39973903346709
 20
131.49927087732263
 11
288.99971626900339
 21
127.89926889780406
  0
LINE
  8
_1-1_
  6
CONTINUOUS
 62
    4
 10
287.66245249155406
 20
131.49927087732263
 11
291.26245447107266
 21
127.89926889780406
  0
LINE
  8
_1-1_
  6
CONTINUOUS
 62
    4
 10
289.92519069362334
 20
131.49927087732263
 11
293.52516792915964
 21
127.89926889780406
  0
LINE
  8
_1-1_
  6
CONTINUOUS
 62
    4
 10
292.18792889569261
 20
131.49927087732263
 11
295.78790613122891
 21
127.89926889780406
  0
LINE
  8
_1-1_
  6
CONTINUOUS
 62
    4
 10
294.45066709776182
 20
131.49927087732263
 11
298.05064433329818
 21
127.89926889780406
  0
LINE
  8
_1-1_
  6
CONTINUOUS
 62
    4
 10
296.71338055584886
 20
131.49927087732263
 11
300.3133825353674
 21
127.89926889780406
  0
LINE
  8
_1-1_
  6
CONTINUOUS
 62
    4
 10
298.97611875791807
 20
131.49927087732263
 11
302.57609599345443
 21
127.89926889780406
  0
LINE
  8
_1-1_
  6
CONTINUOUS
 62
    4
 10
301.23885695998734
 20
131.49927087732263
 11
304.83885893950594
 21
127.89926889780406
  0
LINE
  8
_1-1_
  6
CONTINUOUS
 62
    4
 10
303.50159516205662
 20
131.49927087732263
 11
307.10157239759292
 21
127.89926889780406
  0
LINE
  8
_1-1_
  6
CONTINUOUS
 62
    4
 10
305.76433336412589
 20
131.49927087732263
 11
309.36431059966219
 21
127.89926889780406
  0
LINE
  8
_1-1_
  6
CONTINUOUS
 62
    4
 10
308.0270715661951
 20
131.49927087732263
 11
311.62704880173146
 21
127.89926889780406
  0
LINE
  8
_1-1_
  6
CONTINUOUS
 62
    4
 10
310.28980976826438
 20
131.49927087732263
 11
313.88978700380068
 21
127.89926889780406
  0
LINE
  8
_1-1_
  6
CONTINUOUS
 62
    4
 10
312.55254797033365
 20
131.49927087732263
 11
316.15252520586995
 21
127.89926889780406
  0
LINE
  8
_1-1_
  6
CONTINUOUS
 62
    4
 10
314.81528617240286
 20
131.49927087732263
 11
318.41526340793922
 21
127.89926889780406
  0
LINE
  8
_1-1_
  6
CONTINUOUS
 62
    4
 10
317.07802437447214
 20
131.49927087732263
 11
320.67800161000844
 21
127.89926889780406
  0
LINE
  8
_1-1_
  6
CONTINUOUS
 62
    4
 10
319.34076257654141
 20
131.49927087732263
 11
322.94073981207771
 21
127.89926889780406
  0
LINE
  8
_1-1_
  6
CONTINUOUS
 62
    4
 10
321.60347603462839
 20
131.49927087732263
 11
325.20347801414698
 21
127.89926889780406
  0
LINE
  8
_1-1_
  6
CONTINUOUS
 62
    4
 10
323.86621423669766
 20
131.49927087732263
 11
327.46619147223396
 21
127.89926889780406
  0
LINE
  8
_1-1_
  6
CONTINUOUS
 62
    4
 10
326.12895243876693
 20
131.49927087732263
 11
329.72892967430323
 21
127.89926889780406
  0
LINE
  8
_1-1_
  6
CONTINUOUS
 62
    4
 10
328.39169064083615
 20
131.49927087732263
 11
331.9916678763725
 21
127.89926889780406
  0
LINE
  8
_1-1_
  6
CONTINUOUS
 62
    4
 10
330.65440409892318
 20
131.49927087732263
 11
334.25438133445948
 21
127.89926889780406
  0
LINE
  8
_1-1_
  6
CONTINUOUS
 62
    4
 10
332.9171423009924
 20
131.49927087732263
 11
336.51711953652875
 21
127.89926889780406
  0
LINE
  8
_1-1_
  6
CONTINUOUS
 62
    4
 10
335.17988050306167
 20
131.49927087732263
 11
338.77985773859797
 21
127.89926889780406
  0
LINE
  8
_1-1_
  6
CONTINUOUS
 62
    4
 10
337.44261870513094
 20
131.49927087732263
 11
341.04262068464953
 21
127.89926889780406
  0
LINE
  8
_1-1_
  6
CONTINUOUS
 62
    4
 10
339.70535690720021
 20
131.49927087732263
 11
343.30533414273651
 21
127.89926889780406
  0
LINE
  8
_1-1_
  6
CONTINUOUS
 62
    4
 10
341.96809510926943
 20
131.49927087732263
 11
345.56807234480578
 21
127.89926889780406
  0
LINE
  8
_1-1_
  6
CONTINUOUS
 62
    4
 10
344.2308333113387
 20
131.49927087732263
 11
347.830810546875
 21
127.89926889780406
  0
LINE
  8
_1-1_
  6
CONTINUOUS
 62
    4
 10
346.49357151340797
 20
131.49927087732263
 11
350.09354874894427
 21
127.89926889780406
  0
LINE
  8
_1-1_
  6
CONTINUOUS
 62
    4
 10
348.75630971547724
 20
131.49927087732263
 11
352.35628695101354
 21
127.89926889780406
  0
LINE
  8
_1-1_
  6
CONTINUOUS
 62
    4
 10
351.01904791754646
 20
131.49927087732263
 11
354.61902515308282
 21
127.89926889780406
  0
LINE
  8
_1-1_
  6
CONTINUOUS
 62
    4
 10
353.28176137563349
 20
131.49927087732263
 11
356.88176335515203
 21
127.89926889780406
  0
LINE
  8
_1-1_
  6
CONTINUOUS
 62
    4
 10
355.54449957770271
 20
131.49927087732263
 11
359.1445015572213
 21
127.89926889780406
  0
LINE
  8
_1-1_
  6
CONTINUOUS
 62
    4
 10
357.80726252375422
 20
131.49927087732263
 11
361.40723975929058
 21
127.89926889780406
  0
LINE
  8
_1-1_
  6
CONTINUOUS
 62
    4
 10
360.06997598184125
 20
131.49927087732263
 11
363.66992847339532
 21
127.89926889780406
  0
LINE
  8
_1-1_
  6
CONTINUOUS
 62
    4
 10
362.33268943992823
 20
131.49927087732263
 11
365.93266667546453
 21
127.89926889780406
  0
LINE
  8
_1-1_
  6
CONTINUOUS
 62
    4
 10
364.59545238597974
 20
131.49927087732263
 11
368.19545436549834
 21
127.89926889780406
  0
LINE
  8
_1-1_
  6
CONTINUOUS
 62
    4
 10
366.85819058804901
 20
131.49927087732263
 11
370.45819256756761
 21
127.89926889780406
  0
LINE
  8
_1-1_
  6
CONTINUOUS
 62
    4
 10
369.12090404613599
 20
131.49927087732263
 11
372.72088128167229
 21
127.89926889780406
  0
LINE
  8
_1-1_
  6
CONTINUOUS
 62
    4
 10
371.38364224820526
 20
131.49927087732263
 11
373.92413165118245
 21
128.95878147434544
  0
LINE
  8
_1-1_
  6
CONTINUOUS
 62
    4
 10
373.64638045027453
 20
131.49927087732263
 11
373.92413165118245
 21
131.22151967641472
  0
LINE
  8
_1-1_
  6
DASHED1
 62
    3
 10
137.02833845808701
 20
131.99859206740922
 11
137.02833845808701
 21
212.80824403505068
  0
LINE
  8
_1-3_
  6
CONTINUOUS
 62
    7
 10
97.931071101008243
 20
212.80824403505068
 11
130.58772731471706
 21
212.80824403505068
  0
LINE
  8
_1-3_
  6
CONTINUOUS
 62
    7
 10
97.931071101008243
 20
202.80824815904774
 11
130.58772731471706
 21
202.80824815904774
  0
LINE
  8
_1-3_
  6
CONTINUOUS
 62
    7
 10
97.931071101008243
 20
212.80824403505068
 11
97.931071101008243
 21
202.80824815904774
  0
LINE
  8
_1-3_
  6
CONTINUOUS
 62
    7
 10
114.56460076409418
 20
212.80824403505068
 11
130.58772731471706
 21
212.80824403505068
  0
LINE
  8
_1-3_
  6
CONTINUOUS
 62
    7
 10
114.56460076409418
 20
131.99859206740922
 11
130.58772731471706
 21
131.99859206740922
  0
LINE
  8
_1-3_
  6
CONTINUOUS
 62
    7
 10
114.56460076409418
 20
212.80824403505068
 11
114.56460076409418
 21
131.99859206740922
  0
LINE
  8
_1-3_
  6
CONTINUOUS
 62
    7
 10
256.70006004539698
 20
127.89926889780406
 11
282.33222755225933
 21
198.32306733002534
  0
LINE
  8
_1-3_
  6
CONTINUOUS
 62
    7
 10
287.53992029138516
 20
198.32306733002534
 11
282.33222755225933
 21
198.32306733002534
  0
LINE
  8
_1-0_
  6
CONTINUOUS
 62
    3
 10
201.21832357870568
 20
146.16986661343961
 11
202.60779715873102
 21
146.16986661343961
  0
LINE
  8
_1-0_
  6
CONTINUOUS
 62
    3
 10
141.60774437156886
 20
145.82708822714318
 11
141.60774437156886
 21
143.02713342615075
  0
LINE
  8
_1-0_
  6
CONTINUOUS
 62
    3
 10
146.18020959802575
 20
145.39577587230787
 11
141.60774437156886
 21
143.02713342615075
  0
LINE
  8
_1-0_
  6
CONTINUOUS
 62
    3
 10
202.60779715873102
 20
146.16986661343961
 11
202.60779715873102
 21
142.98863178974875
  0
LINE
  8
_1-0_
  6
CONTINUOUS
 62
    3
 10
202.60779715873102
 20
146.16986661343961
 11
202.60779715873102
 21
142.98863178974875
  0
LINE
  8
_1-0_
  6
CONTINUOUS
 62
    3
 10
200.27938842773437
 20
149.05205803948482
 11
194.60774602116766
 21
145.82708822714318
  0
LINE
  8
_1-0_
  6
CONTINUOUS
 62
    3
 10
254.21833760029563
 20
146.16985424144849
 11
255.60783592430323
 21
146.16985424144849
  0
LINE
  8
_1-0_
  6
CONTINUOUS
 62
    3
 10
194.60774602116766
 20
145.82708822714318
 11
194.60774602116766
 21
143.02713342615075
  0
LINE
  8
_1-0_
  6
CONTINUOUS
 62
    3
 10
199.18021124762458
 20
145.39576350031672
 11
194.60774602116766
 21
143.02713342615075
  0
LINE
  8
_1-0_
  6
CONTINUOUS
 62
    3
 10
255.60783592430323
 20
146.16985424144849
 11
255.60783592430323
 21
142.98863178974875
  0
LINE
  8
_1-0_
  6
CONTINUOUS
 62
    3
 10
255.60783592430323
 20
146.16985424144849
 11
255.60783592430323
 21
142.98863178974875
  0
LINE
  8
_1-0_
  6
CONTINUOUS
 62
    3
 10
254.21841183224242
 20
146.16986661343961
 11
255.60788541226776
 21
146.16986661343961
  0
LINE
  8
ADD_LINE
  6
DOT
 62
    4
 10
253.77675649282097
 20
142.98863178974875
 11
259.64753846864443
 21
142.98863178974875
  0
LINE
  8
_1-0_
  6
CONTINUOUS
 62
    3
 10
255.60788541226776
 20
146.16986661343961
 11
255.60788541226776
 21
142.98863178974875
  0
LINE
  8
_1-0_
  6
CONTINUOUS
 62
    3
 10
255.60788541226776
 20
146.16986661343961
 11
255.60788541226776
 21
142.98863178974875
  0
LINE
  8
_1-0_
  6
CONTINUOUS
 62
    3
 10
253.27947668127112
 20
149.05204566749367
 11
247.60780953072214
 21
145.82708822714318
  0
LINE
  8
_1-0_
  6
CONTINUOUS
 62
    3
 10
247.60780953072214
 20
145.82708822714318
 11
247.60780953072214
 21
143.02713342615075
  0
LINE
  8
_1-0_
  6
CONTINUOUS
 62
    3
 10
252.18027475717906
 20
145.39577587230787
 11
247.60780953072214
 21
143.02713342615075
  0
LINE
  8
_1-0_
  6
CONTINUOUS
 62
    3
 10
308.60786231788433
 20
146.16986661343961
 11
308.60786231788433
 21
142.98863178974875
  0
LINE
  8
_1-0_
  6
CONTINUOUS
 62
    3
 10
308.60786231788433
 20
146.16986661343961
 11
308.60786231788433
 21
142.98863178974875
  0
LINE
  8
_1-0_
  6
CONTINUOUS
 62
    3
 10
147.27941152211784
 20
149.05204566749367
 11
141.60774437156886
 21
145.82708822714318
  0
LINE
  8
_1-0_
  6
CONTINUOUS
 62
    3
 10
306.27945358688771
 20
149.05204566749367
 11
300.60781118032094
 21
145.82708822714318
  0
LINE
  8
_1-0_
  6
CONTINUOUS
 62
    3
 10
360.21839038745782
 20
146.16986661343961
 11
361.60788871146536
 21
146.16986661343961
  0
LINE
  8
_1-0_
  6
CONTINUOUS
 62
    3
 10
300.60781118032094
 20
145.82708822714318
 11
300.60781118032094
 21
143.02713342615075
  0
LINE
  8
_1-0_
  6
CONTINUOUS
 62
    3
 10
305.18027640677786
 20
145.39577587230787
 11
300.60781118032094
 21
143.02713342615075
  0
LINE
  8
_1-0_
  6
CONTINUOUS
 62
    3
 10
361.60788871146536
 20
146.16986661343961
 11
361.60788871146536
 21
142.98863178974875
  0
LINE
  8
_1-0_
  6
CONTINUOUS
 62
    3
 10
361.60788871146536
 20
146.16986661343961
 11
361.60788871146536
 21
142.98863178974875
  0
LINE
  8
_1-0_
  6
CONTINUOUS
 62
    3
 10
359.27945523648651
 20
149.05204566749367
 11
353.60781282991979
 21
145.82708822714318
  0
LINE
  8
_1-0_
  6
CONTINUOUS
 62
    3
 10
353.60781282991979
 20
145.82708822714318
 11
353.60781282991979
 21
143.02713342615075
  0
LINE
  8
_1-0_
  6
CONTINUOUS
 62
    3
 10
358.18027805637672
 20
145.39577587230787
 11
353.60781282991979
 21
143.02713342615075
  0
LINE
  8
_1-0_
  6
CONTINUOUS
 62
    3
 10
307.21836399387672
 20
146.16986661343961
 11
308.60786231788433
 21
146.16986661343961
  0
LINE
  8
ADD_LINE
  6
DOT
 62
    7
 10
148.49165632918076
 20
145.82708822714318
 11
148.49165632918076
 21
161.55102291622677
  0
LINE
  8
_1-1_
  6
CONTINUOUS
 62
    7
 10
140.52488584776182
 20
132.3484348606419
 11
140.52488584776182
 21
160.9264848038957
  0
LINE
  8
_1-1_
  6
CONTINUOUS
 62
    7
 10
140.52488584776182
 20
160.9264848038957
 11
137.52487595016893
 21
160.9264848038957
  0
LINE
  8
_1-1_
  6
CONTINUOUS
 62
    7
 10
137.52487595016893
 20
160.9264848038957
 11
137.52487595016893
 21
132.3484348606419
  0
LINE
  8
_1-1_
  6
CONTINUOUS
 62
    7
 10
140.52488584776182
 20
160.9264848038957
 11
137.52487595016893
 21
132.3484348606419
  0
LINE
  8
_1-1_
  6
CONTINUOUS
 62
    3
 10
143.46664841110643
 20
161.05171409813136
 11
143.46664841110643
 21
157.54784248970651
  0
LINE
  8
_1-1_
  6
CONTINUOUS
 62
    3
 10
143.46664841110643
 20
161.05171409813136
 11
141.03107349292654
 21
161.05171409813136
  0
LINE
  8
_1-1_
  6
CONTINUOUS
 62
    3
 10
141.03107349292654
 20
132.47366415487755
 11
141.03107349292654
 21
161.05171409813136
  0
LINE
  8
_1-0_
  6
CONTINUOUS
 62
    3
 10
166.02291622677365
 20
154.85929746885557
 11
166.02291622677365
 21
149.45929449957771
  0
LINE
  8
_1-2_
  6
CONTINUOUS
 62
    3
 10
145.52289808118667
 20
158.45929944837417
 11
145.52289808118667
 21
154.85929746885557
  0
LINE
  8
_1-0_
  6
CONTINUOUS
 62
    3
 10
163.80268818623313
 20
161.79743586359797
 11
163.80268818623313
 21
156.3974328943201
  0
LINE
  8
_1-2_
  6
CONTINUOUS
 62
    3
 10
143.30267004064612
 20
165.39743784311656
 11
143.30267004064612
 21
161.79743586359797
  0
LINE
  8
_1-1_
  6
CONTINUOUS
 62
    7
 10
156.16798194679055
 20
164.56417186840162
 11
156.70848949535474
 21
167.51507733319258
  0
LINE
  8
_1-1_
  6
CONTINUOUS
 62
    7
 10
156.70848949535474
 20
167.51507733319258
 11
139.00303196262669
 21
170.75814736855997
  0
LINE
  8
_1-1_
  6
CONTINUOUS
 62
    7
 10
139.00303196262669
 20
170.75814736855997
 11
138.4625244140625
 21
167.80724190376901
  0
LINE
  8
_1-1_
  6
CONTINUOUS
 62
    7
 10
138.4625244140625
 20
167.80724190376901
 11
156.16798194679055
 21
164.56417186840162
  0
LINE
  8
_1-1_
  6
CONTINUOUS
 62
    7
 10
156.70848949535474
 20
167.51507733319258
 11
138.4625244140625
 21
167.80724190376901
  0
LINE
  8
_1-1_
  6
CONTINUOUS
 62
    3
 10
157.59234454180745
 20
167.7416703507707
 11
157.70191089527029
 21
164.12589408255914
  0
LINE
  8
_1-1_
  6
CONTINUOUS
 62
    7
 10
143.56379328547297
 20
171.35745899097341
 11
141.16380021378802
 21
171.35745899097341
  0
LINE
  8
ADD_LINE
  6
DOT
 62
    3
 10
137.69459492451438
 20
171.46702534443625
 11
133.26802021748313
 21
171.46702534443625
  0
LINE
  8
_1-1_
  6
CONTINUOUS
 62
    7
 10
141.16380021378802
 20
172.91917543153505
 11
141.16380021378802
 21
180.91917708113388
  0
LINE
  8
_1-1_
  6
CONTINUOUS
 62
    7
 10
141.16380021378802
 20
180.91917708113388
 11
137.56379823426943
 21
180.91917708113388
  0
LINE
  8
_1-1_
  6
CONTINUOUS
 62
    7
 10
137.56379823426943
 20
180.91917708113388
 11
137.56379823426943
 21
172.91917543153505
  0
LINE
  8
_1-1_
  6
CONTINUOUS
 62
    7
 10
137.56379823426943
 20
172.91917543153505
 11
141.16380021378802
 21
172.91917543153505
  0
LINE
  8
_1-1_
  6
CONTINUOUS
 62
    7
 10
137.56379823426943
 20
180.91917708113388
 11
141.16380021378802
 21
172.91917543153505
  0
LINE
  8
_1-1_
  6
CONTINUOUS
 62
    3
 10
157.59234454180745
 20
167.7416703507707
 11
137.28082605310388
 21
171.46208891997466
  0
LINE
  8
_1-1_
  6
CONTINUOUS
 62
    3
 10
137.28082605310388
 20
171.46208891997466
 11
137.28082605310388
 21
183.46702781883448
  0
LINE
  8
_1-1_
  6
CONTINUOUS
 62
    7
 10
141.16380021378802
 20
171.35745899097341
 11
141.16380021378802
 21
214.86486486486487
  0
LINE
  8
_1-1_
  6
CONTINUOUS
 62
    7
 10
143.56379328547297
 20
171.35745899097341
 11
143.56379328547297
 21
214.86486486486487
  0
LINE
  8
_1-3_
  6
CONTINUOUS
 62
    7
 10
146.91957216005068
 20
168.22796383419552
 11
159.11429740287164
 21
203.15468865471919
  0
LINE
  8
_1-3_
  6
CONTINUOUS
 62
    7
 10
157.67409865920609
 20
165.71263906118034
 11
165.97154771959461
 21
189.93169011296453
  0
LINE
  8
_1-3_
  6
CONTINUOUS
 62
    7
 10
161.24881228885135
 20
160.19864056561445
 11
167.57565060177365
 21
177.58147368559966
  0
LINE
  8
_1-3_
  6
CONTINUOUS
 62
    7
 10
175.21728515625
 20
164.44991653029984
 11
167.84347946579393
 21
145.61244655299831
  0
LINE
  8
_1-3_
  6
CONTINUOUS
 62
    7
 10
163.07081067884292
 20
152.91073360958615
 11
167.57565060177365
 21
177.58147368559966
  0
LINE
  8
_1-3_
  6
CONTINUOUS
 62
    7
 10
167.57565060177365
 20
177.58147368559966
 11
169.89797231313347
 21
177.58147368559966
  0
LINE
  8
_1-3_
  6
CONTINUOUS
 62
    7
 10
175.21728515625
 20
164.44991653029984
 11
178.74795449746622
 21
165.87186658704604
  0
LINE
  8
_1-2_
  6
CONTINUOUS
 62
    3
 10
137.28082605310388
 20
183.46702781883448
 11
137.28082605310388
 21
202.80824815904774
  0
LINE
  8
_1-0_
  6
CONTINUOUS
 62
    7
 10
97.931071101008243
 20
202.80824815904774
 11
130.58772731471706
 21
202.80824815904774
  0
LINE
  8
_1-0_
  6
CONTINUOUS
 62
    7
 10
97.931071101008243
 20
171.46702534443625
 11
130.58772731471706
 21
171.46702534443625
  0
LINE
  8
_1-0_
  6
CONTINUOUS
 62
    7
 10
97.931071101008243
 20
202.80824815904774
 11
97.931071101008243
 21
171.46702534443625
  0
CIRCLE
  8
_1-2_
  6
CONTINUOUS
 62
    7
 10
145.8904080777555
 20
144.1889376253695
 40
0.2324253240147152
  0
CIRCLE
  8
_1-2_
  6
CONTINUOUS
 62
    7
 10
144.32199838999156
 20
149.46233800939612
 40
0.2324253240147152
  0
CIRCLE
  8
_1-2_
  6
CONTINUOUS
 62
    7
 10
145.6602766707137
 20
148.50438710805534
 40
0.2324253240147152
  0
CIRCLE
  8
_1-2_
  6
CONTINUOUS
 62
    7
 10
147.96124432538008
 20
149.98356999577703
 40
0.2324253240147152
  0
CIRCLE
  8
_1-2_
  6
CONTINUOUS
 62
    7
 10
144.15764885979729
 20
148.47621608424831
 40
0.2324253240147152
  0
CIRCLE
  8
_1-2_
  6
CONTINUOUS
 62
    7
 10
152.69447120460305
 20
149.31627428209461
 40
0.2324253240147152
  0
CIRCLE
  8
_1-2_
  6
CONTINUOUS
 62
    7
 10
145.82465094489021
 20
149.49050903320312
 40
0.2324253240147152
  0
CIRCLE
  8
_1-2_
  6
CONTINUOUS
 62
    7
 10
151.57700822160052
 20
149.98356999577703
 40
0.2324253240147152
  0
CIRCLE
  8
_1-2_
  6
CONTINUOUS
 62
    7
 10
151.41265869140625
 20
149.49050903320312
 40
0.2324253240147152
  0
CIRCLE
  8
_1-2_
  6
CONTINUOUS
 62
    7
 10
158.71771322714318
 20
148.93550151103253
 40
0.2324253240147152
  0
CIRCLE
  8
_1-2_
  6
CONTINUOUS
 62
    7
 10
159.0464617754962
 20
148.93550151103253
 40
0.2324253240147152
  0
CIRCLE
  8
_1-2_
  6
CONTINUOUS
 62
    7
 10
159.46595887880068
 20
149.98356999577703
 40
0.2324253240147152
  0
CIRCLE
  8
_1-2_
  6
CONTINUOUS
 62
    7
 10
144.97939651076859
 20
148.31186655405406
 40
0.2324253240147152
  0
ARC
  8
_1-1_
  6
CONTINUOUS
 62
    3
 10
135.16379279059333
 20
126.89926559860642
 40
0.9999999162313101
 50
90
 51
180
  0
ARC
  8
_1-1_
  6
CONTINUOUS
 62
    3
 10
135.76379724451013
 20
126.29926114468962
 40
0.9999999162313101
 50
90
 51
180
  0
ARC
  8
_1-1_
  6
CONTINUOUS
 62
    3
 10
142.56378998627534
 20
126.29926114468962
 40
0.9999999162313101
 50
0
 51
90
  0
ARC
  8
_1-1_
  6
CONTINUOUS
 62
    3
 10
143.16379444019216
 20
126.89926559860642
 40
0.9999999162313101
 50
0
 51
90
  0
ARC
  8
_1-1_
  6
CONTINUOUS
 62
    3
 10
135.76379724451013
 20
109.49927252692146
 40
0.9999999162313101
 50
180
 51
270
  0
ARC
  8
_1-1_
  6
CONTINUOUS
 62
    3
 10
135.16379279059333
 20
108.89926807300465
 40
0.9999999162313101
 50
180
 51
270
  0
ARC
  8
_1-1_
  6
CONTINUOUS
 62
    3
 10
142.56378998627534
 20
109.49927252692146
 40
0.9999999162313101
 50
270
 51
0
  0
ARC
  8
_1-1_
  6
CONTINUOUS
 62
    3
 10
220.16376392261404
 20
126.89926559860642
 40
0.9999999162313101
 50
90
 51
180
  0
ARC
  8
_1-1_
  6
CONTINUOUS
 62
    3
 10
220.76378074852198
 20
126.29926114468962
 40
0.9999999162313101
 50
90
 51
180
  0
ARC
  8
_1-1_
  6
CONTINUOUS
 62
    3
 10
227.56377349028716
 20
126.29926114468962
 40
0.9999999162313101
 50
0
 51
90
  0
ARC
  8
_1-1_
  6
CONTINUOUS
 62
    3
 10
228.16376557221284
 20
126.89926559860642
 40
0.9999999162313101
 50
0
 51
90
  0
ARC
  8
_1-1_
  6
CONTINUOUS
 62
    3
 10
220.76378074852198
 20
109.49927252692146
 40
0.9999999162313101
 50
180
 51
270
  0
ARC
  8
_1-1_
  6
CONTINUOUS
 62
    3
 10
220.16376392261404
 20
108.89926807300465
 40
0.9999999162313101
 50
180
 51
270
  0
ARC
  8
_1-1_
  6
CONTINUOUS
 62
    3
 10
228.16376557221284
 20
108.89926807300465
 40
0.9999999162313101
 50
270
 51
0
  0
ARC
  8
_1-1_
  6
CONTINUOUS
 62
    3
 10
227.56377349028716
 20
109.49927252692146
 40
0.9999999162313101
 50
270
 51
0
  0
ARC
  8
_1-1_
  6
CONTINUOUS
 62
    3
 10
310.1637886665963
 20
126.89926559860642
 40
0.9999999162313101
 50
90
 51
180
  0
ARC
  8
_1-1_
  6
CONTINUOUS
 62
    3
 10
310.76378074852198
 20
126.29926114468962
 40
0.9999999162313101
 50
90
 51
180
  0
ARC
  8
_1-1_
  6
CONTINUOUS
 62
    3
 10
317.56377349028719
 20
126.29926114468962
 40
0.9999999162313101
 50
0
 51
90
  0
ARC
  8
_1-1_
  6
CONTINUOUS
 62
    3
 10
318.16376557221287
 20
126.89926559860642
 40
0.9999999162313101
 50
0
 51
90
  0
ARC
  8
_1-1_
  6
CONTINUOUS
 62
    3
 10
310.76378074852198
 20
109.49927252692146
 40
0.9999999162313101
 50
180
 51
270
  0
ARC
  8
_1-1_
  6
CONTINUOUS
 62
    3
 10
310.1637886665963
 20
108.89926807300465
 40
0.9999999162313101
 50
180
 51
270
  0
ARC
  8
_1-1_
  6
CONTINUOUS
 62
    3
 10
318.16376557221287
 20
108.89926807300465
 40
0.9999999162313101
 50
270
 51
0
  0
ARC
  8
_1-1_
  6
CONTINUOUS
 62
    3
 10
317.56377349028719
 20
109.49927252692146
 40
0.9999999162313101
 50
270
 51
0
  0
ARC
  8
_1-1_
  6
CONTINUOUS
 62
    3
 10
143.16379444019216
 20
108.89928044499578
 40
0.9999999162313101
 50
270
 51
0
  0
ARC
  8
_1-0_
  6
CONTINUOUS
 62
    3
 10
149.11927506730365
 20
146.60362862251901
 40
3.0627306731971538
 50
42.6905517578125
 51
126.92074584960937
  0
ARC
  8
_1-0_
  6
CONTINUOUS
 62
    3
 10
200.17845772408151
 20
146.14047076251057
 40
1.0402513194728542
 50
309.08184814453125
 51
1.6144714355468908
  0
ARC
  8
_1-0_
  6
CONTINUOUS
 62
    3
 10
148.93255697714318
 20
141.67720072978253
 40
4.6263270764737516
 50
47.123046875000007
 51
126.50717163085939
  0
ARC
  8
_1-0_
  6
CONTINUOUS
 62
    3
 10
179.04739379882812
 20
185.43134122281461
 40
48.543530025997683
 50
236.25315856933597
 51
299.03501892089844
  0
ARC
  8
_1-0_
  6
CONTINUOUS
 62
    3
 10
202.11927671690245
 20
146.60362862251901
 40
3.0627306731971538
 50
42.6905517578125
 51
126.92074584960937
  0
ARC
  8
_1-0_
  6
CONTINUOUS
 62
    3
 10
253.17847174567146
 20
146.14045839051943
 40
1.0402513194728542
 50
309.08184814453125
 51
1.6144714355468908
  0
ARC
  8
_1-0_
  6
CONTINUOUS
 62
    3
 10
231.74048346442146
 20
185.99196562895904
 40
46.274049088761615
 50
233.73811340332031
 51
298.51937866210937
  0
ARC
  8
_1-0_
  6
CONTINUOUS
 62
    3
 10
201.93255862674198
 20
141.67718835779138
 40
4.6263270764737516
 50
47.123046875000007
 51
126.50717163085939
  0
ARC
  8
_1-0_
  6
CONTINUOUS
 62
    3
 10
232.0474078204181
 20
185.43134122281461
 40
48.543530025997683
 50
236.25315856933597
 51
299.03501892089844
  0
ARC
  8
_1-0_
  6
CONTINUOUS
 62
    3
 10
253.17852123363599
 20
146.14047076251057
 40
1.0402513194728542
 50
309.08184814453125
 51
1.6144714355468908
  0
ARC
  8
_1-0_
  6
CONTINUOUS
 62
    3
 10
255.11934022645693
 20
146.60362862251901
 40
3.0627306731971538
 50
42.6905517578125
 51
126.92074584960937
  0
ARC
  8
_1-0_
  6
CONTINUOUS
 62
    3
 10
284.74055934596709
 20
185.99196562895904
 40
46.274049088761615
 50
233.73811340332031
 51
298.51937866210937
  0
ARC
  8
_1-0_
  6
CONTINUOUS
 62
    3
 10
254.93262213629646
 20
141.67720072978253
 40
4.6263270764737516
 50
47.123046875000007
 51
126.50717163085939
  0
ARC
  8
_1-0_
  6
CONTINUOUS
 62
    3
 10
285.04745895798146
 20
185.43134122281461
 40
48.543530025997683
 50
236.25315856933597
 51
299.03501892089844
  0
ARC
  8
_1-0_
  6
CONTINUOUS
 62
    3
 10
308.11934187605578
 20
146.60362862251901
 40
3.0627306731971538
 50
42.6905517578125
 51
126.92074584960937
  0
ARC
  8
_1-0_
  6
CONTINUOUS
 62
    3
 10
359.17852453283365
 20
146.14047076251057
 40
1.0402513194728542
 50
309.08184814453125
 51
1.6144714355468908
  0
ARC
  8
_1-0_
  6
CONTINUOUS
 62
    3
 10
337.74053625158365
 20
185.99196562895904
 40
46.274049088761615
 50
233.73811340332031
 51
298.51937866210937
  0
ARC
  8
_1-0_
  6
CONTINUOUS
 62
    3
 10
307.93262378589526
 20
141.67720072978253
 40
4.6263270764737516
 50
47.123046875000007
 51
126.50717163085939
  0
ARC
  8
_1-0_
  6
CONTINUOUS
 62
    3
 10
338.04746060758026
 20
185.43134122281461
 40
48.543530025997683
 50
236.25315856933597
 51
299.03501892089844
  0
ARC
  8
_1-0_
  6
CONTINUOUS
 62
    3
 10
361.11934352565459
 20
146.60362862251901
 40
3.0627306731971538
 50
42.6905517578125
 51
126.92074584960937
  0
ARC
  8
_1-0_
  6
CONTINUOUS
 62
    3
 10
360.93262543549412
 20
141.67720072978253
 40
4.6263270764737516
 50
47.123046875000007
 51
126.50717163085939
  0
ARC
  8
_1-0_
  6
CONTINUOUS
 62
    3
 10
306.17849813925255
 20
146.14047076251057
 40
1.0402513194728542
 50
309.08184814453125
 51
1.6144714355468908
  0
ARC
  8
_1-0_
  6
CONTINUOUS
 62
    3
 10
391.04746225717906
 20
185.43134122281461
 40
48.543530025997683
 50
236.25315856933597
 51
240.35987854003909
  0
ARC
  8
_1-0_
  6
CONTINUOUS
 62
    3
 10
390.74053790118245
 20
185.99196562895904
 40
46.274049088761615
 50
233.73811340332031
 51
239.19131469726562
  0
ARC
  8
_1-0_
  6
CONTINUOUS
 62
    3
 10
178.74049418681378
 20
185.99196562895904
 40
46.274049088761615
 50
249.17173767089847
 51
298.51937866210937
  0
ARC
  8
_1-0_
  6
CONTINUOUS
 62
    3
 10
178.74049418681378
 20
185.99196562895904
 40
46.274049088761615
 50
233.73811340332031
 51
248.77871704101562
  0
ARC
  8
_1-0_
  6
CONTINUOUS
 62
    3
 10
178.74049418681378
 20
185.99196562895904
 40
46.274049088761615
 50
248.77871704101562
 51
249.17173767089841
  0
CIRCLE
  8
_1-2_
  6
CONTINUOUS
 62
    7
 10
157.06667101061024
 20
148.45655699033995
 40
0.2324253240147152
  0
CIRCLE
  8
_1-2_
  6
CONTINUOUS
 62
    7
 10
155.25880143449115
 20
147.63478459538641
 40
0.2324253240147152
  0
CIRCLE
  8
_1-2_
  6
CONTINUOUS
 62
    7
 10
154.10832997914909
 20
149.77137797587628
 40
0.2324253240147152
  0
CIRCLE
  8
_1-2_
  6
CONTINUOUS
 62
    7
 10
156.4092728898332
 20
148.94960558092274
 40
0.2324253240147152
  0
CIRCLE
  8
_1-2_
  6
CONTINUOUS
 62
    7
 10
154.60137856973185
 20
148.45655699033995
 40
0.2324253240147152
  0
CIRCLE
  8
_1-2_
  6
CONTINUOUS
 62
    7
 10
158.6637713458087
 20
145.12586851377745
 40
0.2324253240147152
  0
CIRCLE
  8
_1-2_
  6
CONTINUOUS
 62
    7
 10
157.51329989046664
 20
147.26246189426732
 40
0.2324253240147152
  0
CIRCLE
  8
_1-2_
  6
CONTINUOUS
 62
    7
 10
159.81424280115078
 20
146.44068949931378
 40
0.2324253240147152
  0
CIRCLE
  8
_1-2_
  6
CONTINUOUS
 62
    7
 10
158.00634848104943
 20
145.94764090873102
 40
0.2324253240147152
  0
CIRCLE
  8
_1-2_
  6
CONTINUOUS
 62
    7
 10
143.61025011217274
 20
149.5164778425887
 40
0.2324253240147152
  0
CIRCLE
  8
_1-2_
  6
CONTINUOUS
 62
    7
 10
146.3141611460093
 20
140.30256116712417
 40
0.2324253240147152
  0
CIRCLE
  8
_1-2_
  6
CONTINUOUS
 62
    7
 10
144.50629156989021
 20
139.48078877217063
 40
0.2324253240147152
  0
CIRCLE
  8
_1-2_
  6
CONTINUOUS
 62
    7
 10
143.35582011454815
 20
141.61738215266047
 40
0.2324253240147152
  0
CIRCLE
  8
_1-2_
  6
CONTINUOUS
 62
    7
 10
145.65676302523227
 20
140.79560975770693
 40
0.2324253240147152
  0
CIRCLE
  8
_1-2_
  6
CONTINUOUS
 62
    7
 10
143.84886870513091
 20
140.30256116712417
 40
0.2324253240147152
  0
ARC
  8
_1-0_
  6
CONTINUOUS
 62
    3
 10
145.52289808118667
 20
113.24728063634925
 40
41.612016832506335
 50
60.485351562499993
 51
90
  0
ARC
  8
_1-0_
  6
CONTINUOUS
 62
    3
 10
145.52289808118667
 20
98.291281622809336
 40
60.168024011560391
 50
70.079711914062528
 51
90.000000000000028
  0
ARC
  8
_1-0_
  6
CONTINUOUS
 62
    3
 10
143.30267004064612
 20
120.18541903109164
 40
41.612016832506335
 50
60.485351562499993
 51
90
  0
ARC
  8
_1-0_
  6
CONTINUOUS
 62
    3
 10
143.30267004064612
 20
105.22941383155617
 40
60.168024011560391
 50
70.079711914062528
 51
90.000000000000028
  0
ARC
  8
_1-1_
  6
CONTINUOUS
 62
    5
 10
164.35888341955237
 20
156.71013497017526
 40
2.2994091704085067
 50
165.33238220214841
 51
194.86663818359372
  0
CIRCLE
  8
_1-2_
  6
CONTINUOUS
 62
    7
 10
156.34326831714529
 20
149.71209139437289
 40
0.2324253240147152
  0
CIRCLE
  8
_1-2_
  6
CONTINUOUS
 62
    7
 10
151.9057320259713
 20
150.36950188714107
 40
0.2324253240147152
  0
CIRCLE
  8
_1-2_
  6
CONTINUOUS
 62
    7
 10
150.26218723606419
 20
150.36950188714107
 40
0.2324253240147152
  0
CIRCLE
  8
_1-2_
  6
CONTINUOUS
 62
    7
 10
158.31551216744089
 20
149.54774186417865
 40
0.2324253240147152
  0
CIRCLE
  8
_1-2_
  6
CONTINUOUS
 62
    7
 10
152.89182920713682
 20
152.50610763962206
 40
0.2324253240147152
  0
CIRCLE
  8
_1-2_
  6
CONTINUOUS
 62
    7
 10
149.11171578072214
 20
153.32786766258448
 40
0.2324253240147152
  0
CIRCLE
  8
_1-2_
  6
CONTINUOUS
 62
    7
 10
154.37102446684966
 20
152.34174573743667
 40
0.2324253240147152
  0
CIRCLE
  8
_1-2_
  6
CONTINUOUS
 62
    7
 10
147.30382146062078
 20
150.2051523569468
 40
0.2324253240147152
  0
CIRCLE
  8
_1-2_
  6
CONTINUOUS
 62
    7
 10
145.00287854993667
 20
151.84868477486276
 40
0.2324253240147152
  0
CIRCLE
  8
_1-2_
  6
CONTINUOUS
 62
    7
 10
145.33157761032518
 20
152.34174573743667
 40
0.2324253240147152
  0
CIRCLE
  8
_1-2_
  6
CONTINUOUS
 62
    7
 10
143.85240709459461
 20
153.16351813239021
 40
0.2324253240147152
  0
CIRCLE
  8
_1-2_
  6
CONTINUOUS
 62
    7
 10
143.35933376002956
 20
154.80705055030617
 40
0.2324253240147152
  0
CIRCLE
  8
_1-2_
  6
CONTINUOUS
 62
    7
 10
156.83631690772805
 20
158.91588778109164
 40
0.2324253240147152
  0
CIRCLE
  8
_1-2_
  6
CONTINUOUS
 62
    7
 10
158.80856075802365
 20
158.25847728832349
 40
0.2324253240147152
  0
CIRCLE
  8
_1-2_
  6
CONTINUOUS
 62
    7
 10
160.45210554793076
 20
157.60106679555534
 40
0.2324253240147152
  0
CIRCLE
  8
_1-2_
  6
CONTINUOUS
 62
    7
 10
155.35717113597974
 20
158.0941153861381
 40
0.2324253240147152
  0
CIRCLE
  8
_1-2_
  6
CONTINUOUS
 62
    7
 10
152.07008155616555
 20
158.91588778109164
 40
0.2324253240147152
  0
CIRCLE
  8
_1-2_
  6
CONTINUOUS
 62
    7
 10
153.87795113228464
 20
159.90200970623945
 40
0.2324253240147152
  0
CIRCLE
  8
_1-2_
  6
CONTINUOUS
 62
    7
 10
154.37102446684966
 20
159.40894874366555
 40
0.2324253240147152
  0
CIRCLE
  8
_1-2_
  6
CONTINUOUS
 62
    7
 10
153.05620348131336
 20
158.91588778109164
 40
0.2324253240147152
  0
CIRCLE
  8
_1-2_
  6
CONTINUOUS
 62
    7
 10
150.26218723606419
 20
160.23072113861909
 40
0.2324253240147152
  0
CIRCLE
  8
_1-2_
  6
CONTINUOUS
 62
    7
 10
148.94734150654563
 20
160.0663592364337
 40
0.2324253240147152
  0
CIRCLE
  8
_1-2_
  6
CONTINUOUS
 62
    7
 10
147.6325205210093
 20
159.57331064585094
 40
0.2324253240147152
  0
CIRCLE
  8
_1-2_
  6
CONTINUOUS
 62
    7
 10
145.98900047508448
 20
159.73766017604518
 40
0.2324253240147152
  0
CIRCLE
  8
_1-2_
  6
CONTINUOUS
 62
    7
 10
144.83850427576013
 20
160.5594201990076
 40
0.2324253240147152
  0
CIRCLE
  8
_1-2_
  6
CONTINUOUS
 62
    7
 10
141.05839084934544
 20
162.36731451910896
 40
0.2324253240147152
  0
CIRCLE
  8
_1-2_
  6
CONTINUOUS
 62
    7
 10
142.2088623046875
 20
162.36731451910896
 40
0.2324253240147152
  0
CIRCLE
  8
_1-2_
  6
CONTINUOUS
 62
    7
 10
142.2088623046875
 20
162.53166404930323
 40
0.2324253240147152
  0
CIRCLE
  8
_1-2_
  6
CONTINUOUS
 62
    7
 10
141.88016324429898
 20
163.35343644425677
 40
0.2324253240147152
  0
CIRCLE
  8
_1-2_
  6
CONTINUOUS
 62
    7
 10
144.50980521537164
 20
159.40894874366555
 40
0.2324253240147152
  0
CIRCLE
  8
_1-2_
  6
CONTINUOUS
 62
    7
 10
144.83850427576013
 20
158.0941153861381
 40
0.2324253240147152
  0
CIRCLE
  8
_1-2_
  6
CONTINUOUS
 62
    7
 10
148.45429291596284
 20
151.68433524466852
 40
0.2324253240147152
  0
CIRCLE
  8
_1-2_
  6
CONTINUOUS
 62
    7
 10
151.08395963101773
 20
151.68433524466852
 40
0.2324253240147152
  0
CIRCLE
  8
_1-2_
  6
CONTINUOUS
 62
    7
 10
157.00066643792232
 20
152.50610763962206
 40
0.2324253240147152
  0
CIRCLE
  8
_1-2_
  6
CONTINUOUS
 62
    7
 10
154.86407305743245
 20
151.35562381228885
 40
0.2324253240147152
  0
CIRCLE
  8
_1-2_
  6
CONTINUOUS
 62
    7
 10
155.85017023859797
 20
150.6982133195207
 40
0.2324253240147152
  0
CIRCLE
  8
_1-2_
  6
CONTINUOUS
 62
    7
 10
152.23443108635982
 20
148.89031899941935
 40
0.2324253240147152
  0
CIRCLE
  8
_1-2_
  6
CONTINUOUS
 62
    7
 10
154.20667493665542
 20
149.21903043179898
 40
0.2324253240147152
  0
CIRCLE
  8
_1-2_
  6
CONTINUOUS
 62
    7
 10
149.93348817567568
 20
153.82092862515836
 40
0.2324253240147152
  0
CIRCLE
  8
_1-2_
  6
CONTINUOUS
 62
    7
 10
152.23443108635982
 20
152.99915623020482
 40
0.2324253240147152
  0
CIRCLE
  8
_1-2_
  6
CONTINUOUS
 62
    7
 10
145.82465094489021
 20
150.6982133195207
 40
0.2324253240147152
  0
CIRCLE
  8
_1-2_
  6
CONTINUOUS
 62
    7
 10
145.82465094489021
 20
151.84868477486276
 40
0.2324253240147152
  0
CIRCLE
  8
_1-2_
  6
CONTINUOUS
 62
    7
 10
146.15335000527872
 20
152.99915623020482
 40
0.2324253240147152
  0
CIRCLE
  8
_1-2_
  6
CONTINUOUS
 62
    7
 10
146.48204906566724
 20
153.32786766258448
 40
0.2324253240147152
  0
CIRCLE
  8
_1-2_
  6
CONTINUOUS
 62
    7
 10
147.46817099081505
 20
153.32786766258448
 40
0.2324253240147152
  0
CIRCLE
  8
_1-2_
  6
CONTINUOUS
 62
    7
 10
148.78299197635135
 20
151.68433524466852
 40
0.2324253240147152
  0
CIRCLE
  8
_1-2_
  6
CONTINUOUS
 62
    7
 10
150.42653676625847
 20
152.50610763962206
 40
0.2324253240147152
  0
CIRCLE
  8
_1-2_
  6
CONTINUOUS
 62
    7
 10
153.71360160209039
 20
149.38337996199326
 40
0.2324253240147152
  0
CIRCLE
  8
_1-2_
  6
CONTINUOUS
 62
    7
 10
158.97291028821792
 20
150.36950188714107
 40
0.2324253240147152
  0
CIRCLE
  8
_1-2_
  6
CONTINUOUS
 62
    7
 10
158.97291028821792
 20
150.6982133195207
 40
0.2324253240147152
  0
CIRCLE
  8
_1-2_
  6
CONTINUOUS
 62
    7
 10
143.99329932960305
 20
150.83439182590794
 40
0.2324253240147152
  0
CIRCLE
  8
_1-2_
  6
CONTINUOUS
 62
    7
 10
145.41811968829182
 20
148.91630018079604
 40
0.2324253240147152
  0
CIRCLE
  8
_1-2_
  6
CONTINUOUS
 62
    7
 10
142.45977865683068
 20
150.23112116633234
 40
0.2324253240147152
  0
CIRCLE
  8
_1-2_
  6
CONTINUOUS
 62
    7
 10
144.76072156751479
 20
149.4093487713788
 40
0.2324253240147152
  0
CIRCLE
  8
_1-2_
  6
CONTINUOUS
 62
    7
 10
142.95282724741344
 20
148.91630018079604
 40
0.2324253240147152
  0
CIRCLE
  8
_1-2_
  6
CONTINUOUS
 62
    7
 10
145.14930106498102
 20
154.38215925886826
 40
0.2324253240147152
  0
CIRCLE
  8
_1-2_
  6
CONTINUOUS
 62
    7
 10
143.34143148886193
 20
153.56038686391472
 40
0.2324253240147152
  0
CIRCLE
  8
_1-2_
  6
CONTINUOUS
 62
    7
 10
142.19096003351984
 20
155.69698024440456
 40
0.2324253240147152
  0
CIRCLE
  8
_1-2_
  6
CONTINUOUS
 62
    7
 10
144.49190294420399
 20
154.87520784945102
 40
0.2324253240147152
  0
CIRCLE
  8
_1-2_
  6
CONTINUOUS
 62
    7
 10
142.68400862410263
 20
154.38215925886826
 40
0.2324253240147152
  0
ARC
  8
_1-1_
  6
CONTINUOUS
 62
    5
 10
179.37956938872466
 20
149.89409575591216
 40
19.372094644082559
 50
173.1478576660156
 51
200.32382202148435
  0
TEXT
  8
_0-0_
 62
    7
 10
141.89189395389042
 20
14.594594594594582
 40
2.5
 41
1
 50
0
  1
縮尺
  0
TEXT
  8
_0-0_
 62
    7
 10
377.10214563318203
 20
22.865493362014362
 40
2.5
 41
1
 50
0
  1
ＮＯ
  0
TEXT
  8
_0-0_
 62
    7
 10
14.594594336844779
 20
24.324324324324323
 40
2.5
 41
1
 50
0
  1
和形
  0
TEXT
  8
_0-0_
 62
    7
 10
383.23801896378802
 20
18.523427086907475
 40
3
 41
1
 50
0
  1
Ｊ
  0
TEXT
  8
_1-0_
 62
    7
 10
169.90681828679266
 20
13.3181144095756
 40
2.5
 41
1
 50
0
  1
1/5
  0
TEXT
  8
_1-3_
 62
    7
 10
39.721904445338907
 20
15.395235628695104
 40
2.5
 41
1
 50
0
  1
壁際　　2
  0
TEXT
  8
_1-2_
 62
    7
 10
25.556194717819636
 20
20.211577544341225
 40
2.5
 41
1
 50
0
  1
鉄骨
  0
TEXT
  8
_1-3_
 62
    7
 10
289.37752801018792
 20
197.21641746727198
 40
2.5
 41
1
 50
0
  1
桟瓦
  0
TEXT
  8
_1-3_
 62
    7
 10
289.37752801018792
 20
191.21642241606841
 40
2.5
 41
1
 50
0
  1
瓦桟
  0
TEXT
  8
_1-3_
 62
    7
 10
289.37752801018792
 20
185.21642736486487
 40
2.5
 41
1
 50
0
  1
流桟
  0
TEXT
  8
_1-3_
 62
    7
 10
160.86191125818203
 20
226.320140941723
 40
2.5
 41
1
 50
0
  1
外壁
  0
TEXT
  8
_1-3_
 62
    7
 10
172.72120295344172
 20
201.92221564215583
 40
2.5
 41
1
 50
0
  1
雨押え板
  0
TEXT
  8
_1-3_
 62
    7
 10
162.74809966216216
 20
201.64808943464951
 40
2.5
 41
1
 50
0
  1
15ｘ90
  0
TEXT
  8
_1-3_
 62
    7
 10
169.48241775100297
 20
189.01361413904141
 40
2.5
 41
1
 50
0
  1
水切り鉄板
  0
TEXT
  8
_1-3_
 62
    7
 10
173.87665619721284
 20
178.51377744932432
 40
2.5
 41
1
 50
0
  1
割のし
  0
TEXT
  8
_1-3_
 62
    7
 10
179.65535756703969
 20
164.58128233213682
 40
2.5
 41
1
 50
0
  1
面土漆喰
  0
TEXT
  8
_1-3_
 62
    7
 10
185.97097860800255
 20
72.245122548696159
 40
2.5
 41
1
 50
0
  1
捨谷
  0
TEXT
  8
_1-1_
 62
    7
 10
289.18657869906042
 20
172.94922699799409
 40
2.5
 41
1
 50
0
  1
硬質木片セメント板　　ｔ＝18
  0
TEXT
  8
_1-1_
 62
    7
 10
64.034740344898125
 20
183.42950356973185
 40
2.5
 41
1
 50
0
  1
水切り鉄板立上がり寸法
  0
TEXT
  8
_1-1_
 62
    7
 10
87.160823925121406
 20
149.30037627349029
 40
2.5
 41
1
 50
0
  1
下葺き材立上がり寸法
  0
TEXT
  8
_1-1_
 62
    7
 10
184.11004556191938
 20
161.2461399387669
 40
2.5
 41
1
 50
0
  1
及び葺き土
  0
TEXT
  8
_1-3_
 62
    7
 10
97.431075637404987
 20
206.55824609704922
 40
2.5
 41
1
 50
90
  1
50
  0
TEXT
  8
_1-3_
 62
    7
 10
29.528907878978828
 20
209.32686470650339
 40
3
 41
1
 50
0
  1
下葺き材立上げ長さは、300ｍｍ以上かつ
  0
TEXT
  8
_1-3_
 62
    7
 10
29.915534045245209
 20
203.6797807023332
 40
3
 41
1
 50
0
  1
雨押え板上端より50mm以上とする
  0
TEXT
  8
_1-3_
 62
    7
 10
113.75637569942991
 20
158.45754262563347
 40
2.5
 41
1
 50
90
  1
300　以上
  0
TEXT
  8
_1-2_
 62
    7
 10
392.80654082427156
 20
16.00725483249974
 40
2.5
 41
1
 50
0
  1
37
  0
TEXT
  8
_1-1_
 62
    7
 10
289.18658282305745
 20
178.92074172561234
 40
2.5
 41
1
 50
0
  1
下葺き材　　アスファルトルーフィング９４０
  0
TEXT
  8
_1-1_
 62
    7
 10
299.60970904376057
 20
191.21642241606841
 40
2.5
 41
1
 50
0
  1
１５×２１以上　（防腐処理）
  0
TEXT
  8
_1-3_
 62
    7
 10
300.54270976298568
 20
188.26966156830659
 40
2.5
 41
1
 50
0
  1
※　地域により瓦桟木の大きさは、異なります
  0
TEXT
  8
_1-0_
 62
    7
 10
97.431075637404987
 20
185.26263675174198
 40
2.5
 41
1
 50
90
  1
150
  0
POINT
  8
_1-3_
 62
    7
 10
97.931071101008243
 20
212.80824403505068
  0
POINT
  8
_1-3_
 62
    7
 10
97.931071101008243
 20
202.80824815904774
  0
POINT
  8
_1-3_
 62
    7
 10
114.56460076409418
 20
212.80824403505068
  0
POINT
  8
_1-3_
 62
    7
 10
114.56460076409418
 20
131.99859206740922
  0
POINT
  8
_1-0_
 62
    7
 10
97.931071101008243
 20
202.80824815904774
  0
POINT
  8
_1-0_
 62
    7
 10
97.931071101008243
 20
171.46702534443625
  0
ENDSEC
  0
EOF
