  0
SECTION
  2
HEADER
  9
$ACADVER
  1
AC1009
  9
$INSBASE
 10
0
 20
0
 30
0
  9
$EXTMIN
 10
0
 20
0
  9
$EXTMAX
 10
420
 20
297
  9
$LIMMIN
 10
0
 20
0
  9
$LIMMAX
 10
420
 20
297
  9
$LTSCALE
 40
1
  0
ENDSEC
  0
SECTION
  2
TABLES
  0
TABLE
  2
LTYPE
 70
     9
  0
LTYPE
  2
CONTINUOUS
 70
    64
  3
実線
 72
    65
 73
     0
 40
0.0
  0
LTYPE
  2
DASHED1
 70
    64
  3
--  --  --  --  --  --  --  --  
 72
    65
 73
     2
 40
2.5
 49
1.25
 49
-1.25
  0
LTYPE
  2
DASHED2
 70
    64
  3
----    ----    ----    ----    
 72
    65
 73
     2
 40
5.0
 49
2.5
 49
-2.5
  0
LTYPE
  2
DASHED3
 70
    64
  3
------  ------  ------  ------  
 72
    65
 73
     2
 40
5.0
 49
3.75
 49
-1.25
  0
LTYPE
  2
CENTER1
 70
    64
  3
----- - ----- - ----- - ----- - 
 72
    65
 73
     4
 40
10.0
 49
6.25
 49
-1.25
 49
1.25
 49
-1.25
  0
LTYPE
  2
CENTER2
 70
    64
  3
----------  --  ----------  --  
 72
    65
 73
     4
 40
20.0
 49
12.5
 49
-2.5
 49
2.5
 49
-2.5
  0
LTYPE
  2
PHANTOM1
 70
    64
  3
--- - - --- - - --- - - --- - - 
 72
    65
 73
     6
 40
10.0
 49
3.25
 49
-1.25
 49
1.25
 49
-1.25
 49
1.25
 49
-1.25
  0
LTYPE
  2
PHANTOM2
 70
    64
  3
--------  -  -  --------  -  -  
 72
    65
 73
     6
 40
20.0
 49
10.0
 49
-2.5
 49
1.25
 49
-2.5
 49
1.25
 49
-2.5
  0
LTYPE
  2
DOT
 70
    64
  3
-   -   -   -   -   -   -   -   
 72
    65
 73
     2
 40
2.5
 49
0.625
 49
-1.875
  0
LTYPE
  2
DUMMY
 70
    64
  3
ダミー
 72
    65
 73
     0
 40
0.0
  0
LTYPE
  2
RAND1
 70
    64
  3
ランダム線1
 72
    65
 73
     4
 40
10.0
 49
1.0
 49
-2.0
 49
3.0
 49
-4.0
  0
LTYPE
  2
RAND2
 70
    64
  3
ランダム線2
 72
    65
 73
     4
 40
14.0
 49
2.0
 49
-3.0
 49
4.0
 49
-5.0
  0
LTYPE
  2
RAND3
 70
    64
  3
ランダム線3
 72
    65
 73
     4
 40
18.0
 49
3.0
 49
-4.0
 49
5.0
 49
-6.0
  0
LTYPE
  2
RAND4
 70
    64
  3
ランダム線4
 72
    65
 73
     4
 40
22.0
 49
4.0
 49
-5.0
 49
6.0
 49
-7.0
  0
LTYPE
  2
RAND5
 70
    64
  3
ランダム線5
 72
    65
 73
     4
 40
26.0
 49
5.0
 49
-6.0
 49
7.0
 49
-8.0
  0
LTYPE
  2
LONG1
 70
    64
  3
----------  --  ----------  --  
 72
    65
 73
     4
 40
40.0
 49
32.5
 49
-2.5
 49
2.5
 49
-2.5
  0
LTYPE
  2
LONG2
 70
    64
  3
--------  -  -  --------  -  -  
 72
    65
 73
     6
 40
40.0
 49
30.0
 49
-2.5
 49
1.25
 49
-2.5
 49
1.25
 49
-2.5
  0
LTYPE
  2
LONG3
 70
    64
  3
+++++++++++++++..+++++++++++++++
 72
    65
 73
     2
 40
40.0
 49
37.5
 49
-2.5
  0
LTYPE
  2
LONG4
 70
    64
  3
+++++++++++++++..+++++++++++++++
 72
    65
 73
     2
 40
80.0
 49
75.0
 49
-5.0
  0
LTYPE
  2
LONG5
 70
    64
  3
----------  --  ----------  --  
 72
    65
 73
     4
 40
60.0
 49
37.5
 49
-7.5
 49
7.5
 49
-7.5
  0
LTYPE
  2
dashed
 70
   64
  3
-------   -------------   ------
 72
   65
 73
    2
 40
7.5
 49
6
 49
-1.5
  0
LTYPE
  2
dashed_spaced
 70
   64
  3
----        --------        ----
 72
   65
 73
    2
 40
12
 49
6
 49
-6
  0
LTYPE
  2
long_dashed_dotted
 70
   64
  3
------------- --- --------------
 72
   65
 73
    4
 40
15.25
 49
12
 49
-1.5
 49
0.25
 49
-1.5
  0
LTYPE
  2
long_dashed_double-dotted
 70
   64
  3
----------- --- --- ------------
 72
   65
 73
    6
 40
17
 49
12
 49
-1.5
 49
0.25
 49
-1.5
 49
0.25
 49
-1.5
  0
LTYPE
  2
long_dashed_triplicate-dotted
 70
   64
  3
--------- --- --- --- ----------
 72
   65
 73
    8
 40
18.75
 49
12
 49
-1.5
 49
0.25
 49
-1.5
 49
0.25
 49
-1.5
 49
0.25
 49
-1.5
  0
LTYPE
  2
dotted
 70
   64
  3
   -       -       -       -    
 72
   65
 73
    2
 40
1.75
 49
0.25
 49
-1.5
  0
LTYPE
  2
chain
 70
   64
  3
-------------- -- --------------
 72
   65
 73
    4
 40
18.5
 49
12
 49
-1.5
 49
3.5
 49
-1.5
  0
LTYPE
  2
chain_double_dash
 70
   64
  3
------------ -- -- -------------
 72
   65
 73
    6
 40
23.5
 49
12
 49
-1.5
 49
3.5
 49
-1.5
 49
3.5
 49
-1.5
  0
LTYPE
  2
dashed_dotted
 70
   64
  3
-----------     -     ----------
 72
   65
 73
    4
 40
9.25
 49
6
 49
-1.5
 49
0.25
 49
-1.5
  0
LTYPE
  2
double-dashed_dotted
 70
   64
  3
------   -----------   -   -----
 72
   65
 73
    6
 40
16.75
 49
6
 49
-1.5
 49
6
 49
-1.5
 49
0.25
 49
-1.5
  0
LTYPE
  2
dashed_double-dotted
 70
   64
  3
---------    -    -    ---------
 72
   65
 73
    6
 40
11
 49
6
 49
-1.5
 49
0.25
 49
-1.5
 49
0.25
 49
-1.5
  0
LTYPE
  2
double-dashed_double-dotted
 70
   64
  3
-----   ---------   -   -   ----
 72
   65
 73
    8
 40
18.5
 49
6
 49
-1.5
 49
6
 49
-1.5
 49
0.25
 49
-1.5
 49
0.25
 49
-1.5
  0
LTYPE
  2
dashed_triplicate-dotted
 70
   64
  3
-------    -    -    -    ------
 72
   65
 73
    8
 40
12.75
 49
6
 49
-1.5
 49
0.25
 49
-1.5
 49
0.25
 49
-1.5
 49
0.25
 49
-1.5
  0
LTYPE
  2
double-dashed_triplicate-dotted
 70
   64
  3
-----  ---------  -  -  -  -----
 72
   65
 73
   10
 40
20.25
 49
6
 49
-1.5
 49
6
 49
-1.5
 49
0.25
 49
-1.5
 49
0.25
 49
-1.5
 49
0.25
 49
-1.5
  0
LTYPE
  2
undefined
 70
   64
  3
--------------------------------
 72
   65
 73
    0
 40
0
  0
ENDTAB
  0
TABLE
  2
STYLE
  5
3
100
AcDbSymbolTable
 70
     1
  0
STYLE
  5
10
100
AcDbSymbolTableRecord
100
AcDbTextStyleTableRecord
  2
STANDARD
 70
     0
 40
0.0
 41
1.0
 50
0.0
 71
     0
 42
0.2
  3
txt
  4
bigfont.shx
  0
STYLE
  5
26
100
AcDbSymbolTableRecord
100
AcDbTextStyleTableRecord
  2
TATEGAKI
 70
    68
 40
0.0
 41
1.0
 50
0.0
 71
     0
 42
1.0
  3
txt
  4
bigfont.shx
  0
ENDTAB
  0
TABLE
  2
LAYER
 70
    9
  0
LAYER
  2
_0-0_
 70
   64
 62
    7
  6
CONTINUOUS
  0
LAYER
  2
_1-0_
 70
   64
 62
    7
  6
CONTINUOUS
  0
LAYER
  2
_1-1_
 70
   64
 62
    7
  6
CONTINUOUS
  0
LAYER
  2
_1-2_
 70
   64
 62
    7
  6
CONTINUOUS
  0
LAYER
  2
_1-3_
 70
   64
 62
    7
  6
CONTINUOUS
  0
LAYER
  2
_1-4_
 70
   64
 62
    7
  6
CONTINUOUS
  0
LAYER
  2
_1-5_
 70
   64
 62
    7
  6
CONTINUOUS
  0
LAYER
  2
_1-6_
 70
   64
 62
    7
  6
CONTINUOUS
  0
LAYER
  2
ADD_LINE
 70
   64
 62
    7
  6
CONTINUOUS
  0
ENDTAB
  0
ENDSEC
  0
SECTION
  2
BLOCKS
  0
ENDSEC
  0
SECTION
  2
ENTITIES
  0
LINE
  8
_1-4_
  6
CONTINUOUS
 62
    7
 10
163.99290754988388
 20
161.44014513170399
 11
181.99291744747677
 21
169.54014958562078
  0
LINE
  8
_0-0_
  6
CONTINUOUS
 62
    5
 10
6.7567526327597136
 20
280.13513513513516
 11
406.75677325274495
 21
280.13513513513516
  0
LINE
  8
_0-0_
  6
CONTINUOUS
 62
    5
 10
406.75677325274495
 20
10.13513513513513
 11
6.7567526327597136
 21
10.13513513513513
  0
LINE
  8
_0-0_
  6
CONTINUOUS
 62
    5
 10
406.75677325274495
 20
30.135133073136615
 11
6.7567402607685949
 21
30.135133073136615
  0
LINE
  8
_0-0_
  6
CONTINUOUS
 62
    5
 10
371.75678150073907
 20
10.13513513513513
 11
371.75678150073907
 21
30.135133073136615
  0
LINE
  8
_0-0_
  6
CONTINUOUS
 62
    5
 10
137.02703939901818
 20
30.135133073136615
 11
137.02703939901818
 21
10.13513513513513
  0
LINE
  8
_0-0_
  6
CONTINUOUS
 62
    5
 10
214.86486486486487
 20
30.135133073136615
 11
214.86486486486487
 21
10.13513513513513
  0
LINE
  8
_0-0_
  6
CONTINUOUS
 62
    5
 10
137.02703939901818
 20
20.135134104135886
 11
214.86486486486487
 21
20.135134104135886
  0
LINE
  8
_0-0_
  6
CONTINUOUS
 62
    5
 10
396.48648648648651
 20
25.945945945945951
 11
383.91891891891896
 21
13.378379924877265
  0
LINE
  8
_1-2_
  6
CONTINUOUS
 62
    3
 10
157.9189156197213
 20
185.49633129222974
 11
158.38955853436445
 21
180.11687820022172
  0
LINE
  8
_1-2_
  6
CONTINUOUS
 62
    3
 10
178.02713755014781
 20
190.86932620486698
 11
178.34090361724029
 21
187.28302001953125
  0
LINE
  8
_1-2_
  6
CONTINUOUS
 62
    3
 10
156.98631492820948
 20
179.38133858345651
 11
157.45695784285263
 21
174.00187311945737
  0
LINE
  8
_1-2_
  6
CONTINUOUS
 62
    3
 10
177.09453685863599
 20
184.75433349609375
 11
177.40830292572846
 21
181.16802731075802
  0
LINE
  8
_1-2_
  6
CONTINUOUS
 62
    3
 10
166.99290507548565
 20
194.98421333931589
 11
170.14385326488599
 21
195.58420542124156
  0
LINE
  8
_1-2_
  6
CONTINUOUS
 62
    3
 10
193.84195688608531
 20
195.58420542124156
 11
196.99290507548565
 21
194.98421333931589
  0
LINE
  8
_1-3_
  6
CONTINUOUS
 62
    7
 10
199.78325921135982
 20
186.75024496542443
 11
209.48906151024073
 21
203.56118279534419
  0
LINE
  8
_1-3_
  6
CONTINUOUS
 62
    7
 10
209.48906151024073
 20
203.56118279534419
 11
201.22486836201438
 21
179.54221158414273
  0
LINE
  8
_1-3_
  6
CONTINUOUS
 62
    7
 10
207.99573743665542
 20
222.10891311233109
 11
212.21656593116555
 21
222.10891311233109
  0
LINE
  8
_1-3_
  6
CONTINUOUS
 62
    7
 10
209.48906151024073
 20
203.56118279534419
 11
213.81643759237755
 21
203.56118279534419
  0
LINE
  8
_1-2_
  6
CONTINUOUS
 62
    3
 10
158.98648236248945
 20
191.67242926520271
 11
159.4571252771326
 21
186.29297617319469
  0
LINE
  8
_1-2_
  6
CONTINUOUS
 62
    3
 10
179.09470429291596
 20
197.04542417783995
 11
179.40847036000847
 21
193.45911799250425
  0
LINE
  8
_1-2_
  6
CONTINUOUS
 62
    3
 10
206.06689453125
 20
185.49633129222974
 11
205.59625161660685
 21
180.11687820022172
  0
LINE
  8
_1-2_
  6
CONTINUOUS
 62
    3
 10
185.95867260082349
 20
190.86932620486698
 11
185.64490653373102
 21
187.28302001953125
  0
LINE
  8
_1-2_
  6
CONTINUOUS
 62
    3
 10
206.99949522276182
 20
179.38133858345651
 11
206.52885230811867
 21
174.00187311945737
  0
LINE
  8
_1-2_
  6
CONTINUOUS
 62
    3
 10
186.89127329233531
 20
184.75433349609375
 11
186.57750722524284
 21
181.16802731075802
  0
LINE
  8
ADD_LINE
  6
DOT
 62
    3
 10
204.42576227961362
 20
175.13076782226562
 11
209.24713959565034
 21
174.70894478462839
  0
LINE
  8
ADD_LINE
  6
DOT
 62
    3
 10
204.42576227961362
 20
175.13076782226562
 11
208.63165778082771
 21
174.76280006202492
  0
LINE
  8
_1-2_
  6
CONTINUOUS
 62
    3
 10
204.99932778848185
 20
191.67242926520271
 11
204.5286848738387
 21
186.29297617319469
  0
LINE
  8
_1-2_
  6
CONTINUOUS
 62
    3
 10
184.89110585805534
 20
197.04542417783995
 11
184.57733979096284
 21
193.45911799250425
  0
LINE
  8
_1-4_
  6
CONTINUOUS
 62
    7
 10
178.99290754988388
 20
197.63322984850086
 11
178.99290754988388
 21
203.6332248997044
  0
LINE
  8
_1-4_
  6
CONTINUOUS
 62
    7
 10
178.99290754988388
 20
203.6332248997044
 11
184.99290260108742
 21
203.6332248997044
  0
LINE
  8
_1-4_
  6
CONTINUOUS
 62
    7
 10
184.99290260108742
 20
203.6332248997044
 11
184.99290260108742
 21
197.63322984850086
  0
LINE
  8
_1-4_
  6
CONTINUOUS
 62
    7
 10
184.99290260108742
 20
197.63322984850086
 11
178.99290754988388
 21
197.63322984850086
  0
LINE
  8
_1-4_
  6
CONTINUOUS
 62
    7
 10
178.39290309596706
 20
197.22567171663852
 11
185.59290705500425
 21
197.22567171663852
  0
LINE
  8
_1-4_
  6
CONTINUOUS
 62
    7
 10
178.39290309596706
 20
197.22567171663852
 11
178.39290309596706
 21
202.21742372255068
  0
LINE
  8
_1-4_
  6
CONTINUOUS
 62
    7
 10
185.59290705500425
 20
202.21742372255068
 11
185.59290705500425
 21
197.22567171663852
  0
LINE
  8
_1-4_
  6
CONTINUOUS
 62
    7
 10
184.99290260108742
 20
202.21742372255068
 11
185.59290705500425
 21
202.21742372255068
  0
LINE
  8
_1-4_
  6
CONTINUOUS
 62
    7
 10
178.99290754988388
 20
203.6332248997044
 11
184.99290260108742
 21
197.63322984850086
  0
LINE
  8
_1-4_
  6
CONTINUOUS
 62
    7
 10
184.99290260108742
 20
203.6332248997044
 11
178.99290754988388
 21
197.63322984850086
  0
LINE
  8
_1-4_
  6
CONTINUOUS
 62
    7
 10
163.99290754988388
 20
161.44014513170399
 11
163.99290754988388
 21
161.00150855811867
  0
LINE
  8
_1-4_
  6
CONTINUOUS
 62
    7
 10
199.99290260108742
 20
161.4401575036951
 11
199.99290260108742
 21
161.00150855811867
  0
LINE
  8
_1-4_
  6
CONTINUOUS
 62
    7
 10
199.9928902290963
 20
161.4401575036951
 11
181.99291744747677
 21
169.54014958562078
  0
LINE
  8
_1-0_
  6
CONTINUOUS
 62
    7
 10
181.99290507548565
 20
169.75943075644005
 11
181.99289270349453
 21
169.75944312843117
  0
LINE
  8
_1-4_
  6
CONTINUOUS
 62
    7
 10
176.99290095148862
 20
176.82996182828336
 11
186.99290919948271
 21
176.82996182828336
  0
LINE
  8
_1-4_
  6
CONTINUOUS
 62
    7
 10
176.99290095148862
 20
176.82996182828336
 11
176.99290095148862
 21
167.29014216242609
  0
LINE
  8
_1-4_
  6
CONTINUOUS
 62
    7
 10
186.99290919948271
 20
176.82996182828336
 11
186.99290919948271
 21
167.29015453441724
  0
LINE
  8
_1-4_
  6
CONTINUOUS
 62
    7
 10
181.29291018924198
 20
197.22567171663852
 11
181.29291018924198
 21
176.82996182828336
  0
LINE
  8
_1-4_
  6
CONTINUOUS
 62
    7
 10
181.29291018924198
 20
176.42996298300255
 11
181.29291018924198
 21
169.22514631941513
  0
LINE
  8
_1-4_
  6
CONTINUOUS
 62
    7
 10
182.69289996172932
 20
197.22567171663852
 11
182.69289996172932
 21
176.82996182828336
  0
LINE
  8
_1-4_
  6
CONTINUOUS
 62
    7
 10
182.69289996172932
 20
176.42996298300255
 11
182.69289996172932
 21
169.22515869140625
  0
LINE
  8
_1-4_
  6
DASHED1
 62
    7
 10
178.39290309596706
 20
200.2332285288218
 11
185.59290705500425
 21
200.2332285288218
  0
LINE
  8
_1-4_
  6
DASHED1
 62
    7
 10
178.39290309596706
 20
201.03322621938347
 11
185.59290705500425
 21
201.03322621938347
  0
LINE
  8
_1-4_
  6
DASHED1
 62
    7
 10
181.48456470386404
 20
201.14156774572425
 11
181.99290507548565
 21
199.733226879223
  0
LINE
  8
_1-4_
  6
DASHED1
 62
    7
 10
181.99290507548565
 20
199.733226879223
 11
182.49290672508448
 21
201.13322902370146
  0
LINE
  8
_1-4_
  6
DASHED1
 62
    7
 10
182.49290672508448
 20
207.58422026763091
 11
182.49290672508448
 21
201.13322902370146
  0
LINE
  8
_1-4_
  6
DASHED1
 62
    7
 10
181.49290342588682
 20
207.58422026763091
 11
181.49290342588682
 21
201.14156774572425
  0
LINE
  8
_1-4_
  6
DASHED1
 62
    7
 10
181.49290342588682
 20
201.14156774572425
 11
182.50124544710727
 21
201.14156774572425
  0
LINE
  8
_1-4_
  6
CONTINUOUS
 62
    7
 10
181.86606742240289
 20
208.53250864389781
 11
182.13256011138091
 21
208.53250864389781
  0
LINE
  8
_1-4_
  6
CONTINUOUS
 62
    7
 10
180.99290177628802
 20
207.99949852195948
 11
182.99290837468328
 21
207.99949852195948
  0
LINE
  8
_1-4_
  6
CONTINUOUS
 62
    7
 10
180.99290177628802
 20
207.55136025918497
 11
180.99290177628802
 21
207.99949852195948
  0
LINE
  8
_1-4_
  6
CONTINUOUS
 62
    7
 10
182.99290837468328
 20
207.55136025918497
 11
182.99290837468328
 21
207.99949852195948
  0
LINE
  8
_1-4_
  6
CONTINUOUS
 62
    7
 10
181.29291018924198
 20
182.08960455817146
 11
182.69289996172932
 21
182.08960455817146
  0
LINE
  8
_1-4_
  6
CONTINUOUS
 62
    7
 10
181.29291018924198
 20
181.68960571289062
 11
182.69289996172932
 21
181.68960571289062
  0
LINE
  8
_1-4_
  6
CONTINUOUS
 62
    7
 10
181.29291018924198
 20
181.28960686760982
 11
182.69289996172932
 21
181.28960686760982
  0
LINE
  8
_1-4_
  6
CONTINUOUS
 62
    7
 10
181.29291018924198
 20
180.88960802232899
 11
182.69289996172932
 21
180.88960802232899
  0
LINE
  8
_1-4_
  6
CONTINUOUS
 62
    7
 10
181.29291018924198
 20
180.48960917704815
 11
182.69289996172932
 21
180.48960917704815
  0
LINE
  8
_1-4_
  6
CONTINUOUS
 62
    7
 10
181.29291018924198
 20
180.08961033176732
 11
182.69289996172932
 21
180.08961033176732
  0
LINE
  8
_1-4_
  6
CONTINUOUS
 62
    7
 10
181.29291018924198
 20
179.68961148648648
 11
182.69289996172932
 21
179.68961148648648
  0
LINE
  8
_1-4_
  6
CONTINUOUS
 62
    7
 10
181.29291018924198
 20
179.28961264120568
 11
182.69289996172932
 21
179.28961264120568
  0
LINE
  8
_1-4_
  6
CONTINUOUS
 62
    7
 10
181.29291018924198
 20
178.88961379592484
 11
182.69289996172932
 21
178.88961379592484
  0
LINE
  8
_1-4_
  6
CONTINUOUS
 62
    7
 10
181.29291018924198
 20
178.48961495064401
 11
182.69289996172932
 21
178.48961495064401
  0
LINE
  8
_1-4_
  6
CONTINUOUS
 62
    7
 10
181.29291018924198
 20
178.08961610536318
 11
182.69289996172932
 21
178.08961610536318
  0
LINE
  8
_1-4_
  6
CONTINUOUS
 62
    7
 10
181.29291018924198
 20
177.68961726008237
 11
182.69289996172932
 21
177.68961726008237
  0
LINE
  8
_1-4_
  6
CONTINUOUS
 62
    7
 10
181.29291018924198
 20
177.28961841480154
 11
182.69289996172932
 21
177.28961841480154
  0
LINE
  8
_1-4_
  6
CONTINUOUS
 62
    7
 10
181.29291018924198
 20
176.8896195695207
 11
182.69289996172932
 21
176.8896195695207
  0
LINE
  8
_1-4_
  6
CONTINUOUS
 62
    7
 10
181.29291018924198
 20
176.02996413772172
 11
182.69289996172932
 21
176.02996413772172
  0
LINE
  8
_1-4_
  6
CONTINUOUS
 62
    7
 10
177.39289979676943
 20
176.42996298300255
 11
186.59291035420188
 21
176.42996298300255
  0
LINE
  8
_1-4_
  6
CONTINUOUS
 62
    7
 10
186.59291035420188
 20
176.42996298300255
 11
186.59291035420188
 21
167.47015463339318
  0
LINE
  8
_1-4_
  6
CONTINUOUS
 62
    7
 10
177.39289979676943
 20
176.42996298300255
 11
177.39289979676943
 21
167.47014226140203
  0
LINE
  8
_1-4_
  6
CONTINUOUS
 62
    7
 10
177.39289979676943
 20
176.42996298300255
 11
186.59291035420188
 21
176.42996298300255
  0
LINE
  8
_1-4_
  6
CONTINUOUS
 62
    7
 10
181.29291018924198
 20
175.62996529244089
 11
182.69289996172932
 21
175.62996529244089
  0
LINE
  8
_1-4_
  6
CONTINUOUS
 62
    7
 10
181.29291018924198
 20
175.22996644716005
 11
182.69289996172932
 21
175.22996644716005
  0
LINE
  8
_1-4_
  6
CONTINUOUS
 62
    7
 10
181.29291018924198
 20
174.82996760187925
 11
182.69289996172932
 21
174.82996760187925
  0
LINE
  8
_1-4_
  6
CONTINUOUS
 62
    7
 10
181.29291018924198
 20
174.42996875659841
 11
182.69289996172932
 21
174.42996875659841
  0
LINE
  8
_1-4_
  6
CONTINUOUS
 62
    7
 10
181.29291018924198
 20
174.02996991131758
 11
182.69289996172932
 21
174.02996991131758
  0
LINE
  8
_1-4_
  6
CONTINUOUS
 62
    7
 10
181.29291018924198
 20
173.62997106603675
 11
182.69289996172932
 21
173.62997106603675
  0
LINE
  8
_1-4_
  6
CONTINUOUS
 62
    7
 10
181.29291018924198
 20
173.22997222075591
 11
182.69289996172932
 21
173.22997222075591
  0
LINE
  8
_1-4_
  6
CONTINUOUS
 62
    7
 10
181.29291018924198
 20
172.82997337547511
 11
182.69289996172932
 21
172.82997337547511
  0
LINE
  8
_1-4_
  6
CONTINUOUS
 62
    7
 10
181.29291018924198
 20
172.42997453019427
 11
182.69289996172932
 21
172.42997453019427
  0
LINE
  8
_1-4_
  6
CONTINUOUS
 62
    7
 10
181.29291018924198
 20
172.02997568491344
 11
182.69289996172932
 21
172.02997568491344
  0
LINE
  8
_1-4_
  6
CONTINUOUS
 62
    7
 10
181.29291018924198
 20
171.6299768396326
 11
182.69289996172932
 21
171.6299768396326
  0
LINE
  8
_1-4_
  6
CONTINUOUS
 62
    7
 10
181.29291018924198
 20
171.22997799435177
 11
182.69289996172932
 21
171.22997799435177
  0
LINE
  8
_1-4_
  6
CONTINUOUS
 62
    7
 10
181.29291018924198
 20
170.82997914907097
 11
182.69289996172932
 21
170.82997914907097
  0
LINE
  8
_1-4_
  6
CONTINUOUS
 62
    7
 10
181.29291018924198
 20
170.42998030379013
 11
182.69289996172932
 21
170.42998030379013
  0
LINE
  8
_1-4_
  6
CONTINUOUS
 62
    7
 10
181.29291018924198
 20
170.0299814585093
 11
182.69289996172932
 21
170.0299814585093
  0
LINE
  8
_1-4_
  6
CONTINUOUS
 62
    7
 10
181.29291018924198
 20
169.62998261322846
 11
182.69289996172932
 21
169.62998261322846
  0
LINE
  8
_1-4_
  6
DASHED2
 62
    7
 10
181.29291018924198
 20
169.22514631941513
 11
181.99290507548565
 21
167.35494665197425
  0
LINE
  8
_1-4_
  6
DASHED2
 62
    7
 10
181.99290507548565
 20
167.35494665197425
 11
182.69289996172932
 21
169.22515869140625
  0
LINE
  8
_1-3_
  6
CONTINUOUS
 62
    7
 10
178.39290309596706
 20
202.21742372255068
 11
178.99290754988388
 21
202.21742372255068
  0
LINE
  8
_1-3_
  6
CONTINUOUS
 62
    7
 10
194.45399928737334
 20
198.65396860483531
 11
207.99573743665542
 21
222.10891311233109
  0
LINE
  8
_1-4_
  6
CONTINUOUS
 62
    7
 10
181.91652040223818
 20
208.09585158889359
 11
172.09438427074537
 21
235.08196031725086
  0
LINE
  8
_1-4_
  6
CONTINUOUS
 62
    7
 10
179.67966440561656
 20
201.53440320813979
 11
170.4721193055849
 21
226.83192072687925
  0
LINE
  8
_1-4_
  6
CONTINUOUS
 62
    7
 10
181.91652040223818
 20
185.13077607025971
 11
169.44092621674409
 21
219.40716717694258
  0
LINE
  8
_1-4_
  6
CONTINUOUS
 62
    7
 10
170.4721193055849
 20
226.83192072687925
 11
167.40269016575169
 21
226.83192072687925
  0
LINE
  8
_1-4_
  6
CONTINUOUS
 62
    7
 10
169.44092621674409
 20
219.40716717694258
 11
167.0426775958087
 21
219.40716717694258
  0
LINE
  8
_1-4_
  6
CONTINUOUS
 62
    7
 10
172.09438427074537
 20
235.08196031725086
 11
169.7302699733425
 21
235.08196031725086
  0
LINE
  8
_1-4_
  6
CONTINUOUS
 62
    7
 10
182.94710726351352
 20
192.5363282899599
 11
196.70813895560602
 21
230.34442798511404
  0
LINE
  8
_1-4_
  6
CONTINUOUS
 62
    7
 10
184.63319933092274
 20
191.35135135135135
 11
196.70813895560602
 21
230.34442798511404
  0
LINE
  8
_1-4_
  6
CONTINUOUS
 62
    7
 10
196.70813895560602
 20
230.34442798511404
 11
184.74903828388938
 21
185.21235697978253
  0
LINE
  8
_1-4_
  6
CONTINUOUS
 62
    7
 10
196.70813895560602
 20
230.34442798511404
 11
200.22018845016893
 21
230.34442798511404
  0
ARC
  8
_1-2_
  6
CONTINUOUS
 62
    3
 10
181.96762909760346
 20
145.82935230152029
 40
41.612016832506335
 50
95
 51
124.5146484375
  0
ARC
  8
_1-2_
  6
CONTINUOUS
 62
    3
 10
183.27112971125425
 20
130.93025826119089
 40
60.168024011560391
 50
95
 51
114.92028808593749
  0
ARC
  8
_1-2_
  6
CONTINUOUS
 62
    3
 10
181.03502840609164
 20
139.71434722075591
 40
41.612016832506335
 50
95
 51
124.5146484375
  0
ARC
  8
_1-2_
  6
CONTINUOUS
 62
    3
 10
182.3385290197424
 20
124.81525318042652
 40
60.168024011560391
 50
95
 51
114.92028808593749
  0
ARC
  8
_1-2_
  6
CONTINUOUS
 62
    3
 10
181.99290507548565
 20
192.35566010346284
 40
15.228569443161424
 50
9.939453125
 51
170.06054687499997
  0
ARC
  8
_1-2_
  6
CONTINUOUS
 62
    3
 10
181.99290507548565
 20
192.28419948268584
 40
12.300003928107184
 50
15.562728881835937
 51
164.43727111816406
  0
CIRCLE
  8
_1-3_
  6
CONTINUOUS
 62
    7
 10
173.98309243691935
 20
198.59203441722974
 40
0.3036581503378378
  0
CIRCLE
  8
_1-3_
  6
CONTINUOUS
 62
    7
 10
175.80506608292865
 20
199.95854558171453
 40
0.3036581503378378
  0
CIRCLE
  8
_1-3_
  6
CONTINUOUS
 62
    7
 10
175.68923950195312
 20
199.71996410472974
 40
0.3036581503378378
  0
CIRCLE
  8
_1-3_
  6
CONTINUOUS
 62
    7
 10
187.34424900364232
 20
199.35120453705659
 40
0.3036581503378378
  0
CIRCLE
  8
_1-3_
  6
CONTINUOUS
 62
    7
 10
189.16622264965162
 20
199.19937546188768
 40
0.3036581503378378
  0
CIRCLE
  8
_1-3_
  6
CONTINUOUS
 62
    7
 10
188.71073542414487
 20
199.80669176256336
 40
0.3036581503378378
  0
CIRCLE
  8
_1-3_
  6
CONTINUOUS
 62
    7
 10
177.17154013144005
 20
202.23600645323057
 40
0.3036581503378378
  0
CIRCLE
  8
_1-3_
  6
CONTINUOUS
 62
    7
 10
175.95689515809755
 20
201.78049448374156
 40
0.3036581503378378
  0
CIRCLE
  8
_1-3_
  6
CONTINUOUS
 62
    7
 10
174.74223781276393
 20
199.80669176256336
 40
0.3036581503378378
  0
CIRCLE
  8
_1-3_
  6
CONTINUOUS
 62
    7
 10
187.34424900364232
 20
198.44020534206084
 40
0.3036581503378378
  0
CIRCLE
  8
_1-3_
  6
CONTINUOUS
 62
    7
 10
189.62170987515836
 20
197.98471811655406
 40
0.3036581503378378
  0
CIRCLE
  8
_1-3_
  6
CONTINUOUS
 62
    7
 10
190.68453814532307
 20
197.83288904138516
 40
0.3036581503378378
  0
CIRCLE
  8
_1-3_
  6
CONTINUOUS
 62
    7
 10
187.79973622914909
 20
200.86952003272805
 40
0.3036581503378378
  0
CIRCLE
  8
_1-3_
  6
CONTINUOUS
 62
    7
 10
180.68621248812289
 20
186.48537300728464
 40
0.3036581503378378
  0
CIRCLE
  8
_1-3_
  6
CONTINUOUS
 62
    7
 10
186.28142073347763
 20
187.00693903742612
 40
0.3036581503378378
  0
CIRCLE
  8
_1-3_
  6
CONTINUOUS
 62
    7
 10
177.34592334644216
 20
186.33354393211573
 40
0.3036581503378378
  0
CIRCLE
  8
_1-3_
  6
CONTINUOUS
 62
    7
 10
176.13126600110854
 20
185.87804433461784
 40
0.3036581503378378
  0
CIRCLE
  8
_1-3_
  6
CONTINUOUS
 62
    7
 10
173.70197605442357
 20
185.57438618428
 40
0.3036581503378378
  0
CIRCLE
  8
_1-3_
  6
CONTINUOUS
 62
    7
 10
171.57633188608531
 20
185.42255710911107
 40
0.3036581503378378
  0
CIRCLE
  8
_1-3_
  6
CONTINUOUS
 62
    7
 10
169.75435824007602
 20
184.96705751161318
 40
0.3036581503378378
  0
CIRCLE
  8
_1-3_
  6
CONTINUOUS
 62
    7
 10
168.69154234190245
 20
184.51157028610643
 40
0.3036581503378378
  0
CIRCLE
  8
_1-3_
  6
CONTINUOUS
 62
    7
 10
167.17322684623102
 20
184.20789976377745
 40
0.3036581503378378
  0
CIRCLE
  8
_1-3_
  6
CONTINUOUS
 62
    7
 10
174.46112143026818
 20
177.37549240524706
 40
0.3036581503378378
  0
CIRCLE
  8
_1-3_
  6
CONTINUOUS
 62
    7
 10
175.06845010293497
 20
174.79436101140203
 40
0.3036581503378378
  0
CIRCLE
  8
_1-3_
  6
CONTINUOUS
 62
    7
 10
175.97943692593961
 20
176.31267650707349
 40
0.3036581503378378
  0
CIRCLE
  8
_1-3_
  6
CONTINUOUS
 62
    7
 10
176.58676559860643
 20
177.37549240524706
 40
0.3036581503378378
  0
CIRCLE
  8
_1-3_
  6
CONTINUOUS
 62
    7
 10
172.48731870908995
 20
177.37549240524706
 40
0.3036581503378378
  0
CIRCLE
  8
_1-3_
  6
CONTINUOUS
 62
    7
 10
171.88000240841427
 20
177.83099200274495
 40
0.3036581503378378
  0
CIRCLE
  8
_1-3_
  6
CONTINUOUS
 62
    7
 10
164.44025400522594
 20
175.40167731207771
 40
0.3036581503378378
  0
CIRCLE
  8
_1-3_
  6
CONTINUOUS
 62
    7
 10
166.39151495856208
 20
175.01226889120568
 40
0.3036581503378378
  0
CIRCLE
  8
_1-3_
  6
CONTINUOUS
 62
    7
 10
165.9585695008974
 20
174.18703233873524
 40
0.3036581503378378
  0
CIRCLE
  8
_1-3_
  6
CONTINUOUS
 62
    7
 10
169.12448779956716
 20
174.70859836887669
 40
0.3036581503378378
  0
CIRCLE
  8
_1-3_
  6
CONTINUOUS
 62
    7
 10
172.33548963392104
 20
176.4645055822424
 40
0.3036581503378378
  0
CIRCLE
  8
_1-3_
  6
CONTINUOUS
 62
    7
 10
187.64790715398016
 20
170.00182280669341
 40
0.3036581503378378
  0
CIRCLE
  8
_1-3_
  6
CONTINUOUS
 62
    7
 10
188.10340675147805
 20
171.36830922719597
 40
0.3036581503378378
  0
CIRCLE
  8
_1-3_
  6
CONTINUOUS
 62
    7
 10
186.58509125580659
 20
179.26354485589107
 40
0.3036581503378378
  0
CIRCLE
  8
_1-3_
  6
CONTINUOUS
 62
    7
 10
188.25523582664698
 20
178.95988670555323
 40
0.3036581503378378
  0
CIRCLE
  8
_1-3_
  6
CONTINUOUS
 62
    7
 10
195.2394722603463
 20
179.26354485589107
 40
0.3036581503378378
  0
CIRCLE
  8
_1-3_
  6
CONTINUOUS
 62
    7
 10
195.99863000818203
 20
177.13790068755279
 40
0.3036581503378378
  0
CIRCLE
  8
_1-3_
  6
CONTINUOUS
 62
    7
 10
195.08764318517737
 20
175.77142663904141
 40
0.3036581503378378
  0
CIRCLE
  8
_1-3_
  6
CONTINUOUS
 62
    7
 10
197.51694550385346
 20
174.55676929370779
 40
0.3036581503378378
  0
CIRCLE
  8
_1-3_
  6
CONTINUOUS
 62
    7
 10
196.90962920317779
 20
176.22691386454815
 40
0.3036581503378378
  0
CIRCLE
  8
_1-3_
  6
CONTINUOUS
 62
    7
 10
199.79441874736065
 20
176.83424253721495
 40
0.3036581503378378
  0
CIRCLE
  8
_1-3_
  6
CONTINUOUS
 62
    7
 10
198.12427417652029
 20
173.03845379803633
 40
0.3036581503378378
  0
CIRCLE
  8
_1-3_
  6
CONTINUOUS
 62
    7
 10
194.32848543734164
 20
174.10128206820102
 40
0.3036581503378378
  0
CIRCLE
  8
_1-3_
  6
CONTINUOUS
 62
    7
 10
194.48031451251057
 20
173.19028287320523
 40
0.3036581503378378
  0
CIRCLE
  8
_1-3_
  6
CONTINUOUS
 62
    7
 10
195.2394722603463
 20
172.8866247228674
 40
0.3036581503378378
  0
CIRCLE
  8
_1-3_
  6
CONTINUOUS
 62
    7
 10
197.6687745790224
 20
171.6719673775338
 40
0.3036581503378378
  0
CIRCLE
  8
_1-3_
  6
CONTINUOUS
 62
    7
 10
198.12427417652029
 20
171.6719673775338
 40
0.3036581503378378
  0
CIRCLE
  8
_1-3_
  6
CONTINUOUS
 62
    7
 10
198.88343192435602
 20
170.91282200168919
 40
0.3036581503378378
  0
CIRCLE
  8
_1-3_
  6
CONTINUOUS
 62
    7
 10
195.2394722603463
 20
172.43113749736065
 40
0.3036581503378378
  0
CIRCLE
  8
_1-3_
  6
CONTINUOUS
 62
    7
 10
190.53270907015414
 20
176.37874293971706
 40
0.3036581503378378
  0
CIRCLE
  8
_1-3_
  6
CONTINUOUS
 62
    7
 10
186.1295916583087
 20
174.86042744404563
 40
0.3036581503378378
  0
CIRCLE
  8
_1-3_
  6
CONTINUOUS
 62
    7
 10
185.82593350797086
 20
172.43113749736065
 40
0.3036581503378378
  0
CIRCLE
  8
_1-3_
  6
CONTINUOUS
 62
    7
 10
184.76310523780617
 20
171.52013830236487
 40
0.3036581503378378
  0
CIRCLE
  8
_1-3_
  6
CONTINUOUS
 62
    7
 10
176.26055330843539
 20
170.00182280669341
 40
0.3036581503378378
  0
CIRCLE
  8
_1-3_
  6
CONTINUOUS
 62
    7
 10
175.95689515809755
 20
173.79761154587206
 40
0.3036581503378378
  0
CIRCLE
  8
_1-3_
  6
CONTINUOUS
 62
    7
 10
164.72137038772172
 20
174.25311114336995
 40
0.3036581503378378
  0
CIRCLE
  8
_1-3_
  6
CONTINUOUS
 62
    7
 10
166.56589817356419
 20
174.0352032635663
 40
0.3036581503378378
  0
CIRCLE
  8
_1-3_
  6
CONTINUOUS
 62
    7
 10
166.26222765123524
 20
176.91999280774917
 40
0.3036581503378378
  0
CIRCLE
  8
_1-3_
  6
CONTINUOUS
 62
    7
 10
168.23604274440456
 20
178.13465015308279
 40
0.3036581503378378
  0
CIRCLE
  8
_1-3_
  6
CONTINUOUS
 62
    7
 10
175.67577877560177
 20
179.19746605125636
 40
0.3036581503378378
  0
CIRCLE
  8
_1-3_
  6
CONTINUOUS
 62
    7
 10
178.56058069177578
 20
179.95662379909206
 40
0.3036581503378378
  0
CIRCLE
  8
_1-3_
  6
CONTINUOUS
 62
    7
 10
178.56058069177578
 20
183.29691294077281
 40
0.3036581503378378
  0
CIRCLE
  8
_1-3_
  6
CONTINUOUS
 62
    7
 10
188.10340675147805
 20
174.55676929370779
 40
0.3036581503378378
  0
CIRCLE
  8
_1-3_
  6
CONTINUOUS
 62
    7
 10
185.06677576013516
 20
170.91282200168919
 40
0.3036581503378378
  0
CIRCLE
  8
_1-3_
  6
CONTINUOUS
 62
    7
 10
172.48731870908995
 20
174.49070286106419
 40
0.3036581503378378
  0
CIRCLE
  8
_1-3_
  6
CONTINUOUS
 62
    7
 10
175.67577877560177
 20
176.16084743190456
 40
0.3036581503378378
  0
CIRCLE
  8
_1-3_
  6
CONTINUOUS
 62
    7
 10
172.0318314835832
 20
179.34929512642526
 40
0.3036581503378378
  0
CIRCLE
  8
_1-3_
  6
CONTINUOUS
 62
    7
 10
179.31972606762037
 20
177.83099200274495
 40
0.3036581503378378
  0
CIRCLE
  8
_1-3_
  6
CONTINUOUS
 62
    7
 10
187.49607807881125
 20
173.64578247070312
 40
0.3036581503378378
  0
CIRCLE
  8
_1-3_
  6
CONTINUOUS
 62
    7
 10
188.86256449931378
 20
174.10128206820102
 40
0.3036581503378378
  0
CIRCLE
  8
_1-3_
  6
CONTINUOUS
 62
    7
 10
176.73859467377534
 20
178.28647922825169
 40
0.3036581503378378
  0
CIRCLE
  8
_1-3_
  6
CONTINUOUS
 62
    7
 10
174.46112143026818
 20
178.28647922825169
 40
0.3036581503378378
  0
CIRCLE
  8
_1-3_
  6
CONTINUOUS
 62
    7
 10
178.38619747677365
 20
170.60915147936024
 40
0.3036581503378378
  0
CIRCLE
  8
_1-3_
  6
CONTINUOUS
 62
    7
 10
177.93069787927578
 20
169.54633558118667
 40
0.3036581503378378
  0
CIRCLE
  8
_1-3_
  6
CONTINUOUS
 62
    7
 10
169.90618731524495
 20
175.09801916173987
 40
0.3036581503378378
  0
CIRCLE
  8
_1-3_
  6
CONTINUOUS
 62
    7
 10
170.20985783757391
 20
176.16084743190456
 40
0.3036581503378378
  0
CIRCLE
  8
_1-3_
  6
CONTINUOUS
 62
    7
 10
186.73692033097552
 20
180.63003127639359
 40
0.3036581503378378
  0
CIRCLE
  8
_1-3_
  6
CONTINUOUS
 62
    7
 10
172.61660601641682
 20
197.22557274070948
 40
0.3036581503378378
  0
CIRCLE
  8
_1-3_
  6
CONTINUOUS
 62
    7
 10
175.65323700775971
 20
198.136547191723
 40
0.3036581503378378
  0
CIRCLE
  8
_1-3_
  6
CONTINUOUS
 62
    7
 10
173.07209324192357
 20
199.65486268739443
 40
0.3036581503378378
  0
CIRCLE
  8
_1-3_
  6
CONTINUOUS
 62
    7
 10
190.53270907015414
 20
199.80669176256336
 40
0.3036581503378378
  0
CIRCLE
  8
_1-3_
  6
CONTINUOUS
 62
    7
 10
186.58509125580659
 20
201.9323235589105
 40
0.3036581503378378
  0
ARC
  8
_1-2_
  6
CONTINUOUS
 62
    3
 10
183.03519584037164
 20
152.00545027449326
 40
41.612016832506335
 50
95
 51
124.5146484375
  0
ARC
  8
_1-2_
  6
CONTINUOUS
 62
    3
 10
184.3386964540224
 20
137.10635623416385
 40
60.168024011560391
 50
95
 51
114.92028808593749
  0
CIRCLE
  8
_1-3_
  6
CONTINUOUS
 62
    7
 10
178.41349008921031
 20
192.5096419050887
 40
0.3036581503378378
  0
CIRCLE
  8
_1-3_
  6
CONTINUOUS
 62
    7
 10
177.19883274387669
 20
192.05414230759081
 40
0.3036581503378378
  0
CIRCLE
  8
_1-3_
  6
CONTINUOUS
 62
    7
 10
174.76954279719175
 20
191.75048415725297
 40
0.3036581503378378
  0
CIRCLE
  8
_1-3_
  6
CONTINUOUS
 62
    7
 10
172.64389862885346
 20
191.59865508208404
 40
0.3036581503378378
  0
CIRCLE
  8
_1-3_
  6
CONTINUOUS
 62
    7
 10
170.82192498284419
 20
191.14315548458615
 40
0.3036581503378378
  0
CIRCLE
  8
_1-3_
  6
CONTINUOUS
 62
    7
 10
169.75910908467063
 20
190.6876682590794
 40
0.3036581503378378
  0
CIRCLE
  8
_1-3_
  6
CONTINUOUS
 62
    7
 10
168.24079358899917
 20
190.38399773675044
 40
0.3036581503378378
  0
CIRCLE
  8
_1-3_
  6
CONTINUOUS
 62
    7
 10
179.62814743454393
 20
186.13272177206505
 40
0.3036581503378378
  0
CIRCLE
  8
_1-3_
  6
CONTINUOUS
 62
    7
 10
179.62814743454393
 20
189.47301091374578
 40
0.3036581503378378
  0
ARC
  8
_1-2_
  6
CONTINUOUS
 62
    3
 10
182.01818105336784
 20
145.82935230152029
 40
41.612016832506335
 50
55.485351562499972
 51
84.999999999999986
  0
ARC
  8
_1-2_
  6
CONTINUOUS
 62
    3
 10
180.71468043971706
 20
130.93025826119089
 40
60.168024011560391
 50
65.079711914062514
 51
85
  0
ARC
  8
_1-2_
  6
CONTINUOUS
 62
    3
 10
182.95078174487966
 20
139.71434722075591
 40
41.612016832506335
 50
55.485351562499972
 51
84.999999999999986
  0
ARC
  8
_1-2_
  6
CONTINUOUS
 62
    3
 10
181.64728113122891
 20
124.81525318042652
 40
60.168024011560391
 50
65.079711914062514
 51
85
  0
CIRCLE
  8
_1-3_
  6
CONTINUOUS
 62
    7
 10
190.28383409654774
 20
185.57438618428
 40
0.3036581503378378
  0
CIRCLE
  8
_1-3_
  6
CONTINUOUS
 62
    7
 10
192.40947826488599
 20
185.42255710911107
 40
0.3036581503378378
  0
CIRCLE
  8
_1-3_
  6
CONTINUOUS
 62
    7
 10
194.23145191089529
 20
184.96705751161318
 40
0.3036581503378378
  0
CIRCLE
  8
_1-3_
  6
CONTINUOUS
 62
    7
 10
195.29426780906886
 20
184.51157028610643
 40
0.3036581503378378
  0
CIRCLE
  8
_1-3_
  6
CONTINUOUS
 62
    7
 10
196.81258330474029
 20
184.20789976377745
 40
0.3036581503378378
  0
CIRCLE
  8
_1-3_
  6
CONTINUOUS
 62
    7
 10
189.52468872070312
 20
177.37549240524706
 40
0.3036581503378378
  0
CIRCLE
  8
_1-3_
  6
CONTINUOUS
 62
    7
 10
188.91736004803633
 20
174.79436101140203
 40
0.3036581503378378
  0
CIRCLE
  8
_1-3_
  6
CONTINUOUS
 62
    7
 10
191.49849144188136
 20
177.37549240524706
 40
0.3036581503378378
  0
CIRCLE
  8
_1-3_
  6
CONTINUOUS
 62
    7
 10
192.10580774255703
 20
177.83099200274495
 40
0.3036581503378378
  0
CIRCLE
  8
_1-3_
  6
CONTINUOUS
 62
    7
 10
199.54555614574537
 20
175.40167731207771
 40
0.3036581503378378
  0
CIRCLE
  8
_1-3_
  6
CONTINUOUS
 62
    7
 10
197.59429519240922
 20
175.01226889120568
 40
0.3036581503378378
  0
CIRCLE
  8
_1-3_
  6
CONTINUOUS
 62
    7
 10
198.02724065007391
 20
174.18703233873524
 40
0.3036581503378378
  0
CIRCLE
  8
_1-3_
  6
CONTINUOUS
 62
    7
 10
194.86132235140414
 20
174.70859836887669
 40
0.3036581503378378
  0
CIRCLE
  8
_1-3_
  6
CONTINUOUS
 62
    7
 10
191.65032051705026
 20
176.4645055822424
 40
0.3036581503378378
  0
CIRCLE
  8
_1-3_
  6
CONTINUOUS
 62
    7
 10
188.02891499287375
 20
173.79761154587206
 40
0.3036581503378378
  0
CIRCLE
  8
_1-3_
  6
CONTINUOUS
 62
    7
 10
201.51935886692357
 20
175.2498482369088
 40
0.3036581503378378
  0
CIRCLE
  8
_1-3_
  6
CONTINUOUS
 62
    7
 10
199.26443976324958
 20
174.25311114336995
 40
0.3036581503378378
  0
CIRCLE
  8
_1-3_
  6
CONTINUOUS
 62
    7
 10
197.41991197740711
 20
174.0352032635663
 40
0.3036581503378378
  0
CIRCLE
  8
_1-3_
  6
CONTINUOUS
 62
    7
 10
197.72358249973607
 20
176.91999280774917
 40
0.3036581503378378
  0
CIRCLE
  8
_1-3_
  6
CONTINUOUS
 62
    7
 10
195.74976740656675
 20
178.13465015308279
 40
0.3036581503378378
  0
CIRCLE
  8
_1-3_
  6
CONTINUOUS
 62
    7
 10
188.31003137536953
 20
179.19746605125636
 40
0.3036581503378378
  0
CIRCLE
  8
_1-3_
  6
CONTINUOUS
 62
    7
 10
185.42522945919552
 20
179.95662379909206
 40
0.3036581503378378
  0
CIRCLE
  8
_1-3_
  6
CONTINUOUS
 62
    7
 10
185.42522945919552
 20
183.29691294077281
 40
0.3036581503378378
  0
CIRCLE
  8
_1-3_
  6
CONTINUOUS
 62
    7
 10
185.14412544869089
 20
173.79761154587206
 40
0.3036581503378378
  0
CIRCLE
  8
_1-3_
  6
CONTINUOUS
 62
    7
 10
191.49849144188136
 20
174.49070286106419
 40
0.3036581503378378
  0
CIRCLE
  8
_1-3_
  6
CONTINUOUS
 62
    7
 10
191.9539786673881
 20
179.34929512642526
 40
0.3036581503378378
  0
CIRCLE
  8
_1-3_
  6
CONTINUOUS
 62
    7
 10
184.66608408335094
 20
177.83099200274495
 40
0.3036581503378378
  0
CIRCLE
  8
_1-3_
  6
CONTINUOUS
 62
    7
 10
189.52468872070312
 20
178.28647922825169
 40
0.3036581503378378
  0
CIRCLE
  8
_1-3_
  6
CONTINUOUS
 62
    7
 10
194.07962283572635
 20
175.09801916173987
 40
0.3036581503378378
  0
CIRCLE
  8
_1-3_
  6
CONTINUOUS
 62
    7
 10
193.7759523133974
 20
176.16084743190456
 40
0.3036581503378378
  0
ARC
  8
_1-2_
  6
CONTINUOUS
 62
    3
 10
180.95061431059966
 20
152.00545027449326
 40
41.612016832506335
 50
55.485351562499972
 51
84.999999999999986
  0
ARC
  8
_1-2_
  6
CONTINUOUS
 62
    3
 10
179.64711369694891
 20
137.10635623416385
 40
60.168024011560391
 50
65.079711914062514
 51
85
  0
CIRCLE
  8
_1-3_
  6
CONTINUOUS
 62
    7
 10
185.57232006176099
 20
192.5096419050887
 40
0.3036581503378378
  0
CIRCLE
  8
_1-3_
  6
CONTINUOUS
 62
    7
 10
186.78697740709461
 20
192.05414230759081
 40
0.3036581503378378
  0
CIRCLE
  8
_1-3_
  6
CONTINUOUS
 62
    7
 10
189.21626735377959
 20
191.75048415725297
 40
0.3036581503378378
  0
CIRCLE
  8
_1-3_
  6
CONTINUOUS
 62
    7
 10
191.34191152211784
 20
191.59865508208404
 40
0.3036581503378378
  0
CIRCLE
  8
_1-3_
  6
CONTINUOUS
 62
    7
 10
193.16388516812711
 20
191.14315548458615
 40
0.3036581503378378
  0
CIRCLE
  8
_1-3_
  6
CONTINUOUS
 62
    7
 10
194.22670106630068
 20
190.6876682590794
 40
0.3036581503378378
  0
CIRCLE
  8
_1-3_
  6
CONTINUOUS
 62
    7
 10
195.74501656197214
 20
190.38399773675044
 40
0.3036581503378378
  0
CIRCLE
  8
_1-3_
  6
CONTINUOUS
 62
    7
 10
184.4006058976457
 20
178.47744091137037
 40
0.3036581503378378
  0
CIRCLE
  8
_1-3_
  6
CONTINUOUS
 62
    7
 10
184.55243497281461
 20
179.388427734375
 40
0.3036581503378378
  0
CIRCLE
  8
_1-3_
  6
CONTINUOUS
 62
    7
 10
187.90681581239443
 20
176.87459997228675
 40
0.3036581503378378
  0
CIRCLE
  8
_1-3_
  6
CONTINUOUS
 62
    7
 10
188.05864488756336
 20
177.78558679529141
 40
0.3036581503378378
  0
CIRCLE
  8
_1-3_
  6
CONTINUOUS
 62
    7
 10
183.89972583667654
 20
175.07140700881547
 40
0.3036581503378378
  0
CIRCLE
  8
_1-3_
  6
CONTINUOUS
 62
    7
 10
184.05155491184544
 20
175.9823938318201
 40
0.3036581503378378
  0
CIRCLE
  8
_1-3_
  6
CONTINUOUS
 62
    7
 10
183.59918542810391
 20
181.78329880173143
 40
0.3036581503378378
  0
CIRCLE
  8
_1-3_
  6
CONTINUOUS
 62
    7
 10
183.75101450327281
 20
182.69428562473607
 40
0.3036581503378378
  0
CIRCLE
  8
_1-3_
  6
CONTINUOUS
 62
    7
 10
183.4504864666913
 20
185.399075069943
 40
0.3036581503378378
  0
CIRCLE
  8
_1-3_
  6
CONTINUOUS
 62
    7
 10
183.04977004592484
 20
190.30776152739654
 40
0.3036581503378378
  0
CIRCLE
  8
_1-3_
  6
CONTINUOUS
 62
    7
 10
183.69936144029774
 20
190.69907523490289
 40
0.3036581503378378
  0
CIRCLE
  8
_1-3_
  6
CONTINUOUS
 62
    7
 10
183.85119051546664
 20
191.61006205790753
 40
0.3036581503378378
  0
CIRCLE
  8
_1-3_
  6
CONTINUOUS
 62
    7
 10
186.10362284892315
 20
185.79038877744932
 40
0.3036581503378378
  0
CIRCLE
  8
_1-3_
  6
CONTINUOUS
 62
    7
 10
186.25545192409206
 20
186.70137560045399
 40
0.3036581503378378
  0
CIRCLE
  8
_1-3_
  6
CONTINUOUS
 62
    7
 10
194.51851922112544
 20
171.56519709406672
 40
0.3036581503378378
  0
CIRCLE
  8
_1-3_
  6
CONTINUOUS
 62
    7
 10
194.67034829629435
 20
172.47618391707138
 40
0.3036581503378378
  0
ARC
  8
_1-4_
  6
CONTINUOUS
 62
    7
 10
181.99290507548565
 20
207.34622027422932
 40
1.1944762113932017
 50
33.155624389648445
 51
146.84437561035156
  0
CIRCLE
  8
_1-3_
  6
CONTINUOUS
 62
    7
 10
183.826904296875
 20
195.59527835330448
 40
0.3036581503378378
  0
CIRCLE
  8
_1-3_
  6
CONTINUOUS
 62
    7
 10
183.71492540514149
 20
193.95287178658151
 40
0.3036581503378378
  0
CIRCLE
  8
_1-3_
  6
CONTINUOUS
 62
    7
 10
183.71492540514149
 20
192.57176167256125
 40
0.3036581503378378
  0
CIRCLE
  8
_1-3_
  6
CONTINUOUS
 62
    7
 10
180.31814575195312
 20
192.68374056429477
 40
0.3036581503378378
  0
CIRCLE
  8
_1-3_
  6
CONTINUOUS
 62
    7
 10
176.84670113228464
 20
198.9174054120038
 40
0.3036581503378378
  0
CIRCLE
  8
_1-3_
  6
CONTINUOUS
 62
    7
 10
162.43114162135768
 20
169.82136494404563
 40
0.3036581503378378
  0
CIRCLE
  8
_1-3_
  6
CONTINUOUS
 62
    7
 10
162.65457978119721
 20
173.84331368111276
 40
0.3036581503378378
  0
CIRCLE
  8
_1-3_
  6
CONTINUOUS
 62
    7
 10
162.59872024123734
 20
175.74256278373102
 40
0.3036581503378378
  0
CIRCLE
  8
_1-3_
  6
CONTINUOUS
 62
    7
 10
167.62614069758234
 20
176.30115818332982
 40
0.3036581503378378
  0
CIRCLE
  8
_1-3_
  6
CONTINUOUS
 62
    7
 10
201.0305909852724
 20
170.32411317567568
 40
0.3036581503378378
  0
CIRCLE
  8
_1-3_
  6
CONTINUOUS
 62
    7
 10
201.36574822503169
 20
172.89368912980365
 40
0.3036581503378378
  0
CIRCLE
  8
_1-3_
  6
CONTINUOUS
 62
    7
 10
199.91338781408362
 20
172.67023859797297
 40
0.3036581503378378
  0
ARC
  8
_1-4_
  6
CONTINUOUS
 62
    3
 10
182.0724817224451
 20
159.74968575142526
 40
37.439971099028718
 50
79.328231811523438
 51
99.345169067382827
  0
ARC
  8
_1-4_
  6
CONTINUOUS
 62
    3
 10
188.24928489891261
 20
312.81720960462417
 40
120.42529956714527
 50
264.1585693359375
 51
271.24249267578125
  0
ARC
  8
_1-4_
  6
CONTINUOUS
 62
    3
 10
182.31792965450802
 20
167.60681564743456
 40
23.935370574126374
 50
73.946151733398438
 51
105.32263183593749
  0
ARC
  8
_1-4_
  6
CONTINUOUS
 62
    3
 10
183.21369892842063
 20
252.39025219066724
 40
65.777583766627956
 50
263.69760131835937
 51
274.99163818359375
  0
ARC
  8
_1-4_
  6
CONTINUOUS
 62
    3
 10
182.29580853436445
 20
158.11064436629013
 40
27.285278938912057
 50
75.912734985351563
 51
103.35595703125
  0
ARC
  8
_1-4_
  6
CONTINUOUS
 62
    3
 10
182.73807010135135
 20
208.96057953705659
 40
28.743469650680957
 50
256.42796325683594
 51
282.45454406738281
  0
TEXT
  8
_0-0_
 62
    7
 10
141.89189395389042
 20
14.594594594594582
 40
2.5
 41
1
 50
0
  1
縮尺
  0
TEXT
  8
_0-0_
 62
    7
 10
377.10214563318203
 20
22.865493362014362
 40
2.5
 41
1
 50
0
  1
ＮＯ
  0
TEXT
  8
_0-0_
 62
    7
 10
14.594594336844779
 20
24.324324324324323
 40
2.5
 41
1
 50
0
  1
和形
  0
TEXT
  8
_0-0_
 62
    7
 10
25.556194717819636
 20
20.211577544341225
 40
2.5
 41
1
 50
0
  1
木造
  0
TEXT
  8
_0-0_
 62
    7
 10
383.23801896378802
 20
18.523427086907475
 40
3
 41
1
 50
0
  1
Ｊ
  0
TEXT
  8
_1-0_
 62
    7
 10
169.90681828679266
 20
13.3181144095756
 40
2.5
 41
1
 50
0
  1
1/5
  0
TEXT
  8
_1-3_
 62
    7
 10
213.63322902370146
 20
221.20986526076859
 40
2.5
 41
1
 50
0
  1
冠瓦
  0
TEXT
  8
_1-3_
 62
    7
 10
215.05531929634714
 20
202.72265872439823
 40
2.5
 41
1
 50
0
  1
のし瓦
  0
TEXT
  8
_1-3_
 62
    7
 10
394.14484384897594
 20
14.602422971983202
 40
2.5
 41
1
 50
0
  1
15
  0
TEXT
  8
_1-4_
 62
    7
 10
158.66023295634503
 20
218.52591024862755
 40
2.5
 41
1
 50
0
  1
棟金具
  0
TEXT
  8
_1-4_
 62
    7
 10
119.3061890473237
 20
234.59096547719597
 40
2.5
 41
1
 50
0
  1
パッキン付き改良ステンレススクリュウ釘
  0
TEXT
  8
_1-4_
 62
    7
 10
149.35040654362859
 20
225.64255173141893
 40
2.5
 41
1
 50
0
  1
棟桟木　43ｘ43
  0
TEXT
  8
_1-4_
 62
    7
 10
201.78545359018688
 20
229.28726608688768
 40
2.5
 41
1
 50
0
  1
銅線緊結
  0
TEXT
  8
_1-4_
 62
    7
 10
124.74395775283557
 20
81.021552183529749
 40
2.5
 41
1
 50
0
  1
棟部分の下葺き材（ゴムアス系ルーフィング）は、両方向へそれぞれ250ｍｍ以上重ね合わせること。
  0
TEXT
  8
_1-4_
 62
    7
 10
124.83174940190654
 20
76.910228182526794
 40
2.5
 41
1
 50
0
  1
隅棟部分の下葺き材（ゴムアス系ルーフィング）は、重ね貼りの上に両方向へそれぞれ250ｍｍ以上増し貼りをすること。
  0
LINE
  8
_1-1_
  6
DASHED1
 62
    3
 10
227.58897905697592
 20
148.36394564844525
 11
181.99290507548565
 21
168.88218235325169
  0
LINE
  8
_1-6_
  6
CONTINUOUS
 62
    7
 10
188.2240031237757
 20
170.24520026922383
 11
186.99290919960234
 21
167.50943570518265
  0
LINE
  8
_1-6_
  6
CONTINUOUS
 62
    3
 10
211.6809318166043
 20
169.47754765308622
 11
212.94641570012857
 21
168.90379912792145
  0
LINE
  8
_1-6_
  6
CONTINUOUS
 62
    3
 10
212.94641570012857
 20
168.90379912792145
 11
211.63280397369172
 21
166.00644184314774
  0
LINE
  8
_1-6_
  6
CONTINUOUS
 62
    3
 10
212.94641570012857
 20
168.90379912792145
 11
211.63280397369172
 21
166.00644184314774
  0
LINE
  8
_1-6_
  6
CONTINUOUS
 62
    3
 10
212.01596900454371
 20
172.49035288216987
 11
205.5187585357171
 21
171.89514321912699
  0
LINE
  8
_1-6_
  6
CONTINUOUS
 62
    3
 10
259.95155111857861
 20
147.59261882205126
 11
261.21703500210288
 21
147.01887029688649
  0
LINE
  8
_1-6_
  6
CONTINUOUS
 62
    3
 10
205.5187585357171
 20
171.89514321912699
 11
204.36258690302714
 21
169.34504242830252
  0
LINE
  8
_1-6_
  6
CONTINUOUS
 62
    3
 10
209.50510005685868
 20
169.61423334115861
 11
204.36258690302714
 21
169.34504242830252
  0
LINE
  8
_1-6_
  6
CONTINUOUS
 62
    3
 10
261.21703500210288
 20
147.01887029688649
 11
259.903423275666
 21
144.12151301211281
  0
LINE
  8
_1-6_
  6
CONTINUOUS
 62
    3
 10
261.21703500210288
 20
147.01887029688649
 11
259.903423275666
 21
144.12151301211281
  0
LINE
  8
_1-6_
  6
CONTINUOUS
 62
    3
 10
260.28652595148424
 20
150.60531648007759
 11
253.78930421468127
 21
150.01011192574046
  0
LINE
  8
_1-6_
  6
CONTINUOUS
 62
    3
 10
308.22207426159019
 20
125.70759774607622
 11
309.48755814511446
 21
125.13384922091143
  0
LINE
  8
_1-6_
  6
CONTINUOUS
 62
    3
 10
253.78930421468127
 20
150.01011192574046
 11
252.6331325819913
 21
147.46001113491599
  0
LINE
  8
_1-6_
  6
CONTINUOUS
 62
    3
 10
257.77564573582288
 20
147.72920204777205
 11
252.6331325819913
 21
147.46001113491599
  0
LINE
  8
_1-6_
  6
CONTINUOUS
 62
    3
 10
309.48755814511446
 20
125.13384922091143
 11
308.17394641867764
 21
122.23649193613778
  0
LINE
  8
_1-6_
  6
CONTINUOUS
 62
    3
 10
309.48755814511446
 20
125.13384922091143
 11
308.17394641867764
 21
122.23649193613778
  0
LINE
  8
_1-6_
  6
CONTINUOUS
 62
    3
 10
307.92482549157415
 20
121.68702033931316
 11
307.90885567740543
 21
121.65179664536529
  0
LINE
  8
_1-6_
  6
CONTINUOUS
 62
    3
 10
308.55705420320157
 20
128.72030667207886
 11
302.05984989364549
 21
128.12508063235393
  0
LINE
  8
_1-6_
  6
CONTINUOUS
 62
    3
 10
302.05984989364549
 20
128.1250806323539
 11
300.90367826095553
 21
125.57497984152945
  0
LINE
  8
_1-6_
  6
CONTINUOUS
 62
    3
 10
306.04618630608132
 20
125.84415948640918
 11
300.90367826095553
 21
125.57497984152945
  0
LINE
  8
ADD_LINE
  6
DOT
 62
    4
 10
326.28087904331306
 20
110.55572634829173
 11
335.55539259314446
 21
106.35082216885853
  0
ARC
  8
_1-6_
  6
CONTINUOUS
 62
    3
 10
210.72170885483942
 20
169.88016676821044
 40
1.0402513194728542
 50
284.69312982908286
 51
337.22575312009849
  0
ARC
  8
_1-6_
  6
CONTINUOUS
 62
    3
 10
212.68063943012828
 20
169.50069452102235
 40
3.0627306731971538
 50
18.301833442364092
 51
102.53202753416097
  0
ARC
  8
_1-6_
  6
CONTINUOUS
 62
    3
 10
258.99231688883742
 20
147.99524304588127
 40
1.0402513194728542
 50
284.69312982908286
 51
337.22575312009849
  0
ARC
  8
_1-6_
  6
CONTINUOUS
 62
    3
 10
255.92303056258029
 20
193.14287272989714
 40
46.274049088761615
 50
209.3493950878719
 51
274.13066034666099
  0
ARC
  8
_1-6_
  6
CONTINUOUS
 62
    3
 10
210.47635990832399
 20
165.09096686757326
 40
4.6263270764737516
 50
22.734328559551596
 51
102.11845331541097
  0
ARC
  8
_1-6_
  6
CONTINUOUS
 62
    3
 10
255.97107062662874
 20
192.50553887914469
 40
48.543530025997683
 50
211.86444025388755
 51
274.64630060545005
  0
ARC
  8
_1-6_
  6
CONTINUOUS
 62
    3
 10
260.95119637706881
 20
147.61565811893004
 40
3.0627306731971538
 50
18.301833442364092
 51
102.53202753416097
  0
ARC
  8
_1-6_
  6
CONTINUOUS
 62
    3
 10
307.26286256780162
 20
126.11021175249472
 40
1.0402513194728542
 50
284.69312982908286
 51
337.22575312009849
  0
ARC
  8
_1-6_
  6
CONTINUOUS
 62
    3
 10
304.19359877749713
 20
171.2578312190991
 40
46.274049088761615
 50
209.3493950878719
 51
274.13066034666099
  0
ARC
  8
_1-6_
  6
CONTINUOUS
 62
    3
 10
258.74689431931188
 20
143.20594068289245
 40
4.6263270764737516
 50
22.734328559551596
 51
102.11845331541097
  0
ARC
  8
_1-6_
  6
CONTINUOUS
 62
    3
 10
304.24161630559297
 20
170.62050758575813
 40
48.543530025997683
 50
211.86444025388755
 51
274.64630060545005
  0
ARC
  8
_1-6_
  6
CONTINUOUS
 62
    3
 10
309.22174205603301
 20
125.73062682554351
 40
3.0627306731971538
 50
18.301833442364092
 51
102.53202753416097
  0
ARC
  8
_1-6_
  6
CONTINUOUS
 62
    3
 10
307.01743488957032
 20
121.32089812152961
 40
4.6263270764737516
 50
22.734328559551596
 51
102.11845331541097
  0
ARC
  8
_1-6_
  6
CONTINUOUS
 62
    3
 10
209.79833981159265
 20
226.58661588104346
 40
57.724895992794565
 50
249.2133667351726
 51
271.17848139158286
  0
ARC
  8
_1-6_
  6
CONTINUOUS
 62
    3
 10
211.85614573805361
 20
233.99745017738769
 40
67.991378371779987
 50
249.66090187835653
 51
269.81179743162193
  0
LINE
  8
_1-6_
  6
CONTINUOUS
 62
    3
 10
188.2240031237757
 20
170.24520026922383
 11
189.3124170507192
 21
172.6191202376983
  0
LINE
  8
_1-6_
  6
CONTINUOUS
 62
    7
 10
175.37295215809351
 20
170.07024027358261
 11
176.61464270407177
 21
167.31092871387875
  0
LINE
  8
_1-6_
  6
CONTINUOUS
 62
    3
 10
57.789446613243626
 20
127.75769104944088
 11
59.059227240754751
 21
128.32186654304724
  0
LINE
  8
_1-6_
  6
CONTINUOUS
 62
    3
 10
59.059227240754751
 20
128.32186654304724
 11
60.35092126987098
 21
125.41467175449093
  0
LINE
  8
_1-6_
  6
CONTINUOUS
 62
    3
 10
59.059227240754751
 20
128.32186654304724
 11
60.35092126987098
 21
125.41467175449093
  0
LINE
  8
_1-6_
  6
CONTINUOUS
 62
    3
 10
55.761127042299449
 20
130.01035059661666
 11
51.887479356539984
 21
124.76030180014826
  0
LINE
  8
_1-6_
  6
CONTINUOUS
 62
    3
 10
106.22386443935319
 20
149.27755912156738
 11
107.49364506686432
 21
149.84173461517372
  0
LINE
  8
_1-6_
  6
CONTINUOUS
 62
    3
 10
51.887479356539984
 20
124.76030180014826
 11
53.024360190140669
 21
122.2015425582906
  0
LINE
  8
_1-6_
  6
CONTINUOUS
 62
    3
 10
56.241188352648123
 20
126.22272669456115
 11
53.024360190140669
 21
122.2015425582906
  0
LINE
  8
_1-6_
  6
CONTINUOUS
 62
    3
 10
107.49364506686432
 20
149.84173461517372
 11
108.78533909598052
 21
146.93453982661742
  0
LINE
  8
_1-6_
  6
CONTINUOUS
 62
    3
 10
107.49364506686432
 20
149.84173461517372
 11
108.78533909598052
 21
146.93453982661742
  0
LINE
  8
_1-6_
  6
CONTINUOUS
 62
    3
 10
109.03030342416925
 20
146.38320258866509
 11
109.04600678094717
 21
146.34785929841325
  0
LINE
  8
_1-6_
  6
CONTINUOUS
 62
    3
 10
104.19553984494233
 20
151.53022997497806
 11
100.32191979511931
 21
146.28017991920808
  0
LINE
  8
_1-6_
  6
CONTINUOUS
 62
    3
 10
154.65830990139915
 20
170.79742593439232
 11
155.92811314138004
 21
171.36161147493198
  0
LINE
  8
_1-6_
  6
CONTINUOUS
 62
    3
 10
100.32191979511931
 20
146.28017991920808
 11
101.45880062872
 21
143.72142067735041
  0
LINE
  8
_1-6_
  6
CONTINUOUS
 62
    3
 10
104.67563381469414
 20
147.74259350738609
 11
101.45880062872
 21
143.72142067735041
  0
LINE
  8
ADD_LINE
  6
DOT
 62
    4
 10
129.54742977856307
 20
152.69968373457968
 11
138.85343342545917
 21
156.83442881356308
  0
LINE
  8
_1-6_
  6
CONTINUOUS
 62
    3
 10
155.92811314138004
 20
171.36161147493198
 11
157.21980214702961
 21
168.45442799261056
  0
LINE
  8
_1-6_
  6
CONTINUOUS
 62
    3
 10
155.92811314138004
 20
171.36161147493198
 11
157.21980214702961
 21
168.45442799261056
  0
LINE
  8
_1-6_
  6
CONTINUOUS
 62
    3
 10
152.62995767105184
 20
173.05009804710454
 11
148.75633762122885
 21
167.80004799133457
  0
LINE
  8
_1-6_
  6
CONTINUOUS
 62
    3
 10
148.75633762122885
 20
167.80004799133457
 11
149.89321845482954
 21
165.24128874947692
  0
LINE
  8
_1-6_
  6
CONTINUOUS
 62
    3
 10
153.11005164080365
 20
169.26246157951257
 11
149.89321845482954
 21
165.24128874947692
  0
ARC
  8
_1-6_
  6
CONTINUOUS
 62
    3
 10
56.851070715438027
 20
127.30859501568048
 40
1.0402513194728542
 50
333.03787654040252
 51
25.570499831418118
  0
ARC
  8
_1-6_
  6
CONTINUOUS
 62
    3
 10
58.436643896513942
 20
128.51989648667558
 40
3.0627306731971538
 50
66.646580153683729
 51
150.87677424548059
  0
ARC
  8
_1-6_
  6
CONTINUOUS
 62
    3
 10
105.28551115401733
 20
148.82847313474031
 40
1.0402513194728542
 50
333.03787654040252
 51
25.570499831418118
  0
ARC
  8
_1-6_
  6
CONTINUOUS
 62
    3
 10
69.513152258762659
 20
176.5424815562026
 40
46.274049088761615
 50
257.69414179919153
 51
322.47540705798059
  0
ARC
  8
_1-6_
  6
CONTINUOUS
 62
    3
 10
60.266314435742629
 20
123.94203004635605
 40
4.6263270764737516
 50
71.079075270871243
 51
150.46320002673062
  0
ARC
  8
_1-6_
  6
CONTINUOUS
 62
    3
 10
70.021248089543349
 20
176.15476294256297
 40
48.543530025997683
 50
260.20918696520721
 51
322.99104731676971
  0
ARC
  8
_1-6_
  6
CONTINUOUS
 62
    3
 10
106.87108433509327
 20
150.0397746057354
 40
3.0627306731971538
 50
66.646580153683729
 51
150.87677424548059
  0
ARC
  8
_1-6_
  6
CONTINUOUS
 62
    3
 10
153.71995661606331
 20
170.34833994756522
 40
1.0402513194728542
 50
333.03787654040252
 51
25.570499831418118
  0
ARC
  8
_1-6_
  6
CONTINUOUS
 62
    3
 10
117.9475700848722
 20
198.06234962832912
 40
46.274049088761615
 50
257.69414179919153
 51
322.47540705798059
  0
ARC
  8
_1-6_
  6
CONTINUOUS
 62
    3
 10
108.70075989778861
 20
145.46189685918097
 40
4.6263270764737516
 50
71.079075270871243
 51
150.46320002673062
  0
ARC
  8
_1-6_
  6
CONTINUOUS
 62
    3
 10
118.45568852812265
 20
197.67464106162276
 40
48.543530025997683
 50
260.20918696520721
 51
322.99104731676971
  0
ARC
  8
_1-6_
  6
CONTINUOUS
 62
    3
 10
155.30550216120281
 20
171.55964267786192
 40
3.0627306731971538
 50
66.646580153683729
 51
150.87677424548059
  0
ARC
  8
_1-6_
  6
CONTINUOUS
 62
    3
 10
157.13517772389815
 20
166.98176493130748
 40
4.6263270764737516
 50
71.079075270871243
 51
150.46320002673062
  0
ARC
  8
_1-6_
  6
CONTINUOUS
 62
    3
 10
166.89010635423222
 20
219.19450913374931
 40
48.543530025997683
 50
260.20918696520721
 51
276.66559260485565
  0
ARC
  8
_1-6_
  6
CONTINUOUS
 62
    3
 10
166.35100980972214
 20
220.04506646643875
 40
46.719762441274284
 50
257.8521923363009
 51
276.1578563988009
  0
LINE
  8
_1-6_
  6
CONTINUOUS
 62
    3
 10
171.36254922033066
 20
173.59487082309383
 11
172.52476237604577
 21
170.97910745647633
  0
LINE
  8
_1-0_
  6
CONTINUOUS
 62
    7
 10
322.86189683860232
 20
101.32410244939038
 11
181.99291744747677
 21
164.71514727618245
  0
LINE
  8
_1-0_
  6
CONTINUOUS
 62
    7
 10
322.86189683860232
 20
104.61385236780134
 11
181.99290507548565
 21
168.00490920608109
  0
LINE
  8
_1-0_
  6
CONTINUOUS
 62
    7
 10
322.86189683860232
 20
105.71044445722544
 11
181.99290507548565
 21
169.10151301203547
  0
LINE
  8
_1-6_
  6
CONTINUOUS
 62
    7
 10
322.86189683860232
 20
109.65815447082863
 11
188.2240031237757
 21
170.24520026922383
  0
ARC
  8
_1-6_
  6
CONTINUOUS
 62
    3
 10
352.51216198455711
 20
148.73547629237163
 40
48.543530025997683
 50
211.86444025388755
 51
232.35281266676571
  0
ARC
  8
_1-6_
  6
CONTINUOUS
 62
    3
 10
352.46412192050866
 20
149.37281014312407
 40
46.274049088761615
 50
209.3493950878719
 51
230.22939388196116
  0
LINE
  8
_1-0_
  6
CONTINUOUS
 62
    7
 10
322.86189683860232
 20
106.36839769918504
 11
186.99290919948271
 21
167.50943570523648
  0
LINE
  8
_1-0_
  6
CONTINUOUS
 62
    7
 10
42.628951747088166
 20
102.00136908625086
 11
181.99291744747677
 21
164.71514727618245
  0
LINE
  8
_1-0_
  6
CONTINUOUS
 62
    7
 10
42.628951747088166
 20
105.29111977608601
 11
181.99290507548565
 21
168.00490920608109
  0
LINE
  8
_1-1_
  6
DASHED1
 62
    3
 10
42.628951747088166
 20
106.16839292325662
 11
181.99290507548565
 21
168.88218235325169
  0
LINE
  8
_1-0_
  6
CONTINUOUS
 62
    7
 10
42.628951747088166
 20
106.38771199068904
 11
181.99290507548565
 21
169.10151301203547
  0
LINE
  8
_1-0_
  6
CONTINUOUS
 62
    7
 10
42.628951747088166
 20
107.04566653915063
 11
176.99290095148862
 21
167.50946044921875
  0
LINE
  8
_1-6_
  6
CONTINUOUS
 62
    7
 10
42.628951747088166
 20
110.3354235227055
 11
175.37295215809351
 21
170.07024027358261
  0
ARC
  8
_1-6_
  6
CONTINUOUS
 62
    3
 10
21.586807650964033
 20
154.63488482350314
 40
48.543530025997683
 50
295.68795147917439
 51
322.99104731676971
  0
ARC
  8
_1-6_
  6
CONTINUOUS
 62
    3
 10
21.07868920771358
 20
155.02259339020947
 40
46.274049088761615
 50
297.75614692487119
 51
322.47540705798059
  0
ARC
  8
_1-4_
  6
CONTINUOUS
 62
    3
 10
153.21183075775971
 20
172.53915735193203
 40
8.5915026793608806
 50
6.7775063376984006
 51
25.086105346679734
  0
ARC
  8
_1-4_
  6
CONTINUOUS
 62
    3
 10
214.20001880542654
 20
172.50572823189401
 40
11.724105525661161
 50
160.33329772949219
 51
196.01236910404558
  0
TEXT
  8
_1-4_
 62
    7
 10
220.48590783480608
 20
187.74710403732641
 40
2.5
 41
1
 50
0
  1
面戸漆喰及び葺き土
  0
LINE
  8
_1-6_
  6
CONTINUOUS
 62
    7
 10
220.15665792730363
 20
188.93128341283662
 11
216.26277335887775
 21
188.93128341283662
  0
LINE
  8
_1-6_
  6
CONTINUOUS
 62
    7
 10
216.26277335887775
 20
188.93128341283662
 11
200.68723508517417
 21
172.67260749554958
  0
LINE
  8
_1-4_
  6
CONTINUOUS
 62
    7
 10
112.16306156405989
 20
150.94592346089848
 11
97.09132875947796
 21
177.05091135284317
  0
LINE
  8
_1-4_
  6
CONTINUOUS
 62
    7
 10
97.09132875947796
 20
177.05091135284317
 11
89.460358861357179
 21
177.05091135284317
  0
TEXT
  8
_1-5_
 62
    7
 10
83.120343346880304
 20
176.13012591286218
 40
2.5
 41
1
 50
0
  1
桟瓦
  0
LINE
  8
_1-6_
  6
CONTINUOUS
 62
    7
 10
193.99291744747677
 20
140.71514727618245
 11
169.99291744747677
 21
140.71514727618245
  0
LINE
  8
_1-6_
  6
CONTINUOUS
 62
    7
 10
169.99291744747677
 20
140.71514727618245
 11
169.99291744747677
 21
159.31514782512579
  0
LINE
  8
_1-6_
  6
CONTINUOUS
 62
    7
 10
193.99291744747677
 20
159.31514692685482
 11
193.99291744747677
 21
140.71514727618245
  0
LINE
  8
_1-3_
  6
CONTINUOUS
 62
    7
 10
299.10149750415974
 20
202.65973377703827
 11
304.84917816822224
 21
202.65973377703827
  0
TEXT
  8
_1-5_
 62
    7
 10
308.15816617233963
 20
194.60925440362189
 40
2.5
 41
1
 50
0
  1
瓦桟　
  0
TEXT
  8
_1-5_
 62
    7
 10
307.48742692112558
 20
201.03602128891538
 40
2.5
 41
1
 50
0
  1
桟瓦
  0
LINE
  8
_1-6_
  6
CONTINUOUS
 62
    7
 10
266.99291773724161
 20
120.89891362427014
 11
278.99291773724161
 21
120.89891362427014
  0
LINE
  8
_1-6_
  6
CONTINUOUS
 62
    7
 10
278.99291773724161
 20
120.89891362427014
 11
278.99291773724161
 21
108.89891362427014
  0
LINE
  8
_1-6_
  6
CONTINUOUS
 62
    7
 10
278.99291773724161
 20
108.89891362427014
 11
266.99291773724161
 21
108.89891362427014
  0
LINE
  8
_1-6_
  6
CONTINUOUS
 62
    7
 10
266.99291773724161
 20
108.89891362427014
 11
266.99291773724161
 21
120.89891362427014
  0
LINE
  8
_1-6_
  6
CONTINUOUS
 62
    7
 10
266.99291773724161
 20
108.89891362427014
 11
250.57849717888325
 21
133.8516344004797
  0
LINE
  8
_1-6_
  6
CONTINUOUS
 62
    7
 10
266.99291773724161
 20
120.89891362427014
 11
261.41767924936585
 21
128.97400215322705
  0
LINE
  8
_1-6_
  6
CONTINUOUS
 62
    7
 10
96.992917737241584
 20
120.89891362427014
 11
84.992917737241584
 21
120.89891362427014
  0
LINE
  8
_1-6_
  6
CONTINUOUS
 62
    7
 10
84.992917737241584
 20
120.89891362427014
 11
84.992917737241584
 21
108.89891362427014
  0
LINE
  8
_1-6_
  6
CONTINUOUS
 62
    7
 10
84.992917737241584
 20
108.89891362427014
 11
96.992917737241584
 21
108.89891362427014
  0
LINE
  8
_1-6_
  6
CONTINUOUS
 62
    7
 10
96.992917737241584
 20
108.89891362427014
 11
96.992917737241584
 21
120.89891362427014
  0
LINE
  8
_1-6_
  6
CONTINUOUS
 62
    7
 10
96.992917737241584
 20
108.89891362427014
 11
113.40733829559991
 21
133.8516344004797
  0
LINE
  8
_1-6_
  6
CONTINUOUS
 62
    7
 10
96.992917737241584
 20
120.89891362427014
 11
102.56815622511735
 21
128.97400215322705
  0
LINE
  8
_1-6_
  6
CONTINUOUS
 62
    7
 10
84.992917737241584
 20
120.89891362427014
 11
96.992917737241584
 21
108.89891362427014
  0
LINE
  8
_1-6_
  6
CONTINUOUS
 62
    7
 10
266.99291773724161
 20
108.89891362427014
 11
278.99291773724161
 21
120.89891362427014
  0
TEXT
  8
_1-6_
 62
    7
 10
323.22634713676274
 20
194.68485209632837
 40
2.5
 41
1
 50
0
  1
15×30　（樹脂桟木）
  0
TEXT
  8
_1-6_
 62
    7
 10
323.64053253187467
 20
191.50077171467717
 40
2.5
 41
1
 50
0
  1
※　地域により瓦桟木の大きさは、異なります
  0
TEXT
  8
_1-5_
 62
    7
 10
308.15972504322224
 20
184.40195309226306
 40
2.5
 41
1
 50
0
  1
流し桟
  0
TEXT
  8
_1-5_
 62
    7
 10
308.15972916721933
 20
177.40195474186189
 40
2.5
 41
1
 50
0
  1
下葺き材
  0
TEXT
  8
_1-5_
 62
    7
 10
308.15972504322224
 20
170.40195639146071
 40
2.5
 41
1
 50
0
  1
野地板
  0
TEXT
  8
_1-5_
 62
    7
 10
322.16422514879656
 20
170.40195639146071
 40
2.5
 41
1
 50
0
  1
ｔ＝12
  0
TEXT
  8
_1-3_
 62
    7
 10
308.15972091922521
 20
164.7293118536123
 40
2.5
 41
1
 50
0
  1
垂木
  0
TEXT
  8
_1-3_
 62
    7
 10
322.16422514879656
 20
164.7293118536123
 40
2.5
 41
1
 50
0
  1
60ｘ60
  0
TEXT
  8
_1-4_
 62
    7
 10
322.16422102479953
 20
177.40195474186189
 40
2.5
 41
1
 50
0
  1
ゴムアス系ルーフィング
  0
LINE
  8
_1-6_
  6
CONTINUOUS
 62
    7
 10
271.846921797005
 20
117.75124792013311
 11
285.98274468824877
 21
161.78977308131562
  0
LINE
  8
_1-6_
  6
CONTINUOUS
 62
    7
 10
285.98274468824877
 20
161.78977308131562
 11
299.10149750415974
 21
202.65973377703827
  0
LINE
  8
_1-6_
  6
CONTINUOUS
 62
    7
 10
304.84917816822224
 20
195.61425339998846
 11
296.83998528436598
 21
195.61425339998846
  0
LINE
  8
_1-6_
  6
CONTINUOUS
 62
    7
 10
304.84917816822224
 20
185.52848742204574
 11
293.60257892107575
 21
185.52848742204574
  0
LINE
  8
_1-6_
  6
CONTINUOUS
 62
    7
 10
304.84917816822224
 20
178.66456335372365
 11
291.3993440349476
 21
178.66456335372365
  0
LINE
  8
_1-6_
  6
CONTINUOUS
 62
    7
 10
304.84917816822224
 20
171.80063928540153
 11
289.19610914881957
 21
171.80063928540153
  0
LINE
  8
_1-6_
  6
CONTINUOUS
 62
    7
 10
304.84917816822224
 20
165.91727579826829
 11
287.30762210356693
 21
165.91727579826829
  0
TEXT
  8
_1-4_
 62
    7
 10
39.721903414339636
 20
15.395235628695104
 40
2.5
 41
1
 50
0
  1
隅棟　1
  0
LINE
  8
_1-6_
  6
CONTINUOUS
 62
    7
 10
130.5813928552576
 20
149.25609691722974
 11
131.81248020481419
 21
146.52032800622888
  0
LINE
  8
_1-6_
  6
CONTINUOUS
 62
    7
 10
174.67279382654141
 20
165.80748274519635
 11
170.29558336412586
 21
163.83773803710937
  0
LINE
  8
_1-6_
  6
CONTINUOUS
 62
    7
 10
130.5813928552576
 20
149.25609691722974
 11
131.81248020481419
 21
146.52032800622888
  0
LINE
  8
_1-6_
  6
CONTINUOUS
 62
    7
 10
130.5813928552576
 20
149.25609691722974
 11
131.81248020481419
 21
146.52032800622888
  0
LINE
  8
_1-6_
  6
CONTINUOUS
 62
    7
 10
130.5813928552576
 20
149.25609691722974
 11
131.81250494879646
 21
146.52032800622888
  0
LINE
  8
_1-6_
  6
CONTINUOUS
 62
    7
 10
149.14337570602831
 20
119.38427074535473
 11
194.57384676546664
 21
139.82798395930109
  0
LINE
  8
_1-6_
  6
CONTINUOUS
 62
    7
 10
169.28430918100719
 20
139.98293077623521
 11
214.88037934174409
 21
119.46468868771115
  0
TEXT
  8
_1-6_
 62
    7
 10
169.9435747793807
 20
129.29265171514845
 40
2.5
 41
1
 50
24.227719460851098
  1
250
  0
TEXT
  8
_1-6_
 62
    7
 10
190.57766819286257
 20
130.94920009149217
 40
2.5
 41
1
 50
-24.227719460851333
  1
250
  0
POINT
  8
_1-6_
 62
    7
 10
149.14337570602831
 20
119.38427074535473
  0
POINT
  8
_1-6_
 62
    7
 10
194.57384676546664
 20
139.82798395930109
  0
POINT
  8
_1-6_
 62
    7
 10
169.28430918100719
 20
139.98293077623521
  0
POINT
  8
_1-6_
 62
    7
 10
214.88037934174409
 20
119.46468868771115
  0
LINE
  8
_1-1_
  6
DASHED1
 62
    3
 10
136.5624360853472
 20
147.99983365067357
 11
181.99290507548565
 21
168.44354809697518
  0
LINE
  8
_1-1_
  6
DASHED1
 62
    3
 10
227.42483316333747
 20
147.99917705659334
 11
181.99290507548565
 21
168.44354809697518
  0
LINE
  8
_1-6_
  6
CONTINUOUS
 62
    7
 10
149.14337570602831
 20
119.38427074535473
 11
139.88164144973479
 21
139.96588998286734
  0
LINE
  8
_1-6_
  6
CONTINUOUS
 62
    7
 10
194.57384676546664
 20
139.82798395930109
 11
185.59362613301468
 21
159.78401774426823
  0
LINE
  8
_1-6_
  6
CONTINUOUS
 62
    7
 10
169.28430918100719
 20
139.98293077623521
 11
178.62973648682868
 21
160.75054815289718
  0
LINE
  8
_1-6_
  6
CONTINUOUS
 62
    7
 10
214.88037934174409
 20
119.46468868771115
 11
224.05049071069328
 21
139.84269267037541
  0
ENDSEC
  0
EOF
