  0
SECTION
  2
HEADER
  9
$ACADVER
  1
AC1009
  9
$INSBASE
 10
0
 20
0
 30
0
  9
$EXTMIN
 10
0
 20
0
  9
$EXTMAX
 10
8400
 20
5940
  9
$LIMMIN
 10
0
 20
0
  9
$LIMMAX
 10
8400
 20
5940
  9
$LTSCALE
 40
20
  0
ENDSEC
  0
SECTION
  2
TABLES
  0
TABLE
  2
LTYPE
 70
     9
  0
LTYPE
  2
CONTINUOUS
 70
    64
  3
実線
 72
    65
 73
     0
 40
0.0
  0
LTYPE
  2
DASHED1
 70
    64
  3
--  --  --  --  --  --  --  --  
 72
    65
 73
     2
 40
2.5
 49
1.25
 49
-1.25
  0
LTYPE
  2
DASHED2
 70
    64
  3
----    ----    ----    ----    
 72
    65
 73
     2
 40
5.0
 49
2.5
 49
-2.5
  0
LTYPE
  2
DASHED3
 70
    64
  3
------  ------  ------  ------  
 72
    65
 73
     2
 40
5.0
 49
3.75
 49
-1.25
  0
LTYPE
  2
CENTER1
 70
    64
  3
----- - ----- - ----- - ----- - 
 72
    65
 73
     4
 40
10.0
 49
6.25
 49
-1.25
 49
1.25
 49
-1.25
  0
LTYPE
  2
CENTER2
 70
    64
  3
----------  --  ----------  --  
 72
    65
 73
     4
 40
20.0
 49
12.5
 49
-2.5
 49
2.5
 49
-2.5
  0
LTYPE
  2
PHANTOM1
 70
    64
  3
--- - - --- - - --- - - --- - - 
 72
    65
 73
     6
 40
10.0
 49
3.25
 49
-1.25
 49
1.25
 49
-1.25
 49
1.25
 49
-1.25
  0
LTYPE
  2
PHANTOM2
 70
    64
  3
--------  -  -  --------  -  -  
 72
    65
 73
     6
 40
20.0
 49
10.0
 49
-2.5
 49
1.25
 49
-2.5
 49
1.25
 49
-2.5
  0
LTYPE
  2
DOT
 70
    64
  3
-   -   -   -   -   -   -   -   
 72
    65
 73
     2
 40
2.5
 49
0.625
 49
-1.875
  0
LTYPE
  2
DUMMY
 70
    64
  3
ダミー
 72
    65
 73
     0
 40
0.0
  0
LTYPE
  2
RAND1
 70
    64
  3
ランダム線1
 72
    65
 73
     4
 40
10.0
 49
1.0
 49
-2.0
 49
3.0
 49
-4.0
  0
LTYPE
  2
RAND2
 70
    64
  3
ランダム線2
 72
    65
 73
     4
 40
14.0
 49
2.0
 49
-3.0
 49
4.0
 49
-5.0
  0
LTYPE
  2
RAND3
 70
    64
  3
ランダム線3
 72
    65
 73
     4
 40
18.0
 49
3.0
 49
-4.0
 49
5.0
 49
-6.0
  0
LTYPE
  2
RAND4
 70
    64
  3
ランダム線4
 72
    65
 73
     4
 40
22.0
 49
4.0
 49
-5.0
 49
6.0
 49
-7.0
  0
LTYPE
  2
RAND5
 70
    64
  3
ランダム線5
 72
    65
 73
     4
 40
26.0
 49
5.0
 49
-6.0
 49
7.0
 49
-8.0
  0
LTYPE
  2
LONG1
 70
    64
  3
----------  --  ----------  --  
 72
    65
 73
     4
 40
40.0
 49
32.5
 49
-2.5
 49
2.5
 49
-2.5
  0
LTYPE
  2
LONG2
 70
    64
  3
--------  -  -  --------  -  -  
 72
    65
 73
     6
 40
40.0
 49
30.0
 49
-2.5
 49
1.25
 49
-2.5
 49
1.25
 49
-2.5
  0
LTYPE
  2
LONG3
 70
    64
  3
+++++++++++++++..+++++++++++++++
 72
    65
 73
     2
 40
40.0
 49
37.5
 49
-2.5
  0
LTYPE
  2
LONG4
 70
    64
  3
+++++++++++++++..+++++++++++++++
 72
    65
 73
     2
 40
80.0
 49
75.0
 49
-5.0
  0
LTYPE
  2
LONG5
 70
    64
  3
----------  --  ----------  --  
 72
    65
 73
     4
 40
60.0
 49
37.5
 49
-7.5
 49
7.5
 49
-7.5
  0
LTYPE
  2
dashed
 70
   64
  3
-------   -------------   ------
 72
   65
 73
    2
 40
7.5
 49
6
 49
-1.5
  0
LTYPE
  2
dashed_spaced
 70
   64
  3
----        --------        ----
 72
   65
 73
    2
 40
12
 49
6
 49
-6
  0
LTYPE
  2
long_dashed_dotted
 70
   64
  3
------------- --- --------------
 72
   65
 73
    4
 40
15.25
 49
12
 49
-1.5
 49
0.25
 49
-1.5
  0
LTYPE
  2
long_dashed_double-dotted
 70
   64
  3
----------- --- --- ------------
 72
   65
 73
    6
 40
17
 49
12
 49
-1.5
 49
0.25
 49
-1.5
 49
0.25
 49
-1.5
  0
LTYPE
  2
long_dashed_triplicate-dotted
 70
   64
  3
--------- --- --- --- ----------
 72
   65
 73
    8
 40
18.75
 49
12
 49
-1.5
 49
0.25
 49
-1.5
 49
0.25
 49
-1.5
 49
0.25
 49
-1.5
  0
LTYPE
  2
dotted
 70
   64
  3
   -       -       -       -    
 72
   65
 73
    2
 40
1.75
 49
0.25
 49
-1.5
  0
LTYPE
  2
chain
 70
   64
  3
-------------- -- --------------
 72
   65
 73
    4
 40
18.5
 49
12
 49
-1.5
 49
3.5
 49
-1.5
  0
LTYPE
  2
chain_double_dash
 70
   64
  3
------------ -- -- -------------
 72
   65
 73
    6
 40
23.5
 49
12
 49
-1.5
 49
3.5
 49
-1.5
 49
3.5
 49
-1.5
  0
LTYPE
  2
dashed_dotted
 70
   64
  3
-----------     -     ----------
 72
   65
 73
    4
 40
9.25
 49
6
 49
-1.5
 49
0.25
 49
-1.5
  0
LTYPE
  2
double-dashed_dotted
 70
   64
  3
------   -----------   -   -----
 72
   65
 73
    6
 40
16.75
 49
6
 49
-1.5
 49
6
 49
-1.5
 49
0.25
 49
-1.5
  0
LTYPE
  2
dashed_double-dotted
 70
   64
  3
---------    -    -    ---------
 72
   65
 73
    6
 40
11
 49
6
 49
-1.5
 49
0.25
 49
-1.5
 49
0.25
 49
-1.5
  0
LTYPE
  2
double-dashed_double-dotted
 70
   64
  3
-----   ---------   -   -   ----
 72
   65
 73
    8
 40
18.5
 49
6
 49
-1.5
 49
6
 49
-1.5
 49
0.25
 49
-1.5
 49
0.25
 49
-1.5
  0
LTYPE
  2
dashed_triplicate-dotted
 70
   64
  3
-------    -    -    -    ------
 72
   65
 73
    8
 40
12.75
 49
6
 49
-1.5
 49
0.25
 49
-1.5
 49
0.25
 49
-1.5
 49
0.25
 49
-1.5
  0
LTYPE
  2
double-dashed_triplicate-dotted
 70
   64
  3
-----  ---------  -  -  -  -----
 72
   65
 73
   10
 40
20.25
 49
6
 49
-1.5
 49
6
 49
-1.5
 49
0.25
 49
-1.5
 49
0.25
 49
-1.5
 49
0.25
 49
-1.5
  0
LTYPE
  2
undefined
 70
   64
  3
--------------------------------
 72
   65
 73
    0
 40
0
  0
ENDTAB
  0
TABLE
  2
STYLE
  5
3
100
AcDbSymbolTable
 70
     1
  0
STYLE
  5
10
100
AcDbSymbolTableRecord
100
AcDbTextStyleTableRecord
  2
STANDARD
 70
     0
 40
0.0
 41
1.0
 50
0.0
 71
     0
 42
0.2
  3
txt
  4
bigfont.shx
  0
STYLE
  5
26
100
AcDbSymbolTableRecord
100
AcDbTextStyleTableRecord
  2
TATEGAKI
 70
    68
 40
0.0
 41
1.0
 50
0.0
 71
     0
 42
1.0
  3
txt
  4
bigfont.shx
  0
ENDTAB
  0
TABLE
  2
LAYER
 70
    7
  0
LAYER
  2
_0-0_
 70
   64
 62
    7
  6
CONTINUOUS
  0
LAYER
  2
_0-1_
 70
   64
 62
    7
  6
CONTINUOUS
  0
LAYER
  2
_0-2_
 70
   64
 62
    7
  6
CONTINUOUS
  0
LAYER
  2
_0-3_
 70
   64
 62
    7
  6
CONTINUOUS
  0
LAYER
  2
_0-a_
 70
   64
 62
    7
  6
CONTINUOUS
  0
LAYER
  2
_1-0_
 70
   64
 62
    7
  6
CONTINUOUS
  0
LAYER
  2
ADD_LINE
 70
   64
 62
    7
  6
CONTINUOUS
  0
ENDTAB
  0
ENDSEC
  0
SECTION
  2
BLOCKS
  0
ENDSEC
  0
SECTION
  2
ENTITIES
  0
ARC
  8
_0-2_
  6
CONTINUOUS
 62
    7
 10
3960.1298972802651
 20
2417.4287665221073
 40
72.894488154230885
 50
13.791900634765625
 51
161.69851684570312
  0
TEXT
  8
_0-a_
 62
    7
 10
7321.2296126054698
 20
4723.5261515813654
 40
60
 41
1
 50
0
  1
丸冠+止め
  0
LINE
  8
_0-0_
  6
CONTINUOUS
 62
    7
 10
3434.7382000410339
 20
3172.812115653353
 11
3396.546358296946
 21
3064.3389513269176
  0
LINE
  8
_0-0_
  6
CONTINUOUS
 62
    7
 10
3193.7835277173426
 20
3277.3611318326184
 11
3155.5916859732552
 21
3168.8879675061821
  0
LINE
  8
_0-0_
  6
CONTINUOUS
 62
    7
 10
3187.6084195036606
 20
3259.8228446440626
 11
3434.7382000410339
 21
3172.812115653353
  0
LINE
  8
_0-0_
  6
CONTINUOUS
 62
    7
 10
3155.5916859732552
 20
3168.8879675061821
 11
3396.546358296946
 21
3064.3389513269176
  0
LINE
  8
_0-0_
  6
CONTINUOUS
 62
    7
 10
3187.6084195036606
 20
3259.8228446440626
 11
3155.5916859732552
 21
3168.8879675061821
  0
LINE
  8
_0-0_
  6
CONTINUOUS
 62
    7
 10
2914.6370136495643
 20
3273.4369836854476
 11
3155.5916859732552
 21
3168.8879675061821
  0
LINE
  8
_0-0_
  6
CONTINUOUS
 62
    7
 10
2946.6537471799693
 20
3364.371860823328
 11
2914.6370136495643
 21
3273.4369836854476
  0
LINE
  8
_0-0_
  6
CONTINUOUS
 62
    7
 10
2946.6537471799693
 20
3364.371860823328
 11
3193.7835277173426
 21
3277.3611318326184
  0
LINE
  8
_0-0_
  6
CONTINUOUS
 62
    7
 10
2952.8288553936522
 20
3381.9101480118834
 11
2914.6370136495643
 21
3273.4369836854476
  0
LINE
  8
_0-0_
  6
CONTINUOUS
 62
    7
 10
2946.6537471799693
 20
3364.371860823328
 11
2914.6370136495643
 21
3273.4369836854476
  0
LINE
  8
_0-0_
  6
CONTINUOUS
 62
    7
 10
2673.6823413258735
 20
3377.986247304535
 11
2914.6370136495643
 21
3273.4369836854476
  0
LINE
  8
_0-0_
  6
CONTINUOUS
 62
    7
 10
2705.6990748562789
 20
3468.920877002593
 11
2673.6823413258735
 21
3377.986247304535
  0
LINE
  8
_0-0_
  6
CONTINUOUS
 62
    7
 10
2705.6990748562789
 20
3468.920877002593
 11
2952.8288553936522
 21
3381.9101480118834
  0
LINE
  8
_0-0_
  6
CONTINUOUS
 62
    7
 10
2711.874183069961
 20
3486.4591641911488
 11
2673.6823413258735
 21
3377.986247304535
  0
LINE
  8
_0-0_
  6
CONTINUOUS
 62
    7
 10
2705.6990748562789
 20
3468.920877002593
 11
2673.6823413258735
 21
3377.986247304535
  0
LINE
  8
_0-0_
  6
CONTINUOUS
 62
    7
 10
2432.7274215623602
 20
3482.5352634838009
 11
2673.6823413258735
 21
3377.986247304535
  0
LINE
  8
_0-0_
  6
CONTINUOUS
 62
    7
 10
2464.7441550927651
 20
3573.4698931818584
 11
2432.7274215623602
 21
3482.5352634838009
  0
LINE
  8
_0-0_
  6
CONTINUOUS
 62
    7
 10
2464.7441550927651
 20
3573.4698931818584
 11
2711.874183069961
 21
3486.4591641911488
  0
LINE
  8
_0-0_
  6
CONTINUOUS
 62
    7
 10
2470.9192633064476
 20
3591.0084278102363
 11
2432.7274215623602
 21
3482.5352634838009
  0
LINE
  8
_0-0_
  6
CONTINUOUS
 62
    7
 10
2464.7441550927651
 20
3573.4698931818584
 11
2432.7274215623602
 21
3482.5352634838009
  0
LINE
  8
_0-0_
  6
CONTINUOUS
 62
    7
 10
2191.7725017988464
 20
3587.0842796630659
 11
2432.7274215623602
 21
3482.5352634838009
  0
LINE
  8
_0-0_
  6
CONTINUOUS
 62
    7
 10
2223.7897302088968
 20
3678.0191568009463
 11
2191.7725017988464
 21
3587.0842796630659
  0
LINE
  8
_0-0_
  6
CONTINUOUS
 62
    7
 10
2223.7897302088968
 20
3678.0191568009463
 11
2470.9192633064476
 21
3591.0084278102363
  0
LINE
  8
_0-0_
  6
CONTINUOUS
 62
    7
 10
2229.9643435429339
 20
3695.5574439895017
 11
2191.7725017988464
 21
3587.0842796630659
  0
LINE
  8
_0-0_
  6
CONTINUOUS
 62
    7
 10
2223.7897302088968
 20
3678.0191568009463
 11
2191.7725017988464
 21
3587.0842796630659
  0
LINE
  8
_0-0_
  6
CONTINUOUS
 62
    7
 10
1950.8180769149781
 20
3691.6332958423309
 11
2191.7725017988464
 21
3587.0842796630659
  0
LINE
  8
_0-0_
  6
CONTINUOUS
 62
    7
 10
1982.8348104453835
 20
3782.5681729802113
 11
1950.8180769149781
 21
3691.6332958423309
  0
LINE
  8
_0-0_
  6
CONTINUOUS
 62
    7
 10
1982.8348104453835
 20
3782.5681729802113
 11
2229.9643435429339
 21
3695.5574439895017
  0
LINE
  8
_0-0_
  6
CONTINUOUS
 62
    7
 10
1989.0099186590658
 20
3800.1064601687672
 11
1950.8180769149781
 21
3691.6332958423309
  0
LINE
  8
_0-0_
  6
CONTINUOUS
 62
    7
 10
1982.8348104453835
 20
3782.5681729802113
 11
1950.8180769149781
 21
3691.6332958423309
  0
LINE
  8
_0-0_
  6
CONTINUOUS
 62
    7
 10
1709.8636520311097
 20
3796.1825594614193
 11
1950.8180769149781
 21
3691.6332958423309
  0
LINE
  8
_0-0_
  6
CONTINUOUS
 62
    7
 10
1741.8803855615151
 20
3887.1171891594763
 11
1709.8636520311097
 21
3796.1825594614193
  0
LINE
  8
_0-0_
  6
CONTINUOUS
 62
    7
 10
1741.8803855615151
 20
3887.1171891594763
 11
1989.0099186590658
 21
3800.1064601687672
  0
LINE
  8
_0-0_
  6
CONTINUOUS
 62
    7
 10
1748.0549988955524
 20
3904.6557237878551
 11
1709.8636520311097
 21
3796.1825594614193
  0
LINE
  8
_0-0_
  6
CONTINUOUS
 62
    7
 10
1741.8803855615151
 20
3887.1171891594763
 11
1709.8636520311097
 21
3796.1825594614193
  0
LINE
  8
_0-0_
  6
CONTINUOUS
 62
    7
 10
1468.908732267596
 20
3900.7313282008618
 11
1709.8636520311097
 21
3796.1825594614193
  0
LINE
  8
_0-0_
  6
CONTINUOUS
 62
    7
 10
1500.9254657980018
 20
3991.6664527785642
 11
1468.908732267596
 21
3900.7313282008618
  0
LINE
  8
_0-0_
  6
CONTINUOUS
 62
    7
 10
1500.9254657980018
 20
3991.6664527785642
 11
1748.0549988955524
 21
3904.6557237878551
  0
LINE
  8
_0-0_
  6
CONTINUOUS
 62
    7
 10
1507.1005740116839
 20
4009.2044925272971
 11
1468.908732267596
 21
3900.7313282008618
  0
LINE
  8
_0-0_
  6
CONTINUOUS
 62
    7
 10
1500.9254657980018
 20
3991.6664527785642
 11
1468.908732267596
 21
3900.7313282008618
  0
LINE
  8
_0-0_
  6
CONTINUOUS
 62
    7
 10
1227.9538125040824
 20
4005.2805918199492
 11
1468.908732267596
 21
3900.7313282008618
  0
LINE
  8
_0-0_
  6
CONTINUOUS
 62
    7
 10
1259.9705460344881
 20
4096.2152215180067
 11
1227.9538125040824
 21
4005.2805918199492
  0
LINE
  8
_0-0_
  6
CONTINUOUS
 62
    7
 10
1259.9705460344881
 20
4096.2152215180067
 11
1507.1005740116839
 21
4009.2044925272971
  0
LINE
  8
_0-0_
  6
CONTINUOUS
 62
    7
 10
1266.1456542481706
 20
4113.7537561463851
 11
1227.9538125040824
 21
4005.2805918199492
  0
LINE
  8
_0-0_
  6
CONTINUOUS
 62
    7
 10
1259.9705460344881
 20
4096.2152215180067
 11
1227.9538125040824
 21
4005.2805918199492
  0
LINE
  8
_0-0_
  6
CONTINUOUS
 62
    7
 10
986.99889274056943
 20
4109.8296079992142
 11
1227.9538125040824
 21
4005.2805918199492
  0
LINE
  8
_0-0_
  6
CONTINUOUS
 62
    7
 10
1019.0161211506199
 20
4200.7644851370951
 11
986.99889274056943
 21
4109.8296079992142
  0
LINE
  8
_0-0_
  6
CONTINUOUS
 62
    7
 10
1019.0161211506199
 20
4200.7644851370951
 11
1266.1456542481706
 21
4113.7537561463851
  0
LINE
  8
_0-2_
  6
CONTINUOUS
 62
    7
 10
3770.9225625040831
 20
3107.8121486453297
 11
3749.6704510175964
 21
3120.8121420469342
  0
LINE
  8
_0-1_
  6
CONTINUOUS
 62
    7
 10
3626.8264766721577
 20
3057.8119836854476
 11
3609.3789998985085
 21
3057.8119836854476
  0
LINE
  8
_0-1_
  6
CONTINUOUS
 62
    7
 10
3620.9225625040831
 20
3107.8121486453297
 11
3609.3789998985085
 21
3057.8119836854476
  0
LINE
  8
_0-1_
  6
CONTINUOUS
 62
    7
 10
3637.6584023478331
 20
3104.7310279738767
 11
3626.8264766721577
 21
3057.8119836854476
  0
LINE
  8
_0-0_
  6
CONTINUOUS
 62
    7
 10
1019.0156262709746
 20
4200.7647325769176
 11
986.99889274056943
 21
4109.8296079992142
  0
LINE
  8
_0-0_
  6
CONTINUOUS
 62
    7
 10
1025.1907344846568
 20
4218.30277232565
 11
986.99889274056943
 21
4109.8296079992142
  0
LINE
  8
_0-0_
  6
CONTINUOUS
 62
    7
 10
1019.0156262709746
 20
4200.7647325769176
 11
986.99889274056943
 21
4109.8296079992142
  0
LINE
  8
_0-0_
  6
CONTINUOUS
 62
    7
 10
746.04446785670063
 20
4214.3788716183026
 11
986.99889274056943
 21
4109.8296079992142
  0
LINE
  8
_0-0_
  6
CONTINUOUS
 62
    7
 10
778.06120138710639
 20
4305.3135013163601
 11
746.04446785670063
 21
4214.3788716183026
  0
LINE
  8
_0-0_
  6
CONTINUOUS
 62
    7
 10
778.06120138710639
 20
4305.3135013163601
 11
1025.1907344846568
 21
4218.30277232565
  0
LINE
  8
_0-0_
  6
CONTINUOUS
 62
    7
 10
778.06120138710639
 20
4305.3135013163601
 11
746.04446785670063
 21
4214.3788716183026
  0
LINE
  8
_0-1_
  6
CONTINUOUS
 62
    7
 10
3770.9225625040831
 20
3212.3611648245947
 11
3749.6704510175964
 21
3225.3611582261992
  0
LINE
  8
_0-1_
  6
CONTINUOUS
 62
    7
 10
3626.8264766721577
 20
3162.360999864713
 11
3609.3789998985085
 21
3162.360999864713
  0
LINE
  8
_0-1_
  6
CONTINUOUS
 62
    7
 10
3620.9225625040831
 20
3212.3611648245947
 11
3609.3789998985085
 21
3162.360999864713
  0
LINE
  8
_0-1_
  6
CONTINUOUS
 62
    7
 10
3637.6584023478331
 20
3209.2800441531422
 11
3626.8264766721577
 21
3162.360999864713
  0
LINE
  8
_0-1_
  6
CONTINUOUS
 62
    7
 10
3770.9225625040831
 20
3316.9101810038596
 11
3749.6704510175964
 21
3329.9101744054642
  0
LINE
  8
_0-1_
  6
CONTINUOUS
 62
    7
 10
3626.8264766721577
 20
3266.910016043978
 11
3609.3789998985085
 21
3266.910016043978
  0
LINE
  8
_0-1_
  6
CONTINUOUS
 62
    7
 10
3620.9225625040831
 20
3316.9101810038596
 11
3609.3789998985085
 21
3266.910016043978
  0
LINE
  8
_0-1_
  6
CONTINUOUS
 62
    7
 10
3637.6584023478331
 20
3313.8290603324072
 11
3626.8264766721577
 21
3266.910016043978
  0
LINE
  8
_0-1_
  6
CONTINUOUS
 62
    7
 10
3770.9225625040831
 20
3421.4591971831251
 11
3749.6704510175964
 21
3434.4591905847296
  0
LINE
  8
_0-1_
  6
CONTINUOUS
 62
    7
 10
3626.8264766721577
 20
3371.4590322232434
 11
3609.3789998985085
 21
3371.4590322232434
  0
LINE
  8
_0-1_
  6
CONTINUOUS
 62
    7
 10
3620.9225625040831
 20
3421.4591971831251
 11
3609.3789998985085
 21
3371.4590322232434
  0
LINE
  8
_0-1_
  6
CONTINUOUS
 62
    7
 10
3637.6584023478331
 20
3418.3780765116721
 11
3626.8264766721577
 21
3371.4590322232434
  0
LINE
  8
_0-1_
  6
CONTINUOUS
 62
    7
 10
3770.9225625040831
 20
3526.008460802213
 11
3749.6704510175964
 21
3539.0084542038176
  0
LINE
  8
_0-1_
  6
CONTINUOUS
 62
    7
 10
3626.8264766721577
 20
3476.0082958423309
 11
3609.3789998985085
 21
3476.0082958423309
  0
LINE
  8
_0-1_
  6
CONTINUOUS
 62
    7
 10
3620.9225625040831
 20
3526.008460802213
 11
3609.3789998985085
 21
3476.0082958423309
  0
LINE
  8
_0-1_
  6
CONTINUOUS
 62
    7
 10
3637.6584023478331
 20
3522.9273401307601
 11
3626.8264766721577
 21
3476.0082958423309
  0
LINE
  8
_0-1_
  6
CONTINUOUS
 62
    7
 10
3770.9225625040831
 20
3630.557476981478
 11
3749.6704510175964
 21
3643.5574703830825
  0
LINE
  8
_0-1_
  6
CONTINUOUS
 62
    7
 10
3626.8264766721577
 20
3580.5573120215963
 11
3609.3789998985085
 21
3580.5573120215963
  0
LINE
  8
_0-1_
  6
CONTINUOUS
 62
    7
 10
3620.9225625040831
 20
3630.557476981478
 11
3609.3789998985085
 21
3580.5573120215963
  0
LINE
  8
_0-1_
  6
CONTINUOUS
 62
    7
 10
3637.6584023478331
 20
3627.4763563100255
 11
3626.8264766721577
 21
3580.5573120215963
  0
LINE
  8
_0-1_
  6
CONTINUOUS
 62
    7
 10
3770.9225625040831
 20
3735.106493160743
 11
3749.6704510175964
 21
3748.1064865623484
  0
LINE
  8
_0-1_
  6
CONTINUOUS
 62
    7
 10
3626.8264766721577
 20
3685.1063282008613
 11
3609.3789998985085
 21
3685.1063282008613
  0
LINE
  8
_0-1_
  6
CONTINUOUS
 62
    7
 10
3620.9225625040831
 20
3735.106493160743
 11
3609.3789998985085
 21
3685.1063282008613
  0
LINE
  8
_0-1_
  6
CONTINUOUS
 62
    7
 10
3637.6584023478331
 20
3732.0253724892905
 11
3626.8264766721577
 21
3685.1063282008613
  0
LINE
  8
_0-1_
  6
CONTINUOUS
 62
    7
 10
3770.9225625040831
 20
3839.6557567798309
 11
3749.6704510175964
 21
3852.6557501814359
  0
LINE
  8
_0-1_
  6
CONTINUOUS
 62
    7
 10
3626.8264766721577
 20
3789.6555918199492
 11
3609.3789998985085
 21
3789.6555918199492
  0
LINE
  8
_0-1_
  6
CONTINUOUS
 62
    7
 10
3620.9225625040831
 20
3839.6557567798309
 11
3609.3789998985085
 21
3789.6555918199492
  0
LINE
  8
_0-1_
  6
CONTINUOUS
 62
    7
 10
3637.6584023478331
 20
3836.5746361083784
 11
3626.8264766721577
 21
3789.6555918199492
  0
LINE
  8
_0-1_
  6
CONTINUOUS
 62
    7
 10
3770.9225625040831
 20
3944.2045255192738
 11
3749.6704510175964
 21
3957.2045189208784
  0
LINE
  8
_0-1_
  6
CONTINUOUS
 62
    7
 10
3626.8264766721577
 20
3894.2043605593922
 11
3609.3789998985085
 21
3894.2043605593922
  0
LINE
  8
_0-1_
  6
CONTINUOUS
 62
    7
 10
3620.9225625040831
 20
3944.2045255192738
 11
3609.3789998985085
 21
3894.2043605593922
  0
LINE
  8
_0-1_
  6
CONTINUOUS
 62
    7
 10
3637.6584023478331
 20
3941.1234048478213
 11
3626.8264766721577
 21
3894.2043605593922
  0
LINE
  8
_0-1_
  6
CONTINUOUS
 62
    7
 10
3770.9225625040831
 20
4048.7537891383618
 11
3749.6704510175964
 21
4061.7537825399668
  0
LINE
  8
_0-1_
  6
CONTINUOUS
 62
    7
 10
3626.8264766721577
 20
3998.7536241784801
 11
3609.3789998985085
 21
3998.7536241784801
  0
LINE
  8
_0-1_
  6
CONTINUOUS
 62
    7
 10
3620.9225625040831
 20
4048.7537891383618
 11
3609.3789998985085
 21
3998.7536241784801
  0
LINE
  8
_0-1_
  6
CONTINUOUS
 62
    7
 10
3637.6584023478331
 20
4045.6726684669088
 11
3626.8264766721577
 21
3998.7536241784801
  0
LINE
  8
_0-1_
  6
CONTINUOUS
 62
    7
 10
3770.9225625040831
 20
4153.3028053176267
 11
3749.6704510175964
 21
4166.3027987192318
  0
LINE
  8
_0-1_
  6
CONTINUOUS
 62
    7
 10
3626.8264766721577
 20
4103.3026403577451
 11
3609.3789998985085
 21
4103.3026403577451
  0
LINE
  8
_0-1_
  6
CONTINUOUS
 62
    7
 10
3620.9225625040831
 20
4153.3028053176267
 11
3609.3789998985085
 21
4103.3026403577451
  0
LINE
  8
_0-1_
  6
CONTINUOUS
 62
    7
 10
3637.6584023478331
 20
4150.2216846461743
 11
3626.8264766721577
 21
4103.3026403577451
  0
LINE
  8
_0-1_
  6
CONTINUOUS
 62
    7
 10
3626.8264766721577
 20
4207.8519039768325
 11
3609.3789998985085
 21
4207.8519039768325
  0
LINE
  8
_0-1_
  6
CONTINUOUS
 62
    7
 10
3620.9225625040831
 20
4257.8520689367142
 11
3609.3789998985085
 21
4207.8519039768325
  0
LINE
  8
_0-1_
  6
CONTINUOUS
 62
    7
 10
3637.6584023478331
 20
4254.7709482652617
 11
3626.8264766721577
 21
4207.8519039768325
  0
LINE
  8
_0-1_
  6
CONTINUOUS
 62
    7
 10
3626.8264766721577
 20
3162.360999864713
 11
3609.3789998985085
 21
3057.8119836854476
  0
LINE
  8
_0-1_
  6
CONTINUOUS
 62
    7
 10
3749.6704510175964
 20
3225.3611582261992
 11
3770.9225625040831
 21
3107.8123960851517
  0
LINE
  8
_0-1_
  6
CONTINUOUS
 62
    7
 10
3626.8264766721577
 20
3266.910016043978
 11
3609.3789998985085
 21
3162.360999864713
  0
LINE
  8
_0-1_
  6
CONTINUOUS
 62
    7
 10
3749.6704510175964
 20
3329.9101744054642
 11
3770.9225625040831
 21
3212.3614122644176
  0
LINE
  8
_0-1_
  6
CONTINUOUS
 62
    7
 10
3626.8264766721577
 20
3371.4590322232434
 11
3609.3789998985085
 21
3266.910016043978
  0
LINE
  8
_0-1_
  6
CONTINUOUS
 62
    7
 10
3749.6704510175964
 20
3434.4591905847296
 11
3770.9225625040831
 21
3316.9101810038596
  0
LINE
  8
_0-1_
  6
CONTINUOUS
 62
    7
 10
3749.6704510175964
 20
3539.0087016436405
 11
3770.9225625040831
 21
3421.4594446229476
  0
LINE
  8
_0-1_
  6
CONTINUOUS
 62
    7
 10
3626.8264766721577
 20
3476.0082958423309
 11
3609.3789998985085
 21
3371.4590322232434
  0
LINE
  8
_0-1_
  6
CONTINUOUS
 62
    7
 10
3626.8264766721577
 20
3580.5573120215963
 11
3609.3789998985085
 21
3476.0082958423309
  0
LINE
  8
_0-1_
  6
CONTINUOUS
 62
    7
 10
3749.6704510175964
 20
3643.5577178229055
 11
3770.9225625040831
 21
3526.0087082420359
  0
LINE
  8
_0-1_
  6
CONTINUOUS
 62
    7
 10
3626.8264766721577
 20
3685.1063282008613
 11
3609.3789998985085
 21
3580.5573120215963
  0
LINE
  8
_0-1_
  6
CONTINUOUS
 62
    7
 10
3749.6704510175964
 20
3748.1067340021709
 11
3770.9225625040831
 21
3630.5577244213009
  0
LINE
  8
_0-1_
  6
CONTINUOUS
 62
    7
 10
3626.8264766721577
 20
3789.6555918199492
 11
3609.3789998985085
 21
3685.1063282008613
  0
LINE
  8
_0-1_
  6
CONTINUOUS
 62
    7
 10
3749.6704510175964
 20
3852.6557501814359
 11
3770.9225625040831
 21
3735.1067406005659
  0
LINE
  8
_0-1_
  6
CONTINUOUS
 62
    7
 10
3626.8264766721577
 20
3894.2043605593922
 11
3609.3789998985085
 21
3789.6555918199492
  0
LINE
  8
_0-1_
  6
CONTINUOUS
 62
    7
 10
3749.6704510175964
 20
3957.2047663607009
 11
3770.9225625040831
 21
3839.6560042196543
  0
LINE
  8
_0-1_
  6
CONTINUOUS
 62
    7
 10
3749.6704510175964
 20
4061.7540299797888
 11
3770.9225625040831
 21
3944.2047729590963
  0
LINE
  8
_0-1_
  6
CONTINUOUS
 62
    7
 10
3626.8264766721577
 20
3998.7536241784801
 11
3609.3789998985085
 21
3894.2043605593922
  0
LINE
  8
_0-1_
  6
CONTINUOUS
 62
    7
 10
3626.8264766721577
 20
4103.3026403577451
 11
3609.3789998985085
 21
3998.7536241784801
  0
LINE
  8
_0-1_
  6
CONTINUOUS
 62
    7
 10
3749.6704510175964
 20
4166.3027987192318
 11
3770.9225625040831
 21
4048.7540365781842
  0
LINE
  8
_0-1_
  6
CONTINUOUS
 62
    7
 10
3626.8264766721577
 20
4207.8519039768325
 11
3609.3789998985085
 21
4103.3026403577451
  0
LINE
  8
_0-1_
  6
CONTINUOUS
 62
    7
 10
3749.6704510175964
 20
4270.8523097781417
 11
3770.9225625040831
 21
4153.3030527574492
  0
LINE
  8
_0-2_
  6
CONTINUOUS
 62
    7
 10
3720.922397544201
 20
3134.2280817903884
 11
3730.9224305361772
 21
3134.2280817903884
  0
LINE
  8
_0-2_
  6
CONTINUOUS
 62
    7
 10
3720.922397544201
 20
3134.2280817903884
 11
3720.922397544201
 21
3119.2277848626013
  0
LINE
  8
_0-2_
  6
CONTINUOUS
 62
    7
 10
4030.9224305361772
 20
3108.715551437771
 11
4012.5119179728331
 21
3115.9927566214697
  0
LINE
  8
_0-2_
  6
CONTINUOUS
 62
    7
 10
3730.9224305361772
 20
3134.2280817903884
 11
3730.9224305361772
 21
3131.0143333740034
  0
LINE
  8
_0-2_
  6
CONTINUOUS
 62
    7
 10
4030.9224305361772
 20
3108.715551437771
 11
4012.5119179728331
 21
3115.9927566214697
  0
LINE
  8
_0-2_
  6
CONTINUOUS
 62
    7
 10
4290.9213088089818
 20
3108.715551437771
 11
4272.5107962456368
 21
3115.9927566214697
  0
LINE
  8
_0-2_
  6
CONTINUOUS
 62
    7
 10
4290.9213088089818
 20
3108.715551437771
 11
4272.5107962456368
 21
3115.9927566214697
  0
LINE
  8
_0-2_
  6
CONTINUOUS
 62
    7
 10
4240.9206489694543
 20
3134.2275869107434
 11
4250.921176841076
 21
3134.2275869107434
  0
LINE
  8
_0-2_
  6
CONTINUOUS
 62
    7
 10
4240.9206489694543
 20
3134.2275869107434
 11
4240.9206489694543
 21
3119.2272899829559
  0
LINE
  8
_0-2_
  6
CONTINUOUS
 62
    7
 10
4550.921176841076
 20
3108.7150565581251
 11
4532.5106642777318
 21
3115.9922617418242
  0
LINE
  8
_0-2_
  6
CONTINUOUS
 62
    7
 10
4250.921176841076
 20
3134.2275869107434
 11
4250.921176841076
 21
3131.0138384943584
  0
LINE
  8
_0-2_
  6
CONTINUOUS
 62
    7
 10
4550.921176841076
 20
3108.7150565581251
 11
4532.5106642777318
 21
3115.9922617418242
  0
LINE
  8
_0-2_
  6
CONTINUOUS
 62
    7
 10
4500.9205170015493
 20
3134.2270920310975
 11
4510.921044873171
 21
3134.2270920310975
  0
LINE
  8
_0-2_
  6
CONTINUOUS
 62
    7
 10
4500.9205170015493
 20
3134.2270920310975
 11
4500.9205170015493
 21
3119.2267951033109
  0
LINE
  8
_0-2_
  6
CONTINUOUS
 62
    7
 10
4810.9210448731701
 20
3108.7145616784801
 11
4792.510532309826
 21
3115.9917668621792
  0
LINE
  8
_0-2_
  6
CONTINUOUS
 62
    7
 10
4510.921044873171
 20
3134.2270920310975
 11
4510.921044873171
 21
3131.013343614713
  0
LINE
  8
_0-2_
  6
CONTINUOUS
 62
    7
 10
4810.9210448731701
 20
3108.7145616784801
 11
4792.510532309826
 21
3115.9917668621792
  0
LINE
  8
_0-2_
  6
CONTINUOUS
 62
    7
 10
4760.9203850336435
 20
3134.226597151453
 11
4770.9209129052651
 21
3134.226597151453
  0
LINE
  8
_0-2_
  6
CONTINUOUS
 62
    7
 10
4760.9203850336435
 20
3134.226597151453
 11
4760.9203850336435
 21
3119.2263002236655
  0
LINE
  8
_0-2_
  6
CONTINUOUS
 62
    7
 10
5070.9209129052651
 20
3108.7140667988342
 11
5052.5104003419201
 21
3115.9912719825338
  0
LINE
  8
_0-2_
  6
CONTINUOUS
 62
    7
 10
4770.9209129052651
 20
3134.226597151453
 11
4770.9209129052651
 21
3131.0128487350676
  0
LINE
  8
_0-2_
  6
CONTINUOUS
 62
    7
 10
5070.9209129052651
 20
3108.7140667988342
 11
5052.5104003419201
 21
3115.9912719825338
  0
LINE
  8
_0-2_
  6
CONTINUOUS
 62
    7
 10
5020.9207479453844
 20
3134.226597151453
 11
5030.9207809373602
 21
3134.226597151453
  0
LINE
  8
_0-2_
  6
CONTINUOUS
 62
    7
 10
5020.9207479453844
 20
3134.226597151453
 11
5020.9207479453844
 21
3119.2263002236655
  0
LINE
  8
_0-2_
  6
CONTINUOUS
 62
    7
 10
5330.9207809373602
 20
3108.7140667988342
 11
5312.5102683740151
 21
3115.9912719825338
  0
LINE
  8
_0-2_
  6
CONTINUOUS
 62
    7
 10
5030.9207809373602
 20
3134.226597151453
 11
5030.9207809373602
 21
3131.0128487350676
  0
LINE
  8
_0-2_
  6
CONTINUOUS
 62
    7
 10
5330.9207809373602
 20
3108.7140667988342
 11
5312.5102683740151
 21
3115.9912719825338
  0
LINE
  8
_0-2_
  6
CONTINUOUS
 62
    7
 10
5280.9191313385418
 20
3134.226597151453
 11
5290.9191643305185
 21
3134.226597151453
  0
LINE
  8
_0-2_
  6
CONTINUOUS
 62
    7
 10
5280.9191313385418
 20
3134.226597151453
 11
5280.9191313385418
 21
3119.2263002236655
  0
LINE
  8
_0-2_
  6
CONTINUOUS
 62
    7
 10
5590.9191643305185
 20
3108.7140667988342
 11
5572.5086517671753
 21
3115.9912719825338
  0
LINE
  8
_0-2_
  6
CONTINUOUS
 62
    7
 10
5290.9191643305185
 20
3134.226597151453
 11
5290.9191643305185
 21
3131.0128487350676
  0
LINE
  8
_0-2_
  6
CONTINUOUS
 62
    7
 10
5590.9191643305185
 20
3108.7140667988342
 11
5572.5086517671753
 21
3115.9912719825338
  0
LINE
  8
_0-2_
  6
CONTINUOUS
 62
    7
 10
5540.9189993706377
 20
3134.2261022718071
 11
5550.9190323626126
 21
3134.2261022718071
  0
LINE
  8
_0-2_
  6
CONTINUOUS
 62
    7
 10
5540.9189993706377
 20
3134.2261022718071
 11
5540.9189993706377
 21
3119.225805344021
  0
LINE
  8
_0-2_
  6
CONTINUOUS
 62
    7
 10
5850.9190323626126
 20
3108.7135719191892
 11
5832.5085197992685
 21
3115.9907771028884
  0
LINE
  8
_0-2_
  6
CONTINUOUS
 62
    7
 10
5550.9190323626126
 20
3134.2261022718071
 11
5550.9190323626126
 21
3131.0123538554221
  0
LINE
  8
_0-2_
  6
CONTINUOUS
 62
    7
 10
5850.9190323626126
 20
3108.7135719191892
 11
5832.5085197992685
 21
3115.9907771028884
  0
LINE
  8
_0-2_
  6
CONTINUOUS
 62
    7
 10
5800.9188674027318
 20
3134.2261022718071
 11
5810.9189003947085
 21
3134.2261022718071
  0
LINE
  8
_0-2_
  6
CONTINUOUS
 62
    7
 10
5800.9188674027318
 20
3134.2261022718071
 11
5800.9188674027318
 21
3119.225805344021
  0
LINE
  8
_0-2_
  6
CONTINUOUS
 62
    7
 10
6110.9189003947085
 20
3108.7135719191892
 11
6092.5083878313626
 21
3115.9907771028884
  0
LINE
  8
_0-2_
  6
CONTINUOUS
 62
    7
 10
5810.9189003947085
 20
3134.2261022718071
 11
5810.9189003947085
 21
3131.0123538554221
  0
LINE
  8
_0-2_
  6
CONTINUOUS
 62
    7
 10
6110.9189003947085
 20
3108.7135719191892
 11
6092.5083878313626
 21
3115.9907771028884
  0
LINE
  8
_0-2_
  6
CONTINUOUS
 62
    7
 10
6060.919230314471
 20
3134.2256073921626
 11
6070.9192633064486
 21
3134.2256073921626
  0
LINE
  8
_0-2_
  6
CONTINUOUS
 62
    7
 10
6060.919230314471
 20
3134.2256073921626
 11
6060.919230314471
 21
3119.2253104643751
  0
LINE
  8
_0-2_
  6
CONTINUOUS
 62
    7
 10
6370.9192633064486
 20
3108.7130770395434
 11
6352.5087507431017
 21
3115.9902822232434
  0
LINE
  8
_0-2_
  6
CONTINUOUS
 62
    7
 10
6070.9192633064486
 20
3134.2256073921626
 11
6070.9192633064486
 21
3131.0118589757767
  0
LINE
  8
_0-2_
  6
CONTINUOUS
 62
    7
 10
6370.9192633064486
 20
3108.7130770395434
 11
6352.5087507431017
 21
3115.9902822232434
  0
LINE
  8
_0-2_
  6
CONTINUOUS
 62
    7
 10
6320.9195932262101
 20
3134.2251125125172
 11
6330.9196262181877
 21
3134.2251125125172
  0
LINE
  8
_0-2_
  6
CONTINUOUS
 62
    7
 10
6320.9195932262101
 20
3134.2251125125172
 11
6320.9195932262101
 21
3119.2248155847301
  0
LINE
  8
_0-2_
  6
CONTINUOUS
 62
    7
 10
6630.9196262181877
 20
3108.7125821598988
 11
6612.5091136548435
 21
3115.9897873435975
  0
LINE
  8
_0-2_
  6
CONTINUOUS
 62
    7
 10
6330.9196262181877
 20
3134.2251125125172
 11
6330.9196262181877
 21
3131.0113640961322
  0
LINE
  8
_0-2_
  6
CONTINUOUS
 62
    7
 10
6630.9196262181877
 20
3108.7125821598988
 11
6612.5091136548435
 21
3115.9897873435975
  0
LINE
  8
_0-2_
  6
CONTINUOUS
 62
    7
 10
6890.9199891299268
 20
3108.7120872802534
 11
6872.5094765665835
 21
3115.989292463953
  0
LINE
  8
_0-2_
  6
CONTINUOUS
 62
    7
 10
6890.9199891299268
 20
3108.7120872802534
 11
6872.5094765665835
 21
3115.989292463953
  0
LINE
  8
_0-2_
  6
CONTINUOUS
 62
    7
 10
6840.919824170046
 20
3134.2241227532263
 11
6850.9198571620236
 21
3134.2241227532263
  0
LINE
  8
_0-2_
  6
CONTINUOUS
 62
    7
 10
6840.919824170046
 20
3134.2241227532263
 11
6840.919824170046
 21
3119.2238258254392
  0
LINE
  8
_0-2_
  6
CONTINUOUS
 62
    7
 10
7150.9198571620236
 20
3108.7115924006084
 11
7132.5093445986768
 21
3115.9887975843071
  0
LINE
  8
_0-2_
  6
CONTINUOUS
 62
    7
 10
6850.9198571620236
 20
3134.2241227532263
 11
6850.9198571620236
 21
3131.0103743368418
  0
LINE
  8
_0-2_
  6
CONTINUOUS
 62
    7
 10
7150.9198571620236
 20
3108.7115924006084
 11
7132.5093445986768
 21
3115.9887975843071
  0
LINE
  8
_0-2_
  6
CONTINUOUS
 62
    7
 10
7120.9202530657376
 20
3114.7112657800426
 11
7120.9202530657376
 21
3098.7113119688092
  0
LINE
  8
_0-2_
  6
CONTINUOUS
 62
    7
 10
7300.9198571620236
 20
3114.7112657800426
 11
7300.9198571620236
 21
3098.7113119688092
  0
LINE
  8
_0-2_
  6
CONTINUOUS
 62
    7
 10
7270.9202530657376
 20
3107.8121486453297
 11
7292.1723645522252
 21
3120.8121420469342
  0
LINE
  8
_0-1_
  6
CONTINUOUS
 62
    7
 10
7415.0163388976653
 20
3057.8119836854476
 11
7432.4638156713127
 21
3057.8119836854476
  0
LINE
  8
_0-1_
  6
CONTINUOUS
 62
    7
 10
7420.9202530657376
 20
3107.8121486453297
 11
7432.4638156713127
 21
3057.8119836854476
  0
LINE
  8
_0-1_
  6
CONTINUOUS
 62
    7
 10
7404.1844132219876
 20
3104.7310279738767
 11
7415.0163388976653
 21
3057.8119836854476
  0
LINE
  8
_0-1_
  6
CONTINUOUS
 62
    7
 10
7270.9202530657376
 20
3212.3611648245947
 11
7292.1723645522252
 21
3225.3611582261992
  0
LINE
  8
_0-1_
  6
CONTINUOUS
 62
    7
 10
7415.0163388976653
 20
3162.360999864713
 11
7432.4638156713127
 21
3162.360999864713
  0
LINE
  8
_0-1_
  6
CONTINUOUS
 62
    7
 10
7420.9202530657376
 20
3212.3611648245947
 11
7432.4638156713127
 21
3162.360999864713
  0
LINE
  8
_0-1_
  6
CONTINUOUS
 62
    7
 10
7404.1844132219876
 20
3209.2800441531422
 11
7415.0163388976653
 21
3162.360999864713
  0
LINE
  8
_0-1_
  6
CONTINUOUS
 62
    7
 10
7270.9202530657376
 20
3316.9101810038596
 11
7292.1723645522252
 21
3329.9101744054642
  0
LINE
  8
_0-1_
  6
CONTINUOUS
 62
    7
 10
7415.0163388976653
 20
3266.910016043978
 11
7432.4638156713127
 21
3266.910016043978
  0
LINE
  8
_0-1_
  6
CONTINUOUS
 62
    7
 10
7420.9202530657376
 20
3316.9101810038596
 11
7432.4638156713127
 21
3266.910016043978
  0
LINE
  8
_0-1_
  6
CONTINUOUS
 62
    7
 10
7404.1844132219876
 20
3313.8290603324072
 11
7415.0163388976653
 21
3266.910016043978
  0
LINE
  8
_0-1_
  6
CONTINUOUS
 62
    7
 10
7270.9202530657376
 20
3421.4591971831251
 11
7292.1723645522252
 21
3434.4591905847296
  0
LINE
  8
_0-1_
  6
CONTINUOUS
 62
    7
 10
7415.0163388976653
 20
3371.4590322232434
 11
7432.4638156713127
 21
3371.4590322232434
  0
LINE
  8
_0-1_
  6
CONTINUOUS
 62
    7
 10
7420.9202530657376
 20
3421.4591971831251
 11
7432.4638156713127
 21
3371.4590322232434
  0
LINE
  8
_0-1_
  6
CONTINUOUS
 62
    7
 10
7404.1844132219876
 20
3418.3780765116721
 11
7415.0163388976653
 21
3371.4590322232434
  0
LINE
  8
_0-1_
  6
CONTINUOUS
 62
    7
 10
7270.9202530657376
 20
3526.008460802213
 11
7292.1723645522252
 21
3539.0084542038176
  0
LINE
  8
_0-1_
  6
CONTINUOUS
 62
    7
 10
7415.0163388976653
 20
3476.0082958423309
 11
7432.4638156713127
 21
3476.0082958423309
  0
LINE
  8
_0-1_
  6
CONTINUOUS
 62
    7
 10
7420.9202530657376
 20
3526.008460802213
 11
7432.4638156713127
 21
3476.0082958423309
  0
LINE
  8
_0-1_
  6
CONTINUOUS
 62
    7
 10
7404.1844132219876
 20
3522.9273401307601
 11
7415.0163388976653
 21
3476.0082958423309
  0
LINE
  8
_0-1_
  6
CONTINUOUS
 62
    7
 10
7270.9202530657376
 20
3630.557476981478
 11
7292.1723645522252
 21
3643.5574703830825
  0
LINE
  8
_0-1_
  6
CONTINUOUS
 62
    7
 10
7415.0163388976653
 20
3580.5573120215963
 11
7432.4638156713127
 21
3580.5573120215963
  0
LINE
  8
_0-1_
  6
CONTINUOUS
 62
    7
 10
7420.9202530657376
 20
3630.557476981478
 11
7432.4638156713127
 21
3580.5573120215963
  0
LINE
  8
_0-1_
  6
CONTINUOUS
 62
    7
 10
7404.1844132219876
 20
3627.4763563100255
 11
7415.0163388976653
 21
3580.5573120215963
  0
LINE
  8
_0-1_
  6
CONTINUOUS
 62
    7
 10
7270.9202530657376
 20
3735.106493160743
 11
7292.1723645522252
 21
3748.1064865623484
  0
LINE
  8
_0-1_
  6
CONTINUOUS
 62
    7
 10
7415.0163388976653
 20
3685.1063282008613
 11
7432.4638156713127
 21
3685.1063282008613
  0
LINE
  8
_0-1_
  6
CONTINUOUS
 62
    7
 10
7420.9202530657376
 20
3735.106493160743
 11
7432.4638156713127
 21
3685.1063282008613
  0
LINE
  8
_0-1_
  6
CONTINUOUS
 62
    7
 10
7404.1844132219876
 20
3732.0253724892905
 11
7415.0163388976653
 21
3685.1063282008613
  0
LINE
  8
_0-1_
  6
CONTINUOUS
 62
    7
 10
7270.9202530657376
 20
3839.6557567798309
 11
7292.1723645522252
 21
3852.6557501814359
  0
LINE
  8
_0-1_
  6
CONTINUOUS
 62
    7
 10
7415.0163388976653
 20
3789.6555918199492
 11
7432.4638156713127
 21
3789.6555918199492
  0
LINE
  8
_0-1_
  6
CONTINUOUS
 62
    7
 10
7420.9202530657376
 20
3839.6557567798309
 11
7432.4638156713127
 21
3789.6555918199492
  0
LINE
  8
_0-1_
  6
CONTINUOUS
 62
    7
 10
7404.1844132219876
 20
3836.5746361083784
 11
7415.0163388976653
 21
3789.6555918199492
  0
LINE
  8
_0-1_
  6
CONTINUOUS
 62
    7
 10
7270.9202530657376
 20
3944.2045255192738
 11
7292.1723645522252
 21
3957.2045189208784
  0
LINE
  8
_0-1_
  6
CONTINUOUS
 62
    7
 10
7415.0163388976653
 20
3894.2043605593922
 11
7432.4638156713127
 21
3894.2043605593922
  0
LINE
  8
_0-1_
  6
CONTINUOUS
 62
    7
 10
7420.9202530657376
 20
3944.2045255192738
 11
7432.4638156713127
 21
3894.2043605593922
  0
LINE
  8
_0-1_
  6
CONTINUOUS
 62
    7
 10
7404.1844132219876
 20
3941.1234048478213
 11
7415.0163388976653
 21
3894.2043605593922
  0
LINE
  8
_0-1_
  6
CONTINUOUS
 62
    7
 10
7270.9202530657376
 20
4048.7537891383618
 11
7292.1723645522252
 21
4061.7537825399668
  0
LINE
  8
_0-1_
  6
CONTINUOUS
 62
    7
 10
7415.0163388976653
 20
3998.7536241784801
 11
7432.4638156713127
 21
3998.7536241784801
  0
LINE
  8
_0-1_
  6
CONTINUOUS
 62
    7
 10
7420.9202530657376
 20
4048.7537891383618
 11
7432.4638156713127
 21
3998.7536241784801
  0
LINE
  8
_0-1_
  6
CONTINUOUS
 62
    7
 10
7404.1844132219876
 20
4045.6726684669088
 11
7415.0163388976653
 21
3998.7536241784801
  0
LINE
  8
_0-1_
  6
CONTINUOUS
 62
    7
 10
7270.9202530657376
 20
4153.3028053176267
 11
7292.1723645522252
 21
4166.3027987192318
  0
LINE
  8
_0-1_
  6
CONTINUOUS
 62
    7
 10
7415.0163388976653
 20
4103.3026403577451
 11
7432.4638156713127
 21
4103.3026403577451
  0
LINE
  8
_0-1_
  6
CONTINUOUS
 62
    7
 10
7420.9202530657376
 20
4153.3028053176267
 11
7432.4638156713127
 21
4103.3026403577451
  0
LINE
  8
_0-1_
  6
CONTINUOUS
 62
    7
 10
7404.1844132219876
 20
4150.2216846461743
 11
7415.0163388976653
 21
4103.3026403577451
  0
LINE
  8
_0-1_
  6
CONTINUOUS
 62
    7
 10
7270.9202530657376
 20
4257.8520689367142
 11
7292.1723645522252
 21
4270.8520623383192
  0
LINE
  8
_0-1_
  6
CONTINUOUS
 62
    7
 10
7415.0163388976653
 20
4207.8519039768325
 11
7432.4638156713127
 21
4207.8519039768325
  0
LINE
  8
_0-1_
  6
CONTINUOUS
 62
    7
 10
7420.9202530657376
 20
4257.8520689367142
 11
7432.4638156713127
 21
4207.8519039768325
  0
LINE
  8
_0-1_
  6
CONTINUOUS
 62
    7
 10
7404.1844132219876
 20
4254.7709482652617
 11
7415.0163388976653
 21
4207.8519039768325
  0
LINE
  8
_0-1_
  6
CONTINUOUS
 62
    7
 10
7415.0163388976653
 20
3162.360999864713
 11
7432.4638156713127
 21
3057.8119836854476
  0
LINE
  8
_0-1_
  6
CONTINUOUS
 62
    7
 10
7292.1723645522252
 20
3225.3611582261992
 11
7270.9202530657376
 21
3107.8123960851517
  0
LINE
  8
_0-1_
  6
CONTINUOUS
 62
    7
 10
7415.0163388976653
 20
3266.910016043978
 11
7432.4638156713127
 21
3162.360999864713
  0
LINE
  8
_0-1_
  6
CONTINUOUS
 62
    7
 10
7292.1723645522252
 20
3329.9101744054642
 11
7270.9202530657376
 21
3212.3614122644176
  0
LINE
  8
_0-1_
  6
CONTINUOUS
 62
    7
 10
7415.0163388976653
 20
3371.4590322232434
 11
7432.4638156713127
 21
3266.910016043978
  0
LINE
  8
_0-1_
  6
CONTINUOUS
 62
    7
 10
7292.1723645522252
 20
3434.4591905847296
 11
7270.9202530657376
 21
3316.9101810038596
  0
LINE
  8
_0-1_
  6
CONTINUOUS
 62
    7
 10
7292.1723645522252
 20
3539.0087016436405
 11
7270.9202530657376
 21
3421.4594446229476
  0
LINE
  8
_0-1_
  6
CONTINUOUS
 62
    7
 10
7415.0163388976653
 20
3476.0082958423309
 11
7432.4638156713127
 21
3371.4590322232434
  0
LINE
  8
_0-1_
  6
CONTINUOUS
 62
    7
 10
7415.0163388976653
 20
3580.5573120215963
 11
7432.4638156713127
 21
3476.0082958423309
  0
LINE
  8
_0-1_
  6
CONTINUOUS
 62
    7
 10
7292.1723645522252
 20
3643.5577178229055
 11
7270.9202530657376
 21
3526.0087082420359
  0
LINE
  8
_0-1_
  6
CONTINUOUS
 62
    7
 10
7415.0163388976653
 20
3685.1063282008613
 11
7432.4638156713127
 21
3580.5573120215963
  0
LINE
  8
_0-1_
  6
CONTINUOUS
 62
    7
 10
7292.1723645522252
 20
3748.1067340021709
 11
7270.9202530657376
 21
3630.5577244213009
  0
LINE
  8
_0-1_
  6
CONTINUOUS
 62
    7
 10
7415.0163388976653
 20
3789.6555918199492
 11
7432.4638156713127
 21
3685.1063282008613
  0
LINE
  8
_0-1_
  6
CONTINUOUS
 62
    7
 10
7292.1723645522252
 20
3852.6557501814359
 11
7270.9202530657376
 21
3735.1067406005659
  0
LINE
  8
_0-1_
  6
CONTINUOUS
 62
    7
 10
7415.0163388976653
 20
3894.2043605593922
 11
7432.4638156713127
 21
3789.6555918199492
  0
LINE
  8
_0-1_
  6
CONTINUOUS
 62
    7
 10
7292.1723645522252
 20
3957.2047663607009
 11
7270.9202530657376
 21
3839.6560042196543
  0
LINE
  8
_0-1_
  6
CONTINUOUS
 62
    7
 10
7292.1723645522252
 20
4061.7540299797888
 11
7270.9202530657376
 21
3944.2047729590963
  0
LINE
  8
_0-1_
  6
CONTINUOUS
 62
    7
 10
7415.0163388976653
 20
3998.7536241784801
 11
7432.4638156713127
 21
3894.2043605593922
  0
LINE
  8
_0-1_
  6
CONTINUOUS
 62
    7
 10
7415.0163388976653
 20
4103.3026403577451
 11
7432.4638156713127
 21
3998.7536241784801
  0
LINE
  8
_0-1_
  6
CONTINUOUS
 62
    7
 10
7292.1723645522252
 20
4166.3027987192318
 11
7270.9202530657376
 21
4048.7540365781842
  0
LINE
  8
_0-1_
  6
CONTINUOUS
 62
    7
 10
7415.0163388976653
 20
4207.8519039768325
 11
7432.4638156713127
 21
4103.3026403577451
  0
LINE
  8
_0-1_
  6
CONTINUOUS
 62
    7
 10
7292.1723645522252
 20
4270.8523097781417
 11
7270.9202530657376
 21
4153.3030527574492
  0
LINE
  8
_0-2_
  6
CONTINUOUS
 62
    7
 10
3770.9225625040831
 20
3212.3609173847717
 11
3749.6704510175964
 21
3225.3609107863767
  0
LINE
  8
_0-2_
  6
CONTINUOUS
 62
    7
 10
4030.9224305361772
 20
3213.264320177213
 11
4012.5119179728331
 21
3220.5415253609126
  0
LINE
  8
_0-2_
  6
CONTINUOUS
 62
    7
 10
4030.9224305361772
 20
3213.264320177213
 11
4012.5119179728331
 21
3220.5415253609126
  0
LINE
  8
_0-2_
  6
CONTINUOUS
 62
    7
 10
4290.9213088089818
 20
3213.264320177213
 11
4272.5107962456368
 21
3220.5415253609126
  0
LINE
  8
_0-2_
  6
CONTINUOUS
 62
    7
 10
4290.9213088089818
 20
3213.264320177213
 11
4272.5107962456368
 21
3220.5415253609126
  0
LINE
  8
_0-2_
  6
CONTINUOUS
 62
    7
 10
4550.921176841076
 20
3213.2638252975676
 11
4532.5106642777318
 21
3220.5410304812672
  0
LINE
  8
_0-2_
  6
CONTINUOUS
 62
    7
 10
4550.921176841076
 20
3213.2638252975676
 11
4532.5106642777318
 21
3220.5410304812672
  0
LINE
  8
_0-2_
  6
CONTINUOUS
 62
    7
 10
4810.9210448731701
 20
3213.2633304179221
 11
4792.510532309826
 21
3220.5405356016217
  0
LINE
  8
_0-2_
  6
CONTINUOUS
 62
    7
 10
4810.9210448731701
 20
3213.2633304179221
 11
4792.510532309826
 21
3220.5405356016217
  0
LINE
  8
_0-2_
  6
CONTINUOUS
 62
    7
 10
5070.9209129052651
 20
3213.2628355382767
 11
5052.5104003419201
 21
3220.5400407219763
  0
LINE
  8
_0-2_
  6
CONTINUOUS
 62
    7
 10
5070.9209129052651
 20
3213.2628355382767
 11
5052.5104003419201
 21
3220.5400407219763
  0
LINE
  8
_0-2_
  6
CONTINUOUS
 62
    7
 10
5330.9207809373602
 20
3213.2628355382767
 11
5312.5102683740151
 21
3220.5400407219763
  0
LINE
  8
_0-2_
  6
CONTINUOUS
 62
    7
 10
5330.9207809373602
 20
3213.2628355382767
 11
5312.5102683740151
 21
3220.5400407219763
  0
LINE
  8
_0-2_
  6
CONTINUOUS
 62
    7
 10
5590.9191643305185
 20
3213.2628355382767
 11
5572.5086517671753
 21
3220.5400407219763
  0
LINE
  8
_0-2_
  6
CONTINUOUS
 62
    7
 10
5590.9191643305185
 20
3213.2628355382767
 11
5572.5086517671753
 21
3220.5400407219763
  0
LINE
  8
_0-2_
  6
CONTINUOUS
 62
    7
 10
5850.9190323626126
 20
3213.2623406586322
 11
5832.5085197992685
 21
3220.5395458423309
  0
LINE
  8
_0-2_
  6
CONTINUOUS
 62
    7
 10
5850.9190323626126
 20
3213.2623406586322
 11
5832.5085197992685
 21
3220.5395458423309
  0
LINE
  8
_0-2_
  6
CONTINUOUS
 62
    7
 10
6110.9189003947085
 20
3213.2623406586322
 11
6092.5083878313626
 21
3220.5395458423309
  0
LINE
  8
_0-2_
  6
CONTINUOUS
 62
    7
 10
6110.9189003947085
 20
3213.2623406586322
 11
6092.5083878313626
 21
3220.5395458423309
  0
LINE
  8
_0-2_
  6
CONTINUOUS
 62
    7
 10
6370.9192633064486
 20
3213.2618457789863
 11
6352.5087507431017
 21
3220.5390509626859
  0
LINE
  8
_0-2_
  6
CONTINUOUS
 62
    7
 10
6370.9192633064486
 20
3213.2618457789863
 11
6352.5087507431017
 21
3220.5390509626859
  0
LINE
  8
_0-2_
  6
CONTINUOUS
 62
    7
 10
6630.9196262181877
 20
3213.2613508993418
 11
6612.5091136548435
 21
3220.5385560830405
  0
LINE
  8
_0-2_
  6
CONTINUOUS
 62
    7
 10
6630.9196262181877
 20
3213.2613508993418
 11
6612.5091136548435
 21
3220.5385560830405
  0
LINE
  8
_0-2_
  6
CONTINUOUS
 62
    7
 10
6890.9199891299268
 20
3213.2608560196959
 11
6872.5094765665835
 21
3220.538061203396
  0
LINE
  8
_0-2_
  6
CONTINUOUS
 62
    7
 10
6890.9199891299268
 20
3213.2608560196959
 11
6872.5094765665835
 21
3220.538061203396
  0
LINE
  8
_0-2_
  6
CONTINUOUS
 62
    7
 10
7150.9198571620236
 20
3213.2603611400509
 11
7132.5093445986768
 21
3220.5375663237501
  0
LINE
  8
_0-2_
  6
CONTINUOUS
 62
    7
 10
7150.9198571620236
 20
3213.2603611400509
 11
7132.5093445986768
 21
3220.5375663237501
  0
LINE
  8
_0-2_
  6
CONTINUOUS
 62
    7
 10
7270.9202530657376
 20
3212.3609173847717
 11
7292.1723645522252
 21
3225.3609107863767
  0
LINE
  8
_0-1_
  6
CONTINUOUS
 62
    7
 10
3770.9225625040831
 20
3316.9106758835051
 11
3749.6704510175964
 21
3329.9106692851096
  0
LINE
  8
_0-1_
  6
CONTINUOUS
 62
    7
 10
7270.9202530657376
 20
3316.9106758835051
 11
7292.1723645522252
 21
3329.9106692851096
  0
LINE
  8
_0-1_
  6
CONTINUOUS
 62
    7
 10
3770.9225625040831
 20
3421.4594446229476
 11
3749.6704510175964
 21
3434.4594380245526
  0
LINE
  8
_0-1_
  6
CONTINUOUS
 62
    7
 10
7270.9202530657376
 20
3421.4594446229476
 11
7292.1723645522252
 21
3434.4594380245526
  0
LINE
  8
_0-1_
  6
CONTINUOUS
 62
    7
 10
3770.9225625040831
 20
3526.0087082420359
 11
3749.6704510175964
 21
3539.0087016436405
  0
LINE
  8
_0-1_
  6
CONTINUOUS
 62
    7
 10
7270.9202530657376
 20
3526.0087082420359
 11
7292.1723645522252
 21
3539.0087016436405
  0
LINE
  8
_0-1_
  6
CONTINUOUS
 62
    7
 10
3770.9225625040831
 20
3630.5579718611234
 11
3749.6704510175964
 21
3643.557965262728
  0
LINE
  8
_0-1_
  6
CONTINUOUS
 62
    7
 10
7270.9202530657376
 20
3630.5579718611234
 11
7292.1723645522252
 21
3643.557965262728
  0
LINE
  8
_0-1_
  6
CONTINUOUS
 62
    7
 10
3770.9225625040831
 20
3735.1067406005659
 11
3749.6704510175964
 21
3748.1067340021709
  0
LINE
  8
_0-1_
  6
CONTINUOUS
 62
    7
 10
7270.9202530657376
 20
3735.1067406005659
 11
7292.1723645522252
 21
3748.1067340021709
  0
LINE
  8
_0-1_
  6
CONTINUOUS
 62
    7
 10
3770.9225625040831
 20
3839.6562516594763
 11
3749.6704510175964
 21
3852.6562450610809
  0
LINE
  8
_0-1_
  6
CONTINUOUS
 62
    7
 10
7270.9202530657376
 20
3839.6562516594763
 11
7292.1723645522252
 21
3852.6562450610809
  0
LINE
  8
_0-1_
  6
CONTINUOUS
 62
    7
 10
3770.9225625040831
 20
3944.2047729590963
 11
3749.6704510175964
 21
3957.2047663607009
  0
LINE
  8
_0-1_
  6
CONTINUOUS
 62
    7
 10
7270.9202530657376
 20
3944.2047729590963
 11
7292.1723645522252
 21
3957.2047663607009
  0
LINE
  8
_0-1_
  6
CONTINUOUS
 62
    7
 10
3770.9225625040831
 20
4048.7540365781842
 11
3749.6704510175964
 21
4061.7540299797888
  0
LINE
  8
_0-1_
  6
CONTINUOUS
 62
    7
 10
7270.9202530657376
 20
4048.7540365781842
 11
7292.1723645522252
 21
4061.7540299797888
  0
LINE
  8
_0-1_
  6
CONTINUOUS
 62
    7
 10
3770.9225625040831
 20
4153.3030527574492
 11
3749.6704510175964
 21
4166.3030461590542
  0
LINE
  8
_0-1_
  6
CONTINUOUS
 62
    7
 10
7270.9202530657376
 20
4153.3030527574492
 11
7292.1723645522252
 21
4166.3030461590542
  0
LINE
  8
_0-1_
  6
CONTINUOUS
 62
    7
 10
7270.9202530657376
 20
4257.8525638163601
 11
7292.1723645522252
 21
4270.8525572179642
  0
LINE
  8
_0-3_
  6
CONTINUOUS
 62
    7
 10
7270.9202530657376
 20
4258.60007952054
 11
7287.1231075315318
 21
4356.8344314261576
  0
LINE
  8
_0-3_
  6
CONTINUOUS
 62
    7
 10
7432.4638156713127
 20
4207.8519039768325
 11
7412.6894148056044
 21
4356.8344314261576
  0
LINE
  8
_0-3_
  6
CONTINUOUS
 62
    7
 10
3609.3789998985085
 20
4207.8519039768325
 11
3639.9605824576302
 21
4356.8344314261576
  0
LINE
  8
_0-3_
  6
CONTINUOUS
 62
    7
 10
3770.9225625040831
 20
4258.7564614884459
 11
3756.7051651751131
 21
4356.8344314261576
  0
LINE
  8
_0-3_
  6
CONTINUOUS
 62
    7
 10
4012.5119179728331
 20
3220.5417728007346
 11
4030.9224305361772
 21
3108.715551437771
  0
LINE
  8
_0-3_
  6
CONTINUOUS
 62
    7
 10
4272.5107962456368
 20
3220.5417728007346
 11
4290.9213088089818
 21
3108.715551437771
  0
LINE
  8
_0-3_
  6
CONTINUOUS
 62
    7
 10
4532.5106642777318
 20
3220.5412779210892
 11
4550.921176841076
 21
3108.7150565581251
  0
LINE
  8
_0-3_
  6
CONTINUOUS
 62
    7
 10
4792.510532309826
 20
3220.5407830414447
 11
4810.9210448731701
 21
3108.7145616784801
  0
LINE
  8
_0-3_
  6
CONTINUOUS
 62
    7
 10
5052.5104003419201
 20
3220.5402881617988
 11
5070.9209129052651
 21
3108.7140667988342
  0
LINE
  8
_0-3_
  6
CONTINUOUS
 62
    7
 10
5312.5102683740151
 20
3220.5402881617988
 11
5330.9207809373602
 21
3108.7140667988342
  0
LINE
  8
_0-3_
  6
CONTINUOUS
 62
    7
 10
5572.5086517671753
 20
3220.5402881617988
 11
5590.9191643305185
 21
3108.7140667988342
  0
LINE
  8
_0-3_
  6
CONTINUOUS
 62
    7
 10
5832.5085197992685
 20
3220.5395458423309
 11
5850.9190323626126
 21
3108.7135719191892
  0
LINE
  8
_0-3_
  6
CONTINUOUS
 62
    7
 10
6092.5083878313626
 20
3220.5395458423309
 11
6110.9189003947085
 21
3108.7135719191892
  0
LINE
  8
_0-3_
  6
CONTINUOUS
 62
    7
 10
6352.5087507431017
 20
3220.5392984025084
 11
6370.9192633064486
 21
3108.7130770395434
  0
LINE
  8
_0-3_
  6
CONTINUOUS
 62
    7
 10
6612.5091136548435
 20
3220.5385560830405
 11
6630.9201210978335
 21
3108.7125821598988
  0
LINE
  8
_0-3_
  6
CONTINUOUS
 62
    7
 10
6872.5094765665835
 20
3220.538308643218
 11
6890.9199891299268
 21
3108.7120872802534
  0
LINE
  8
_0-3_
  6
CONTINUOUS
 62
    7
 10
7132.5093445986768
 20
3220.5375663237501
 11
7150.9198571620236
 21
3108.7128295997213
  0
LINE
  8
_0-3_
  6
CONTINUOUS
 62
    7
 10
7023.6016759436934
 20
3208.3974263058026
 11
7010.9198901539985
 21
3114.2240567692738
  0
LINE
  8
_0-3_
  6
CONTINUOUS
 62
    7
 10
3903.6037544382043
 20
3208.4013853429642
 11
3890.9229584077993
 21
3114.2280158064359
  0
LINE
  8
_0-3_
  6
CONTINUOUS
 62
    7
 10
4423.6025007431035
 20
3208.4008904633197
 11
4410.9212098330527
 21
3114.2275209267905
  0
LINE
  8
_0-3_
  6
CONTINUOUS
 62
    7
 10
4683.6023687751976
 20
3208.4003955836738
 11
4670.9205829855018
 21
3114.227026047146
  0
LINE
  8
_0-3_
  6
CONTINUOUS
 62
    7
 10
4943.6027316869386
 20
3208.3999007040293
 11
4930.9204510175969
 21
3114.2265311675001
  0
LINE
  8
_0-3_
  6
CONTINUOUS
 62
    7
 10
5203.6021048393877
 20
3208.3999007040293
 11
5190.9208139293351
 21
3114.2265311675001
  0
LINE
  8
_0-3_
  6
CONTINUOUS
 62
    7
 10
5463.600488232546
 20
3208.3999007040293
 11
5450.9191973224961
 21
3114.2265311675001
  0
LINE
  8
_0-3_
  6
CONTINUOUS
 62
    7
 10
5723.6003562646401
 20
3208.3994058243834
 11
5710.9190653545902
 21
3114.2260362878551
  0
LINE
  8
_0-3_
  6
CONTINUOUS
 62
    7
 10
5983.6007191763792
 20
3208.3994058243834
 11
5970.9189333866834
 21
3114.2260362878551
  0
LINE
  8
_0-3_
  6
CONTINUOUS
 62
    7
 10
6243.6010820881211
 20
3208.3989109447384
 11
6230.9192962984253
 21
3114.2255414082092
  0
LINE
  8
_0-3_
  6
CONTINUOUS
 62
    7
 10
6503.6014449998602
 20
3208.398416065093
 11
6490.9196592101653
 21
3114.2250465285642
  0
LINE
  8
_0-1_
  6
CONTINUOUS
 62
    7
 10
3770.9225625040831
 20
4153.3023104379818
 11
3749.6704510175964
 21
4166.3023038395859
  0
LINE
  8
_0-1_
  6
CONTINUOUS
 62
    7
 10
7270.9202530657376
 20
4153.3023104379818
 11
7292.1723645522252
 21
4166.3023038395859
  0
LINE
  8
_0-2_
  6
CONTINUOUS
 62
    7
 10
3770.9225625040831
 20
4153.3020629981584
 11
3749.6704510175964
 21
4166.3020563997634
  0
LINE
  8
_0-2_
  6
CONTINUOUS
 62
    7
 10
4030.9224305361772
 20
4154.2054657906001
 11
4012.5119179728331
 21
4161.4826709742993
  0
LINE
  8
_0-2_
  6
CONTINUOUS
 62
    7
 10
4030.9224305361772
 20
4154.2054657906001
 11
4012.5119179728331
 21
4161.4826709742993
  0
LINE
  8
_0-2_
  6
CONTINUOUS
 62
    7
 10
4290.9213088089818
 20
4154.2054657906001
 11
4272.5107962456368
 21
4161.4826709742993
  0
LINE
  8
_0-2_
  6
CONTINUOUS
 62
    7
 10
4290.9213088089818
 20
4154.2054657906001
 11
4272.5107962456368
 21
4161.4826709742993
  0
LINE
  8
_0-2_
  6
CONTINUOUS
 62
    7
 10
4550.921176841076
 20
4154.2049709109542
 11
4532.5106642777318
 21
4161.4821760946543
  0
LINE
  8
_0-2_
  6
CONTINUOUS
 62
    7
 10
4550.921176841076
 20
4154.2049709109542
 11
4532.5106642777318
 21
4161.4821760946543
  0
LINE
  8
_0-2_
  6
CONTINUOUS
 62
    7
 10
4810.9210448731701
 20
4154.2044760313092
 11
4792.510532309826
 21
4161.4816812150084
  0
LINE
  8
_0-2_
  6
CONTINUOUS
 62
    7
 10
4810.9210448731701
 20
4154.2044760313092
 11
4792.510532309826
 21
4161.4816812150084
  0
LINE
  8
_0-2_
  6
CONTINUOUS
 62
    7
 10
5070.9209129052651
 20
4154.2039811516643
 11
5052.5104003419201
 21
4161.4811863353634
  0
LINE
  8
_0-2_
  6
CONTINUOUS
 62
    7
 10
5070.9209129052651
 20
4154.2039811516643
 11
5052.5104003419201
 21
4161.4811863353634
  0
LINE
  8
_0-2_
  6
CONTINUOUS
 62
    7
 10
5330.9207809373602
 20
4154.2039811516643
 11
5312.5102683740151
 21
4161.4811863353634
  0
LINE
  8
_0-2_
  6
CONTINUOUS
 62
    7
 10
5330.9207809373602
 20
4154.2039811516643
 11
5312.5102683740151
 21
4161.4811863353634
  0
LINE
  8
_0-2_
  6
CONTINUOUS
 62
    7
 10
5590.9191643305185
 20
4154.2039811516643
 11
5572.5086517671753
 21
4161.4811863353634
  0
LINE
  8
_0-2_
  6
CONTINUOUS
 62
    7
 10
5590.9191643305185
 20
4154.2039811516643
 11
5572.5086517671753
 21
4161.4811863353634
  0
LINE
  8
_0-2_
  6
CONTINUOUS
 62
    7
 10
5850.9190323626126
 20
4154.2034862720184
 11
5832.5085197992685
 21
4161.4806914557184
  0
LINE
  8
_0-2_
  6
CONTINUOUS
 62
    7
 10
5850.9190323626126
 20
4154.2034862720184
 11
5832.5085197992685
 21
4161.4806914557184
  0
LINE
  8
_0-2_
  6
CONTINUOUS
 62
    7
 10
6110.9189003947085
 20
4154.2034862720184
 11
6092.5083878313626
 21
4161.4806914557184
  0
LINE
  8
_0-2_
  6
CONTINUOUS
 62
    7
 10
6110.9189003947085
 20
4154.2034862720184
 11
6092.5083878313626
 21
4161.4806914557184
  0
LINE
  8
_0-2_
  6
CONTINUOUS
 62
    7
 10
6370.9192633064486
 20
4154.2029913923734
 11
6352.5087507431017
 21
4161.4801965760726
  0
LINE
  8
_0-2_
  6
CONTINUOUS
 62
    7
 10
6370.9192633064486
 20
4154.2029913923734
 11
6352.5087507431017
 21
4161.4801965760726
  0
LINE
  8
_0-2_
  6
CONTINUOUS
 62
    7
 10
6630.9196262181877
 20
4154.2024965127275
 11
6612.5091136548435
 21
4161.4797016964276
  0
LINE
  8
_0-2_
  6
CONTINUOUS
 62
    7
 10
6630.9196262181877
 20
4154.2024965127275
 11
6612.5091136548435
 21
4161.4797016964276
  0
LINE
  8
_0-2_
  6
CONTINUOUS
 62
    7
 10
6890.9199891299268
 20
4154.2020016330825
 11
6872.5094765665835
 21
4161.4792068167826
  0
LINE
  8
_0-2_
  6
CONTINUOUS
 62
    7
 10
6890.9199891299268
 20
4154.2020016330825
 11
6872.5094765665835
 21
4161.4792068167826
  0
LINE
  8
_0-2_
  6
CONTINUOUS
 62
    7
 10
7150.9198571620236
 20
4154.2015067534376
 11
7132.5093445986768
 21
4161.4787119371367
  0
LINE
  8
_0-2_
  6
CONTINUOUS
 62
    7
 10
7150.9198571620236
 20
4154.2015067534376
 11
7132.5093445986768
 21
4161.4787119371367
  0
LINE
  8
_0-2_
  6
CONTINUOUS
 62
    7
 10
7270.9202530657376
 20
4153.3020629981584
 11
7292.1723645522252
 21
4166.3020563997634
  0
LINE
  8
_0-1_
  6
CONTINUOUS
 62
    7
 10
7270.9202530657376
 20
4258.7559666088009
 11
7292.1723645522252
 21
4271.7559600104059
  0
LINE
  8
_0-2_
  6
CONTINUOUS
 62
    7
 10
4030.9224305361772
 20
4259.6591219614193
 11
4012.5119179728331
 21
4266.9363271451184
  0
LINE
  8
_0-2_
  6
CONTINUOUS
 62
    7
 10
4030.9224305361772
 20
4259.6591219614193
 11
4012.5119179728331
 21
4266.9363271451184
  0
LINE
  8
_0-2_
  6
CONTINUOUS
 62
    7
 10
4290.9213088089818
 20
4259.6591219614193
 11
4272.5107962456368
 21
4266.9363271451184
  0
LINE
  8
_0-2_
  6
CONTINUOUS
 62
    7
 10
4290.9213088089818
 20
4259.6591219614193
 11
4272.5107962456368
 21
4266.9363271451184
  0
LINE
  8
_0-2_
  6
CONTINUOUS
 62
    7
 10
4550.921176841076
 20
4259.6586270817734
 11
4532.5106642777318
 21
4266.9358322654734
  0
LINE
  8
_0-2_
  6
CONTINUOUS
 62
    7
 10
4550.921176841076
 20
4259.6586270817734
 11
4532.5106642777318
 21
4266.9358322654734
  0
LINE
  8
_0-2_
  6
CONTINUOUS
 62
    7
 10
4810.9210448731701
 20
4259.6581322021284
 11
4792.510532309826
 21
4266.9353373858285
  0
LINE
  8
_0-2_
  6
CONTINUOUS
 62
    7
 10
4810.9210448731701
 20
4259.6581322021284
 11
4792.510532309826
 21
4266.9353373858285
  0
LINE
  8
_0-2_
  6
CONTINUOUS
 62
    7
 10
5070.9209129052651
 20
4259.6576373224834
 11
5052.5104003419201
 21
4266.9348425061826
  0
LINE
  8
_0-2_
  6
CONTINUOUS
 62
    7
 10
5070.9209129052651
 20
4259.6576373224834
 11
5052.5104003419201
 21
4266.9348425061826
  0
LINE
  8
_0-2_
  6
CONTINUOUS
 62
    7
 10
5330.9207809373602
 20
4259.6576373224834
 11
5312.5102683740151
 21
4266.9348425061826
  0
LINE
  8
_0-2_
  6
CONTINUOUS
 62
    7
 10
5330.9207809373602
 20
4259.6576373224834
 11
5312.5102683740151
 21
4266.9348425061826
  0
LINE
  8
_0-2_
  6
CONTINUOUS
 62
    7
 10
5590.9191643305185
 20
4259.6576373224834
 11
5572.5086517671753
 21
4266.9348425061826
  0
LINE
  8
_0-2_
  6
CONTINUOUS
 62
    7
 10
5590.9191643305185
 20
4259.6576373224834
 11
5572.5086517671753
 21
4266.9348425061826
  0
LINE
  8
_0-2_
  6
CONTINUOUS
 62
    7
 10
5850.9190323626126
 20
4259.6571424428375
 11
5832.5085197992685
 21
4266.9343476265376
  0
LINE
  8
_0-2_
  6
CONTINUOUS
 62
    7
 10
5850.9190323626126
 20
4259.6571424428375
 11
5832.5085197992685
 21
4266.9343476265376
  0
LINE
  8
_0-2_
  6
CONTINUOUS
 62
    7
 10
6110.9189003947085
 20
4259.6571424428375
 11
6092.5083878313626
 21
4266.9343476265376
  0
LINE
  8
_0-2_
  6
CONTINUOUS
 62
    7
 10
6110.9189003947085
 20
4259.6571424428375
 11
6092.5083878313626
 21
4266.9343476265376
  0
LINE
  8
_0-2_
  6
CONTINUOUS
 62
    7
 10
6370.9192633064486
 20
4259.6566475631926
 11
6352.5087507431017
 21
4266.9338527468917
  0
LINE
  8
_0-2_
  6
CONTINUOUS
 62
    7
 10
6370.9192633064486
 20
4259.6566475631926
 11
6352.5087507431017
 21
4266.9338527468917
  0
LINE
  8
_0-2_
  6
CONTINUOUS
 62
    7
 10
6630.9196262181877
 20
4259.6561526835476
 11
6612.5091136548435
 21
4266.9333578672467
  0
LINE
  8
_0-2_
  6
CONTINUOUS
 62
    7
 10
6630.9196262181877
 20
4259.6561526835476
 11
6612.5091136548435
 21
4266.9333578672467
  0
LINE
  8
_0-2_
  6
CONTINUOUS
 62
    7
 10
6890.9199891299268
 20
4259.6556578039017
 11
6872.5094765665835
 21
4266.9328629876018
  0
LINE
  8
_0-2_
  6
CONTINUOUS
 62
    7
 10
6890.9199891299268
 20
4259.6556578039017
 11
6872.5094765665835
 21
4266.9328629876018
  0
LINE
  8
_0-2_
  6
CONTINUOUS
 62
    7
 10
7150.9198571620236
 20
4259.6551629242567
 11
7132.5093445986768
 21
4266.9323681079559
  0
LINE
  8
_0-2_
  6
CONTINUOUS
 62
    7
 10
7150.9198571620236
 20
4259.6551629242567
 11
7132.5093445986768
 21
4266.9323681079559
  0
LINE
  8
_0-2_
  6
CONTINUOUS
 62
    7
 10
7270.9202530657376
 20
4258.7557191689775
 11
7292.1723645522252
 21
4271.7557125705825
  0
LINE
  8
_0-3_
  6
CONTINUOUS
 62
    7
 10
3903.6042493178497
 20
4254.7961871271709
 11
3890.9224635281539
 21
4159.717930159266
  0
LINE
  8
_0-3_
  6
CONTINUOUS
 62
    7
 10
4012.5119179728331
 20
4266.9365745849409
 11
4030.9224305361772
 21
4154.2054657906001
  0
LINE
  8
_0-3_
  6
CONTINUOUS
 62
    7
 10
4272.4192435112618
 20
4266.7574281533525
 11
4290.9213088089818
 21
4154.2054657906001
  0
LINE
  8
_0-3_
  6
CONTINUOUS
 62
    7
 10
4423.6025007431035
 20
4254.795692247525
 11
4410.9207149534077
 21
4159.7174352796201
  0
LINE
  8
_0-3_
  6
CONTINUOUS
 62
    7
 10
4532.418616663711
 20
4266.7571807135309
 11
4550.921176841076
 21
4154.2049709109542
  0
LINE
  8
_0-3_
  6
CONTINUOUS
 62
    7
 10
4683.6023687751976
 20
4254.7951973678801
 11
4670.9205829855018
 21
4159.7169403999751
  0
LINE
  8
_0-3_
  6
CONTINUOUS
 62
    7
 10
4792.418979575451
 20
4266.7566858338851
 11
4810.9210448731701
 21
4154.2044760313092
  0
LINE
  8
_0-3_
  6
CONTINUOUS
 62
    7
 10
4943.6027316869386
 20
4254.7947024882351
 11
4930.9204510175969
 21
4159.7164455203292
  0
LINE
  8
_0-3_
  6
CONTINUOUS
 62
    7
 10
5052.4188476075451
 20
4266.7566858338851
 11
5070.921407784911
 21
4154.2039811516643
  0
LINE
  8
_0-3_
  6
CONTINUOUS
 62
    7
 10
5203.6025997190318
 20
4254.7947024882351
 11
5190.9208139293351
 21
4159.7164455203292
  0
LINE
  8
_0-3_
  6
CONTINUOUS
 62
    7
 10
5312.4187156396401
 20
4266.7559435144176
 11
5330.9212758170042
 21
4154.2039811516643
  0
LINE
  8
_0-3_
  6
CONTINUOUS
 62
    7
 10
5463.600488232546
 20
4254.7947024882351
 11
5450.9191973224961
 21
4159.7164455203292
  0
LINE
  8
_0-3_
  6
CONTINUOUS
 62
    7
 10
5572.4170990328003
 20
4266.7561909542401
 11
5590.9196592101653
 21
4154.2039811516643
  0
LINE
  8
_0-3_
  6
CONTINUOUS
 62
    7
 10
5723.6008511442851
 20
4254.7942076085892
 11
5710.9190653545902
 21
4159.7159506406842
  0
LINE
  8
_0-3_
  6
CONTINUOUS
 62
    7
 10
5832.5085197992685
 20
4266.9345950663601
 11
5850.9190323626126
 21
4154.2034862720184
  0
LINE
  8
_0-3_
  6
CONTINUOUS
 62
    7
 10
5983.6007191763792
 20
4254.7942076085892
 11
5970.9189333866834
 21
4159.7159506406842
  0
LINE
  8
_0-3_
  6
CONTINUOUS
 62
    7
 10
6092.4168350969876
 20
4266.7559435144176
 11
6110.9193952743517
 21
4154.2034862720184
  0
LINE
  8
_0-3_
  6
CONTINUOUS
 62
    7
 10
6243.6010820881211
 20
4254.7937127289442
 11
6230.9192962984253
 21
4159.7154557610393
  0
LINE
  8
_0-3_
  6
CONTINUOUS
 62
    7
 10
6352.5087507431017
 20
4266.9341001867142
 11
6370.9197581860935
 21
4154.2029913923734
  0
LINE
  8
_0-3_
  6
CONTINUOUS
 62
    7
 10
6503.6009501202152
 20
4254.7932178492993
 11
6490.9196592101653
 21
4159.7149608813934
  0
LINE
  8
_0-3_
  6
CONTINUOUS
 62
    7
 10
6612.5091136548435
 20
4266.9336053070692
 11
6630.9201210978335
 21
4154.2024965127275
  0
LINE
  8
_0-3_
  6
CONTINUOUS
 62
    7
 10
6872.5094765665835
 20
4266.9331104274243
 11
6890.9199891299268
 21
4154.2020016330825
  0
LINE
  8
_0-3_
  6
CONTINUOUS
 62
    7
 10
7023.6011810640503
 20
4254.7922280900084
 11
7010.9198901539985
 21
4159.7139711221025
  0
LINE
  8
_0-3_
  6
CONTINUOUS
 62
    7
 10
7132.5093445986768
 20
4266.9326155477793
 11
7150.9203520416668
 21
4154.2015067534376
  0
LINE
  8
_0-3_
  6
CONTINUOUS
 62
    7
 10
3749.6704510175964
 20
4270.8523097781417
 11
3770.9225625040831
 21
4258.7559666088009
  0
LINE
  8
_0-1_
  6
CONTINUOUS
 62
    7
 10
3770.9225625040831
 20
3316.9101810038596
 11
3749.6704510175964
 21
3329.9101744054642
  0
LINE
  8
_0-1_
  6
CONTINUOUS
 62
    7
 10
7270.9202530657376
 20
3316.9101810038596
 11
7292.1723645522252
 21
3329.9101744054642
  0
LINE
  8
_0-2_
  6
CONTINUOUS
 62
    7
 10
3770.9225625040831
 20
3316.9099335640376
 11
3749.6704510175964
 21
3329.9099269656422
  0
LINE
  8
_0-2_
  6
CONTINUOUS
 62
    7
 10
4030.9224305361772
 20
3317.813336356478
 11
4012.5119179728331
 21
3325.0905415401776
  0
LINE
  8
_0-2_
  6
CONTINUOUS
 62
    7
 10
4030.9224305361772
 20
3317.813336356478
 11
4012.5119179728331
 21
3325.0905415401776
  0
LINE
  8
_0-2_
  6
CONTINUOUS
 62
    7
 10
4290.9213088089818
 20
3317.813336356478
 11
4272.5107962456368
 21
3325.0905415401776
  0
LINE
  8
_0-2_
  6
CONTINUOUS
 62
    7
 10
4290.9213088089818
 20
3317.813336356478
 11
4272.5107962456368
 21
3325.0905415401776
  0
LINE
  8
_0-2_
  6
CONTINUOUS
 62
    7
 10
4550.921176841076
 20
3317.8128414768335
 11
4532.5106642777318
 21
3325.0900466605322
  0
LINE
  8
_0-2_
  6
CONTINUOUS
 62
    7
 10
4550.921176841076
 20
3317.8128414768335
 11
4532.5106642777318
 21
3325.0900466605322
  0
LINE
  8
_0-2_
  6
CONTINUOUS
 62
    7
 10
4810.9210448731701
 20
3317.8123465971876
 11
4792.510532309826
 21
3325.0895517808867
  0
LINE
  8
_0-2_
  6
CONTINUOUS
 62
    7
 10
4810.9210448731701
 20
3317.8123465971876
 11
4792.510532309826
 21
3325.0895517808867
  0
LINE
  8
_0-2_
  6
CONTINUOUS
 62
    7
 10
5070.9209129052651
 20
3317.8118517175426
 11
5052.5104003419201
 21
3325.0890569012417
  0
LINE
  8
_0-2_
  6
CONTINUOUS
 62
    7
 10
5070.9209129052651
 20
3317.8118517175426
 11
5052.5104003419201
 21
3325.0890569012417
  0
LINE
  8
_0-2_
  6
CONTINUOUS
 62
    7
 10
5330.9207809373602
 20
3317.8118517175426
 11
5312.5102683740151
 21
3325.0890569012417
  0
LINE
  8
_0-2_
  6
CONTINUOUS
 62
    7
 10
5330.9207809373602
 20
3317.8118517175426
 11
5312.5102683740151
 21
3325.0890569012417
  0
LINE
  8
_0-2_
  6
CONTINUOUS
 62
    7
 10
5590.9191643305185
 20
3317.8118517175426
 11
5572.5086517671753
 21
3325.0890569012417
  0
LINE
  8
_0-2_
  6
CONTINUOUS
 62
    7
 10
5590.9191643305185
 20
3317.8118517175426
 11
5572.5086517671753
 21
3325.0890569012417
  0
LINE
  8
_0-2_
  6
CONTINUOUS
 62
    7
 10
5850.9190323626126
 20
3317.8113568378967
 11
5832.5085197992685
 21
3325.0885620215968
  0
LINE
  8
_0-2_
  6
CONTINUOUS
 62
    7
 10
5850.9190323626126
 20
3317.8113568378967
 11
5832.5085197992685
 21
3325.0885620215968
  0
LINE
  8
_0-2_
  6
CONTINUOUS
 62
    7
 10
6110.9189003947085
 20
3317.8113568378967
 11
6092.5083878313626
 21
3325.0885620215968
  0
LINE
  8
_0-2_
  6
CONTINUOUS
 62
    7
 10
6110.9189003947085
 20
3317.8113568378967
 11
6092.5083878313626
 21
3325.0885620215968
  0
LINE
  8
_0-2_
  6
CONTINUOUS
 62
    7
 10
6370.9192633064486
 20
3317.8108619582517
 11
6352.5087507431017
 21
3325.0880671419509
  0
LINE
  8
_0-2_
  6
CONTINUOUS
 62
    7
 10
6370.9192633064486
 20
3317.8108619582517
 11
6352.5087507431017
 21
3325.0880671419509
  0
LINE
  8
_0-2_
  6
CONTINUOUS
 62
    7
 10
6630.9196262181877
 20
3317.8103670786059
 11
6612.5091136548435
 21
3325.0875722623059
  0
LINE
  8
_0-2_
  6
CONTINUOUS
 62
    7
 10
6630.9196262181877
 20
3317.8103670786059
 11
6612.5091136548435
 21
3325.0875722623059
  0
LINE
  8
_0-2_
  6
CONTINUOUS
 62
    7
 10
6890.9199891299268
 20
3317.8098721989613
 11
6872.5094765665835
 21
3325.08707738266
  0
LINE
  8
_0-2_
  6
CONTINUOUS
 62
    7
 10
6890.9199891299268
 20
3317.8098721989613
 11
6872.5094765665835
 21
3325.08707738266
  0
LINE
  8
_0-2_
  6
CONTINUOUS
 62
    7
 10
7150.9198571620236
 20
3317.8093773193159
 11
7132.5093445986768
 21
3325.0865825030155
  0
LINE
  8
_0-2_
  6
CONTINUOUS
 62
    7
 10
7150.9198571620236
 20
3317.8093773193159
 11
7132.5093445986768
 21
3325.0865825030155
  0
LINE
  8
_0-2_
  6
CONTINUOUS
 62
    7
 10
7270.9202530657376
 20
3316.9099335640376
 11
7292.1723645522252
 21
3329.9099269656422
  0
LINE
  8
_0-1_
  6
CONTINUOUS
 62
    7
 10
3770.9225625040831
 20
3421.4589497433026
 11
3749.6704510175964
 21
3434.4589431449072
  0
LINE
  8
_0-1_
  6
CONTINUOUS
 62
    7
 10
7270.9202530657376
 20
3421.4589497433026
 11
7292.1723645522252
 21
3434.4589431449072
  0
LINE
  8
_0-2_
  6
CONTINUOUS
 62
    7
 10
3770.9225625040831
 20
3421.4587023034801
 11
3749.6704510175964
 21
3434.4586957050847
  0
LINE
  8
_0-2_
  6
CONTINUOUS
 62
    7
 10
4030.9224305361772
 20
3422.3621050959209
 11
4012.5119179728331
 21
3429.6393102796196
  0
LINE
  8
_0-2_
  6
CONTINUOUS
 62
    7
 10
4030.9224305361772
 20
3422.3621050959209
 11
4012.5119179728331
 21
3429.6393102796196
  0
LINE
  8
_0-2_
  6
CONTINUOUS
 62
    7
 10
4290.9213088089818
 20
3422.3621050959209
 11
4272.5107962456368
 21
3429.6393102796196
  0
LINE
  8
_0-2_
  6
CONTINUOUS
 62
    7
 10
4290.9213088089818
 20
3422.3621050959209
 11
4272.5107962456368
 21
3429.6393102796196
  0
LINE
  8
_0-2_
  6
CONTINUOUS
 62
    7
 10
4550.921176841076
 20
3422.3616102162755
 11
4532.5106642777318
 21
3429.6388153999751
  0
LINE
  8
_0-2_
  6
CONTINUOUS
 62
    7
 10
4550.921176841076
 20
3422.3616102162755
 11
4532.5106642777318
 21
3429.6388153999751
  0
LINE
  8
_0-2_
  6
CONTINUOUS
 62
    7
 10
4810.9210448731701
 20
3422.3611153366301
 11
4792.510532309826
 21
3429.6383205203297
  0
LINE
  8
_0-2_
  6
CONTINUOUS
 62
    7
 10
4810.9210448731701
 20
3422.3611153366301
 11
4792.510532309826
 21
3429.6383205203297
  0
LINE
  8
_0-2_
  6
CONTINUOUS
 62
    7
 10
5070.9209129052651
 20
3422.3606204569846
 11
5052.5104003419201
 21
3429.6378256406842
  0
LINE
  8
_0-2_
  6
CONTINUOUS
 62
    7
 10
5070.9209129052651
 20
3422.3606204569846
 11
5052.5104003419201
 21
3429.6378256406842
  0
LINE
  8
_0-2_
  6
CONTINUOUS
 62
    7
 10
5330.9207809373602
 20
3422.3606204569846
 11
5312.5102683740151
 21
3429.6378256406842
  0
LINE
  8
_0-2_
  6
CONTINUOUS
 62
    7
 10
5330.9207809373602
 20
3422.3606204569846
 11
5312.5102683740151
 21
3429.6378256406842
  0
LINE
  8
_0-2_
  6
CONTINUOUS
 62
    7
 10
5590.9191643305185
 20
3422.3606204569846
 11
5572.5086517671753
 21
3429.6378256406842
  0
LINE
  8
_0-2_
  6
CONTINUOUS
 62
    7
 10
5590.9191643305185
 20
3422.3606204569846
 11
5572.5086517671753
 21
3429.6378256406842
  0
LINE
  8
_0-2_
  6
CONTINUOUS
 62
    7
 10
5850.9190323626126
 20
3422.3601255773392
 11
5832.5085197992685
 21
3429.6373307610388
  0
LINE
  8
_0-2_
  6
CONTINUOUS
 62
    7
 10
5850.9190323626126
 20
3422.3601255773392
 11
5832.5085197992685
 21
3429.6373307610388
  0
LINE
  8
_0-2_
  6
CONTINUOUS
 62
    7
 10
6110.9189003947085
 20
3422.3601255773392
 11
6092.5083878313626
 21
3429.6373307610388
  0
LINE
  8
_0-2_
  6
CONTINUOUS
 62
    7
 10
6110.9189003947085
 20
3422.3601255773392
 11
6092.5083878313626
 21
3429.6373307610388
  0
LINE
  8
_0-2_
  6
CONTINUOUS
 62
    7
 10
6370.9192633064486
 20
3422.3596306976947
 11
6352.5087507431017
 21
3429.6368358813934
  0
LINE
  8
_0-2_
  6
CONTINUOUS
 62
    7
 10
6370.9192633064486
 20
3422.3596306976947
 11
6352.5087507431017
 21
3429.6368358813934
  0
LINE
  8
_0-2_
  6
CONTINUOUS
 62
    7
 10
6630.9196262181877
 20
3422.3591358180488
 11
6612.5091136548435
 21
3429.6363410017484
  0
LINE
  8
_0-2_
  6
CONTINUOUS
 62
    7
 10
6630.9196262181877
 20
3422.3591358180488
 11
6612.5091136548435
 21
3429.6363410017484
  0
LINE
  8
_0-2_
  6
CONTINUOUS
 62
    7
 10
6890.9199891299268
 20
3422.3586409384043
 11
6872.5094765665835
 21
3429.635846122103
  0
LINE
  8
_0-2_
  6
CONTINUOUS
 62
    7
 10
6890.9199891299268
 20
3422.3586409384043
 11
6872.5094765665835
 21
3429.635846122103
  0
LINE
  8
_0-2_
  6
CONTINUOUS
 62
    7
 10
7150.9198571620236
 20
3422.3581460587584
 11
7132.5093445986768
 21
3429.6353512424585
  0
LINE
  8
_0-2_
  6
CONTINUOUS
 62
    7
 10
7150.9198571620236
 20
3422.3581460587584
 11
7132.5093445986768
 21
3429.6353512424585
  0
LINE
  8
_0-2_
  6
CONTINUOUS
 62
    7
 10
7270.9202530657376
 20
3421.4587023034801
 11
7292.1723645522252
 21
3434.4586957050847
  0
LINE
  8
_0-1_
  6
CONTINUOUS
 62
    7
 10
3770.9225625040831
 20
3526.008460802213
 11
3749.6704510175964
 21
3539.0084542038176
  0
LINE
  8
_0-1_
  6
CONTINUOUS
 62
    7
 10
7270.9202530657376
 20
3526.008460802213
 11
7292.1723645522252
 21
3539.0084542038176
  0
LINE
  8
_0-2_
  6
CONTINUOUS
 62
    7
 10
3770.9225625040831
 20
3526.0082133623905
 11
3749.6704510175964
 21
3539.0082067639951
  0
LINE
  8
_0-2_
  6
CONTINUOUS
 62
    7
 10
4030.9224305361772
 20
3526.9116161548309
 11
4012.5119179728331
 21
3534.1888213385305
  0
LINE
  8
_0-2_
  6
CONTINUOUS
 62
    7
 10
4030.9224305361772
 20
3526.9116161548309
 11
4012.5119179728331
 21
3534.1888213385305
  0
LINE
  8
_0-2_
  6
CONTINUOUS
 62
    7
 10
4290.9213088089818
 20
3526.9116161548309
 11
4272.5107962456368
 21
3534.1888213385305
  0
LINE
  8
_0-2_
  6
CONTINUOUS
 62
    7
 10
4290.9213088089818
 20
3526.9116161548309
 11
4272.5107962456368
 21
3534.1888213385305
  0
LINE
  8
_0-2_
  6
CONTINUOUS
 62
    7
 10
4550.921176841076
 20
3526.9111212751859
 11
4532.5106642777318
 21
3534.1883264588851
  0
LINE
  8
_0-2_
  6
CONTINUOUS
 62
    7
 10
4810.9210448731701
 20
3526.9106263955405
 11
4792.510532309826
 21
3534.1878315792401
  0
LINE
  8
_0-2_
  6
CONTINUOUS
 62
    7
 10
4810.9210448731701
 20
3526.9106263955405
 11
4792.510532309826
 21
3534.1878315792401
  0
LINE
  8
_0-2_
  6
CONTINUOUS
 62
    7
 10
5070.9209129052651
 20
3526.910131515895
 11
5052.5104003419201
 21
3534.1873366995947
  0
LINE
  8
_0-2_
  6
CONTINUOUS
 62
    7
 10
5070.9209129052651
 20
3526.910131515895
 11
5052.5104003419201
 21
3534.1873366995947
  0
LINE
  8
_0-2_
  6
CONTINUOUS
 62
    7
 10
5330.9207809373602
 20
3526.910131515895
 11
5312.5102683740151
 21
3534.1873366995947
  0
LINE
  8
_0-2_
  6
CONTINUOUS
 62
    7
 10
5330.9207809373602
 20
3526.910131515895
 11
5312.5102683740151
 21
3534.1873366995947
  0
LINE
  8
_0-2_
  6
CONTINUOUS
 62
    7
 10
5590.9191643305185
 20
3526.910131515895
 11
5572.5086517671753
 21
3534.1873366995947
  0
LINE
  8
_0-2_
  6
CONTINUOUS
 62
    7
 10
5590.9191643305185
 20
3526.910131515895
 11
5572.5086517671753
 21
3534.1873366995947
  0
LINE
  8
_0-2_
  6
CONTINUOUS
 62
    7
 10
5850.9190323626126
 20
3526.9096366362501
 11
5832.5085197992685
 21
3534.1868418199492
  0
LINE
  8
_0-2_
  6
CONTINUOUS
 62
    7
 10
5850.9190323626126
 20
3526.9096366362501
 11
5832.5085197992685
 21
3534.1868418199492
  0
LINE
  8
_0-2_
  6
CONTINUOUS
 62
    7
 10
6110.9189003947085
 20
3526.9096366362501
 11
6092.5083878313626
 21
3534.1868418199492
  0
LINE
  8
_0-2_
  6
CONTINUOUS
 62
    7
 10
6110.9189003947085
 20
3526.9096366362501
 11
6092.5083878313626
 21
3534.1868418199492
  0
LINE
  8
_0-2_
  6
CONTINUOUS
 62
    7
 10
6370.9192633064486
 20
3526.9091417566051
 11
6352.5087507431017
 21
3534.1863469403042
  0
LINE
  8
_0-2_
  6
CONTINUOUS
 62
    7
 10
6370.9192633064486
 20
3526.9091417566051
 11
6352.5087507431017
 21
3534.1863469403042
  0
LINE
  8
_0-2_
  6
CONTINUOUS
 62
    7
 10
6630.9196262181877
 20
3526.9086468769597
 11
6612.5091136548435
 21
3534.1858520606588
  0
LINE
  8
_0-2_
  6
CONTINUOUS
 62
    7
 10
6630.9196262181877
 20
3526.9086468769597
 11
6612.5091136548435
 21
3534.1858520606588
  0
LINE
  8
_0-2_
  6
CONTINUOUS
 62
    7
 10
6890.9199891299268
 20
3526.9081519973142
 11
6872.5094765665835
 21
3534.1853571810134
  0
LINE
  8
_0-2_
  6
CONTINUOUS
 62
    7
 10
6890.9199891299268
 20
3526.9081519973142
 11
6872.5094765665835
 21
3534.1853571810134
  0
LINE
  8
_0-2_
  6
CONTINUOUS
 62
    7
 10
7150.9198571620236
 20
3526.9076571176693
 11
7132.5093445986768
 21
3534.184862301368
  0
LINE
  8
_0-2_
  6
CONTINUOUS
 62
    7
 10
7150.9198571620236
 20
3526.9076571176693
 11
7132.5093445986768
 21
3534.184862301368
  0
LINE
  8
_0-2_
  6
CONTINUOUS
 62
    7
 10
7270.9202530657376
 20
3526.0082133623905
 11
7292.1723645522252
 21
3539.0082067639951
  0
LINE
  8
_0-1_
  6
CONTINUOUS
 62
    7
 10
3770.9225625040831
 20
3630.557476981478
 11
3749.6704510175964
 21
3643.5574703830825
  0
LINE
  8
_0-1_
  6
CONTINUOUS
 62
    7
 10
7270.9202530657376
 20
3630.557476981478
 11
7292.1723645522252
 21
3643.5574703830825
  0
LINE
  8
_0-2_
  6
CONTINUOUS
 62
    7
 10
3770.9225625040831
 20
3630.5572295416555
 11
3749.6704510175964
 21
3643.5572229432601
  0
LINE
  8
_0-2_
  6
CONTINUOUS
 62
    7
 10
4030.9224305361772
 20
3631.4606323340963
 11
4012.5119179728331
 21
3638.7378375177959
  0
LINE
  8
_0-2_
  6
CONTINUOUS
 62
    7
 10
4030.9224305361772
 20
3631.4606323340963
 11
4012.5119179728331
 21
3638.7378375177959
  0
LINE
  8
_0-2_
  6
CONTINUOUS
 62
    7
 10
4290.9213088089818
 20
3631.4606323340963
 11
4272.5107962456368
 21
3638.7378375177959
  0
LINE
  8
_0-2_
  6
CONTINUOUS
 62
    7
 10
4290.9213088089818
 20
3631.4606323340963
 11
4272.5107962456368
 21
3638.7378375177959
  0
LINE
  8
_0-2_
  6
CONTINUOUS
 62
    7
 10
4550.921176841076
 20
3631.4601374544509
 11
4532.5106642777318
 21
3638.7373426381505
  0
LINE
  8
_0-2_
  6
CONTINUOUS
 62
    7
 10
4550.921176841076
 20
3631.4601374544509
 11
4532.5106642777318
 21
3638.7373426381505
  0
LINE
  8
_0-2_
  6
CONTINUOUS
 62
    7
 10
4810.9210448731701
 20
3631.4596425748055
 11
4792.510532309826
 21
3638.7368477585051
  0
LINE
  8
_0-2_
  6
CONTINUOUS
 62
    7
 10
4810.9210448731701
 20
3631.4596425748055
 11
4792.510532309826
 21
3638.7368477585051
  0
LINE
  8
_0-2_
  6
CONTINUOUS
 62
    7
 10
5070.9209129052651
 20
3631.4591476951609
 11
5052.5104003419201
 21
3638.7363528788596
  0
LINE
  8
_0-2_
  6
CONTINUOUS
 62
    7
 10
5070.9209129052651
 20
3631.4591476951609
 11
5052.5104003419201
 21
3638.7363528788596
  0
LINE
  8
_0-2_
  6
CONTINUOUS
 62
    7
 10
5330.9207809373602
 20
3631.4591476951609
 11
5312.5102683740151
 21
3638.7363528788596
  0
LINE
  8
_0-2_
  6
CONTINUOUS
 62
    7
 10
5330.9207809373602
 20
3631.4591476951609
 11
5312.5102683740151
 21
3638.7363528788596
  0
LINE
  8
_0-2_
  6
CONTINUOUS
 62
    7
 10
5590.9191643305185
 20
3631.4591476951609
 11
5572.5086517671753
 21
3638.7363528788596
  0
LINE
  8
_0-2_
  6
CONTINUOUS
 62
    7
 10
5590.9191643305185
 20
3631.4591476951609
 11
5572.5086517671753
 21
3638.7363528788596
  0
LINE
  8
_0-2_
  6
CONTINUOUS
 62
    7
 10
5850.9190323626126
 20
3631.4586528155155
 11
5832.5085197992685
 21
3638.7358579992142
  0
LINE
  8
_0-2_
  6
CONTINUOUS
 62
    7
 10
5850.9190323626126
 20
3631.4586528155155
 11
5832.5085197992685
 21
3638.7358579992142
  0
LINE
  8
_0-2_
  6
CONTINUOUS
 62
    7
 10
6110.9189003947085
 20
3631.4586528155155
 11
6092.5083878313626
 21
3638.7358579992142
  0
LINE
  8
_0-2_
  6
CONTINUOUS
 62
    7
 10
6110.9189003947085
 20
3631.4586528155155
 11
6092.5083878313626
 21
3638.7358579992142
  0
LINE
  8
_0-2_
  6
CONTINUOUS
 62
    7
 10
6370.9192633064486
 20
3631.4581579358701
 11
6352.5087507431017
 21
3638.7353631195692
  0
LINE
  8
_0-2_
  6
CONTINUOUS
 62
    7
 10
6370.9192633064486
 20
3631.4581579358701
 11
6352.5087507431017
 21
3638.7353631195692
  0
LINE
  8
_0-2_
  6
CONTINUOUS
 62
    7
 10
6630.9196262181877
 20
3631.4576630562251
 11
6612.5091136548435
 21
3638.7348682399238
  0
LINE
  8
_0-2_
  6
CONTINUOUS
 62
    7
 10
6630.9196262181877
 20
3631.4576630562251
 11
6612.5091136548435
 21
3638.7348682399238
  0
LINE
  8
_0-2_
  6
CONTINUOUS
 62
    7
 10
6890.9199891299268
 20
3631.4571681765797
 11
6872.5094765665835
 21
3638.7343733602793
  0
LINE
  8
_0-2_
  6
CONTINUOUS
 62
    7
 10
6890.9199891299268
 20
3631.4571681765797
 11
6872.5094765665835
 21
3638.7343733602793
  0
LINE
  8
_0-2_
  6
CONTINUOUS
 62
    7
 10
7150.9198571620236
 20
3631.4566732969342
 11
7132.5093445986768
 21
3638.7338784806338
  0
LINE
  8
_0-2_
  6
CONTINUOUS
 62
    7
 10
7150.9198571620236
 20
3631.4566732969342
 11
7132.5093445986768
 21
3638.7338784806338
  0
LINE
  8
_0-2_
  6
CONTINUOUS
 62
    7
 10
7270.9202530657376
 20
3630.5572295416555
 11
7292.1723645522252
 21
3643.5572229432601
  0
LINE
  8
_0-1_
  6
CONTINUOUS
 62
    7
 10
3770.9225625040831
 20
3735.1059982810984
 11
3749.6704510175964
 21
3748.105991682703
  0
LINE
  8
_0-1_
  6
CONTINUOUS
 62
    7
 10
7270.9202530657376
 20
3735.1059982810984
 11
7292.1723645522252
 21
3748.105991682703
  0
LINE
  8
_0-2_
  6
CONTINUOUS
 62
    7
 10
3770.9225625040831
 20
3735.1057508412755
 11
3749.6704510175964
 21
3748.1057442428801
  0
LINE
  8
_0-2_
  6
CONTINUOUS
 62
    7
 10
4030.9224305361772
 20
3736.0091536337168
 11
4012.5119179728331
 21
3743.2863588174155
  0
LINE
  8
_0-2_
  6
CONTINUOUS
 62
    7
 10
4030.9224305361772
 20
3736.0091536337168
 11
4012.5119179728331
 21
3743.2863588174155
  0
LINE
  8
_0-2_
  6
CONTINUOUS
 62
    7
 10
4290.9213088089818
 20
3736.0091536337168
 11
4272.5107962456368
 21
3743.2863588174155
  0
LINE
  8
_0-2_
  6
CONTINUOUS
 62
    7
 10
4290.9213088089818
 20
3736.0091536337168
 11
4272.5107962456368
 21
3743.2863588174155
  0
LINE
  8
_0-2_
  6
CONTINUOUS
 62
    7
 10
4550.921176841076
 20
3736.0086587540713
 11
4532.5106642777318
 21
3743.28586393777
  0
LINE
  8
_0-2_
  6
CONTINUOUS
 62
    7
 10
4550.921176841076
 20
3736.0086587540713
 11
4532.5106642777318
 21
3743.28586393777
  0
LINE
  8
_0-2_
  6
CONTINUOUS
 62
    7
 10
4810.9210448731701
 20
3736.0081638744259
 11
4792.510532309826
 21
3743.2853690581251
  0
LINE
  8
_0-2_
  6
CONTINUOUS
 62
    7
 10
4810.9210448731701
 20
3736.0081638744259
 11
4792.510532309826
 21
3743.2853690581251
  0
LINE
  8
_0-2_
  6
CONTINUOUS
 62
    7
 10
5070.9209129052651
 20
3736.0076689947805
 11
5052.5104003419201
 21
3743.2848741784801
  0
LINE
  8
_0-2_
  6
CONTINUOUS
 62
    7
 10
5070.9209129052651
 20
3736.0076689947805
 11
5052.5104003419201
 21
3743.2848741784801
  0
LINE
  8
_0-2_
  6
CONTINUOUS
 62
    7
 10
5330.9207809373602
 20
3736.0076689947805
 11
5312.5102683740151
 21
3743.2848741784801
  0
LINE
  8
_0-2_
  6
CONTINUOUS
 62
    7
 10
5330.9207809373602
 20
3736.0076689947805
 11
5312.5102683740151
 21
3743.2848741784801
  0
LINE
  8
_0-2_
  6
CONTINUOUS
 62
    7
 10
5590.9191643305185
 20
3736.0076689947805
 11
5572.5086517671753
 21
3743.2848741784801
  0
LINE
  8
_0-2_
  6
CONTINUOUS
 62
    7
 10
5590.9191643305185
 20
3736.0076689947805
 11
5572.5086517671753
 21
3743.2848741784801
  0
LINE
  8
_0-2_
  6
CONTINUOUS
 62
    7
 10
5850.9190323626126
 20
3736.0071741151351
 11
5832.5085197992685
 21
3743.2843792988347
  0
LINE
  8
_0-2_
  6
CONTINUOUS
 62
    7
 10
5850.9190323626126
 20
3736.0071741151351
 11
5832.5085197992685
 21
3743.2843792988347
  0
LINE
  8
_0-2_
  6
CONTINUOUS
 62
    7
 10
6110.9189003947085
 20
3736.0071741151351
 11
6092.5083878313626
 21
3743.2843792988347
  0
LINE
  8
_0-2_
  6
CONTINUOUS
 62
    7
 10
6110.9189003947085
 20
3736.0071741151351
 11
6092.5083878313626
 21
3743.2843792988347
  0
LINE
  8
_0-2_
  6
CONTINUOUS
 62
    7
 10
6370.9192633064486
 20
3736.0066792354901
 11
6352.5087507431017
 21
3743.2838844191892
  0
LINE
  8
_0-2_
  6
CONTINUOUS
 62
    7
 10
6370.9192633064486
 20
3736.0066792354901
 11
6352.5087507431017
 21
3743.2838844191892
  0
LINE
  8
_0-2_
  6
CONTINUOUS
 62
    7
 10
6630.9196262181877
 20
3736.0061843558447
 11
6612.5091136548435
 21
3743.2833895395443
  0
LINE
  8
_0-2_
  6
CONTINUOUS
 62
    7
 10
6630.9196262181877
 20
3736.0061843558447
 11
6612.5091136548435
 21
3743.2833895395443
  0
LINE
  8
_0-2_
  6
CONTINUOUS
 62
    7
 10
6890.9199891299268
 20
3736.0056894761992
 11
6872.5094765665835
 21
3743.2828946598988
  0
LINE
  8
_0-2_
  6
CONTINUOUS
 62
    7
 10
6890.9199891299268
 20
3736.0056894761992
 11
6872.5094765665835
 21
3743.2828946598988
  0
LINE
  8
_0-2_
  6
CONTINUOUS
 62
    7
 10
7150.9198571620236
 20
3736.0051945965542
 11
7132.5093445986768
 21
3743.2823997802534
  0
LINE
  8
_0-2_
  6
CONTINUOUS
 62
    7
 10
7150.9198571620236
 20
3736.0051945965542
 11
7132.5093445986768
 21
3743.2823997802534
  0
LINE
  8
_0-2_
  6
CONTINUOUS
 62
    7
 10
7270.9202530657376
 20
3735.1057508412755
 11
7292.1723645522252
 21
3748.1057442428801
  0
LINE
  8
_0-1_
  6
CONTINUOUS
 62
    7
 10
3770.9225625040831
 20
3839.6557567798309
 11
3749.6704510175964
 21
3852.6557501814359
  0
LINE
  8
_0-1_
  6
CONTINUOUS
 62
    7
 10
7270.9202530657376
 20
3839.6557567798309
 11
7292.1723645522252
 21
3852.6557501814359
  0
LINE
  8
_0-2_
  6
CONTINUOUS
 62
    7
 10
3770.9225625040831
 20
3839.6555093400088
 11
3749.6704510175964
 21
3852.6555027416134
  0
LINE
  8
_0-2_
  6
CONTINUOUS
 62
    7
 10
4030.9224305361772
 20
3840.5589121324492
 11
4012.5119179728331
 21
3847.8361173161488
  0
LINE
  8
_0-2_
  6
CONTINUOUS
 62
    7
 10
4030.9224305361772
 20
3840.5589121324492
 11
4012.5119179728331
 21
3847.8361173161488
  0
LINE
  8
_0-2_
  6
CONTINUOUS
 62
    7
 10
4290.9213088089818
 20
3840.5589121324492
 11
4272.5107962456368
 21
3847.8361173161488
  0
LINE
  8
_0-2_
  6
CONTINUOUS
 62
    7
 10
4290.9213088089818
 20
3840.5589121324492
 11
4272.5107962456368
 21
3847.8361173161488
  0
LINE
  8
_0-2_
  6
CONTINUOUS
 62
    7
 10
4550.921176841076
 20
3840.5584172528042
 11
4532.5106642777318
 21
3847.8356224365034
  0
LINE
  8
_0-2_
  6
CONTINUOUS
 62
    7
 10
4550.921176841076
 20
3840.5584172528042
 11
4532.5106642777318
 21
3847.8356224365034
  0
LINE
  8
_0-2_
  6
CONTINUOUS
 62
    7
 10
4810.9210448731701
 20
3840.5579223731588
 11
4792.510532309826
 21
3847.8351275568584
  0
LINE
  8
_0-2_
  6
CONTINUOUS
 62
    7
 10
4810.9210448731701
 20
3840.5579223731588
 11
4792.510532309826
 21
3847.8351275568584
  0
LINE
  8
_0-2_
  6
CONTINUOUS
 62
    7
 10
5070.9209129052651
 20
3840.5574274935134
 11
5052.5104003419201
 21
3847.834632677213
  0
LINE
  8
_0-2_
  6
CONTINUOUS
 62
    7
 10
5070.9209129052651
 20
3840.5574274935134
 11
5052.5104003419201
 21
3847.834632677213
  0
LINE
  8
_0-2_
  6
CONTINUOUS
 62
    7
 10
5330.9207809373602
 20
3840.5574274935134
 11
5312.5102683740151
 21
3847.834632677213
  0
LINE
  8
_0-2_
  6
CONTINUOUS
 62
    7
 10
5330.9207809373602
 20
3840.5574274935134
 11
5312.5102683740151
 21
3847.834632677213
  0
LINE
  8
_0-2_
  6
CONTINUOUS
 62
    7
 10
5590.9191643305185
 20
3840.5574274935134
 11
5572.5086517671753
 21
3847.834632677213
  0
LINE
  8
_0-2_
  6
CONTINUOUS
 62
    7
 10
5590.9191643305185
 20
3840.5574274935134
 11
5572.5086517671753
 21
3847.834632677213
  0
LINE
  8
_0-2_
  6
CONTINUOUS
 62
    7
 10
5850.9190323626126
 20
3840.556932613868
 11
5832.5085197992685
 21
3847.8341377975676
  0
LINE
  8
_0-2_
  6
CONTINUOUS
 62
    7
 10
5850.9190323626126
 20
3840.556932613868
 11
5832.5085197992685
 21
3847.8341377975676
  0
LINE
  8
_0-2_
  6
CONTINUOUS
 62
    7
 10
6110.9189003947085
 20
3840.556932613868
 11
6092.5083878313626
 21
3847.8341377975676
  0
LINE
  8
_0-2_
  6
CONTINUOUS
 62
    7
 10
6110.9189003947085
 20
3840.556932613868
 11
6092.5083878313626
 21
3847.8341377975676
  0
LINE
  8
_0-2_
  6
CONTINUOUS
 62
    7
 10
6370.9192633064486
 20
3840.5564377342234
 11
6352.5087507431017
 21
3847.8336429179221
  0
LINE
  8
_0-2_
  6
CONTINUOUS
 62
    7
 10
6370.9192633064486
 20
3840.5564377342234
 11
6352.5087507431017
 21
3847.8336429179221
  0
LINE
  8
_0-2_
  6
CONTINUOUS
 62
    7
 10
6630.9196262181877
 20
3840.555942854578
 11
6612.5091136548435
 21
3847.8331480382767
  0
LINE
  8
_0-2_
  6
CONTINUOUS
 62
    7
 10
6630.9196262181877
 20
3840.555942854578
 11
6612.5091136548435
 21
3847.8331480382767
  0
LINE
  8
_0-2_
  6
CONTINUOUS
 62
    7
 10
6890.9199891299268
 20
3840.5554479749326
 11
6872.5094765665835
 21
3847.8326531586317
  0
LINE
  8
_0-2_
  6
CONTINUOUS
 62
    7
 10
6890.9199891299268
 20
3840.5554479749326
 11
6872.5094765665835
 21
3847.8326531586317
  0
LINE
  8
_0-2_
  6
CONTINUOUS
 62
    7
 10
7150.9198571620236
 20
3840.5549530952876
 11
7132.5093445986768
 21
3847.8321582789868
  0
LINE
  8
_0-2_
  6
CONTINUOUS
 62
    7
 10
7150.9198571620236
 20
3840.5549530952876
 11
7132.5093445986768
 21
3847.8321582789868
  0
LINE
  8
_0-2_
  6
CONTINUOUS
 62
    7
 10
7270.9202530657376
 20
3839.6555093400088
 11
7292.1723645522252
 21
3852.6555027416134
  0
LINE
  8
_0-1_
  6
CONTINUOUS
 62
    7
 10
3770.9225625040831
 20
3944.2040306396284
 11
3749.6704510175964
 21
3957.2040240412334
  0
LINE
  8
_0-1_
  6
CONTINUOUS
 62
    7
 10
7270.9202530657376
 20
3944.2040306396284
 11
7292.1723645522252
 21
3957.2040240412334
  0
LINE
  8
_0-2_
  6
CONTINUOUS
 62
    7
 10
3770.9225625040831
 20
3944.2037831998055
 11
3749.6704510175964
 21
3957.2037766014109
  0
LINE
  8
_0-2_
  6
CONTINUOUS
 62
    7
 10
4030.9224305361772
 20
3945.1071859922467
 11
4012.5119179728331
 21
3952.3843911759463
  0
LINE
  8
_0-2_
  6
CONTINUOUS
 62
    7
 10
4030.9224305361772
 20
3945.1071859922467
 11
4012.5119179728331
 21
3952.3843911759463
  0
LINE
  8
_0-2_
  6
CONTINUOUS
 62
    7
 10
4290.9213088089818
 20
3945.1071859922467
 11
4272.5107962456368
 21
3952.3843911759463
  0
LINE
  8
_0-2_
  6
CONTINUOUS
 62
    7
 10
4290.9213088089818
 20
3945.1071859922467
 11
4272.5107962456368
 21
3952.3843911759463
  0
LINE
  8
_0-2_
  6
CONTINUOUS
 62
    7
 10
4550.921176841076
 20
3945.1066911126013
 11
4532.5106642777318
 21
3952.3838962963009
  0
LINE
  8
_0-2_
  6
CONTINUOUS
 62
    7
 10
4550.921176841076
 20
3945.1066911126013
 11
4532.5106642777318
 21
3952.3838962963009
  0
LINE
  8
_0-2_
  6
CONTINUOUS
 62
    7
 10
4810.9210448731701
 20
3945.1061962329559
 11
4792.510532309826
 21
3952.3834014166555
  0
LINE
  8
_0-2_
  6
CONTINUOUS
 62
    7
 10
4810.9210448731701
 20
3945.1061962329559
 11
4792.510532309826
 21
3952.3834014166555
  0
LINE
  8
_0-2_
  6
CONTINUOUS
 62
    7
 10
5070.9209129052651
 20
3945.1057013533109
 11
5052.5104003419201
 21
3952.3829065370101
  0
LINE
  8
_0-2_
  6
CONTINUOUS
 62
    7
 10
5070.9209129052651
 20
3945.1057013533109
 11
5052.5104003419201
 21
3952.3829065370101
  0
LINE
  8
_0-2_
  6
CONTINUOUS
 62
    7
 10
5330.9207809373602
 20
3945.1057013533109
 11
5312.5102683740151
 21
3952.3829065370101
  0
LINE
  8
_0-2_
  6
CONTINUOUS
 62
    7
 10
5330.9207809373602
 20
3945.1057013533109
 11
5312.5102683740151
 21
3952.3829065370101
  0
LINE
  8
_0-2_
  6
CONTINUOUS
 62
    7
 10
5590.9191643305185
 20
3945.1057013533109
 11
5572.5086517671753
 21
3952.3829065370101
  0
LINE
  8
_0-2_
  6
CONTINUOUS
 62
    7
 10
5590.9191643305185
 20
3945.1057013533109
 11
5572.5086517671753
 21
3952.3829065370101
  0
LINE
  8
_0-2_
  6
CONTINUOUS
 62
    7
 10
5850.9190323626126
 20
3945.1052064736655
 11
5832.5085197992685
 21
3952.3824116573651
  0
LINE
  8
_0-2_
  6
CONTINUOUS
 62
    7
 10
5850.9190323626126
 20
3945.1052064736655
 11
5832.5085197992685
 21
3952.3824116573651
  0
LINE
  8
_0-2_
  6
CONTINUOUS
 62
    7
 10
6110.9189003947085
 20
3945.1052064736655
 11
6092.5083878313626
 21
3952.3824116573651
  0
LINE
  8
_0-2_
  6
CONTINUOUS
 62
    7
 10
6110.9189003947085
 20
3945.1052064736655
 11
6092.5083878313626
 21
3952.3824116573651
  0
LINE
  8
_0-2_
  6
CONTINUOUS
 62
    7
 10
6370.9192633064486
 20
3945.10471159402
 11
6352.5087507431017
 21
3952.3819167777197
  0
LINE
  8
_0-2_
  6
CONTINUOUS
 62
    7
 10
6370.9192633064486
 20
3945.10471159402
 11
6352.5087507431017
 21
3952.3819167777197
  0
LINE
  8
_0-2_
  6
CONTINUOUS
 62
    7
 10
6630.9196262181877
 20
3945.1042167143751
 11
6612.5091136548435
 21
3952.3814218980742
  0
LINE
  8
_0-2_
  6
CONTINUOUS
 62
    7
 10
6630.9196262181877
 20
3945.1042167143751
 11
6612.5091136548435
 21
3952.3814218980742
  0
LINE
  8
_0-2_
  6
CONTINUOUS
 62
    7
 10
6890.9199891299268
 20
3945.1037218347301
 11
6872.5094765665835
 21
3952.3809270184292
  0
LINE
  8
_0-2_
  6
CONTINUOUS
 62
    7
 10
6890.9199891299268
 20
3945.1037218347301
 11
6872.5094765665835
 21
3952.3809270184292
  0
LINE
  8
_0-2_
  6
CONTINUOUS
 62
    7
 10
7150.9198571620236
 20
3945.1032269550847
 11
7132.5093445986768
 21
3952.3804321387838
  0
LINE
  8
_0-2_
  6
CONTINUOUS
 62
    7
 10
7150.9198571620236
 20
3945.1032269550847
 11
7132.5093445986768
 21
3952.3804321387838
  0
LINE
  8
_0-2_
  6
CONTINUOUS
 62
    7
 10
7270.9202530657376
 20
3944.2037831998055
 11
7292.1723645522252
 21
3957.2037766014109
  0
LINE
  8
_0-1_
  6
CONTINUOUS
 62
    7
 10
3770.9225625040831
 20
4048.7532942587168
 11
3749.6704510175964
 21
4061.7532876603213
  0
LINE
  8
_0-1_
  6
CONTINUOUS
 62
    7
 10
7270.9202530657376
 20
4048.7532942587168
 11
7292.1723645522252
 21
4061.7532876603213
  0
LINE
  8
_0-2_
  6
CONTINUOUS
 62
    7
 10
3770.9225625040831
 20
4048.7530468188934
 11
3749.6704510175964
 21
4061.7530402204984
  0
LINE
  8
_0-2_
  6
CONTINUOUS
 62
    7
 10
4030.9224305361772
 20
4049.6564496113347
 11
4012.5119179728331
 21
4056.9336547950338
  0
LINE
  8
_0-2_
  6
CONTINUOUS
 62
    7
 10
4030.9224305361772
 20
4049.6564496113347
 11
4012.5119179728331
 21
4056.9336547950338
  0
LINE
  8
_0-2_
  6
CONTINUOUS
 62
    7
 10
4290.9213088089818
 20
4049.6564496113347
 11
4272.5107962456368
 21
4056.9336547950338
  0
LINE
  8
_0-2_
  6
CONTINUOUS
 62
    7
 10
4290.9213088089818
 20
4049.6564496113347
 11
4272.5107962456368
 21
4056.9336547950338
  0
LINE
  8
_0-2_
  6
CONTINUOUS
 62
    7
 10
4550.921176841076
 20
4049.6559547316892
 11
4532.5106642777318
 21
4056.9331599153884
  0
LINE
  8
_0-2_
  6
CONTINUOUS
 62
    7
 10
4550.921176841076
 20
4049.6559547316892
 11
4532.5106642777318
 21
4056.9331599153884
  0
LINE
  8
_0-2_
  6
CONTINUOUS
 62
    7
 10
4810.9210448731701
 20
4049.6554598520443
 11
4792.510532309826
 21
4056.9326650357434
  0
LINE
  8
_0-2_
  6
CONTINUOUS
 62
    7
 10
4810.9210448731701
 20
4049.6554598520443
 11
4792.510532309826
 21
4056.9326650357434
  0
LINE
  8
_0-2_
  6
CONTINUOUS
 62
    7
 10
5070.9209129052651
 20
4049.6549649723988
 11
5052.5104003419201
 21
4056.9321701560984
  0
LINE
  8
_0-2_
  6
CONTINUOUS
 62
    7
 10
5070.9209129052651
 20
4049.6549649723988
 11
5052.5104003419201
 21
4056.9321701560984
  0
LINE
  8
_0-2_
  6
CONTINUOUS
 62
    7
 10
5330.9207809373602
 20
4049.6549649723988
 11
5312.5102683740151
 21
4056.9321701560984
  0
LINE
  8
_0-2_
  6
CONTINUOUS
 62
    7
 10
5330.9207809373602
 20
4049.6549649723988
 11
5312.5102683740151
 21
4056.9321701560984
  0
LINE
  8
_0-2_
  6
CONTINUOUS
 62
    7
 10
5590.9191643305185
 20
4049.6549649723988
 11
5572.5086517671753
 21
4056.9321701560984
  0
LINE
  8
_0-2_
  6
CONTINUOUS
 62
    7
 10
5590.9191643305185
 20
4049.6549649723988
 11
5572.5086517671753
 21
4056.9321701560984
  0
LINE
  8
_0-2_
  6
CONTINUOUS
 62
    7
 10
5850.9190323626126
 20
4049.6544700927534
 11
5832.5085197992685
 21
4056.931675276453
  0
LINE
  8
_0-2_
  6
CONTINUOUS
 62
    7
 10
5850.9190323626126
 20
4049.6544700927534
 11
5832.5085197992685
 21
4056.931675276453
  0
LINE
  8
_0-2_
  6
CONTINUOUS
 62
    7
 10
6110.9189003947085
 20
4049.6544700927534
 11
6092.5083878313626
 21
4056.931675276453
  0
LINE
  8
_0-2_
  6
CONTINUOUS
 62
    7
 10
6110.9189003947085
 20
4049.6544700927534
 11
6092.5083878313626
 21
4056.931675276453
  0
LINE
  8
_0-2_
  6
CONTINUOUS
 62
    7
 10
6370.9192633064486
 20
4049.6539752131084
 11
6352.5087507431017
 21
4056.9311803968076
  0
LINE
  8
_0-2_
  6
CONTINUOUS
 62
    7
 10
6370.9192633064486
 20
4049.6539752131084
 11
6352.5087507431017
 21
4056.9311803968076
  0
LINE
  8
_0-2_
  6
CONTINUOUS
 62
    7
 10
6630.9196262181877
 20
4049.653480333463
 11
6612.5091136548435
 21
4056.9306855171626
  0
LINE
  8
_0-2_
  6
CONTINUOUS
 62
    7
 10
6630.9196262181877
 20
4049.653480333463
 11
6612.5091136548435
 21
4056.9306855171626
  0
LINE
  8
_0-2_
  6
CONTINUOUS
 62
    7
 10
6890.9199891299268
 20
4049.6529854538176
 11
6872.5094765665835
 21
4056.9301906375172
  0
LINE
  8
_0-2_
  6
CONTINUOUS
 62
    7
 10
6890.9199891299268
 20
4049.6529854538176
 11
6872.5094765665835
 21
4056.9301906375172
  0
LINE
  8
_0-2_
  6
CONTINUOUS
 62
    7
 10
7150.9198571620236
 20
4049.6524905741721
 11
7132.5093445986768
 21
4056.9296957578717
  0
LINE
  8
_0-2_
  6
CONTINUOUS
 62
    7
 10
7150.9198571620236
 20
4049.6524905741721
 11
7132.5093445986768
 21
4056.9296957578717
  0
LINE
  8
_0-2_
  6
CONTINUOUS
 62
    7
 10
7270.9202530657376
 20
4048.7530468188934
 11
7292.1723645522252
 21
4061.7530402204984
  0
LINE
  8
_0-3_
  6
CONTINUOUS
 62
    7
 10
3903.6042493178497
 20
4149.3425309563518
 11
3890.9229584077993
 21
4055.1689139800001
  0
LINE
  8
_0-3_
  6
CONTINUOUS
 62
    7
 10
3903.6042493178497
 20
4044.7935147770863
 11
3890.9229584077993
 21
3950.6196503609126
  0
LINE
  8
_0-3_
  6
CONTINUOUS
 62
    7
 10
3903.6042493178497
 20
3940.2442511579984
 11
3890.9229584077993
 21
3846.0713765011151
  0
LINE
  8
_0-3_
  6
CONTINUOUS
 62
    7
 10
4012.5524981037452
 20
4161.2362209109542
 11
4030.9224305361772
 21
4049.6564496113347
  0
LINE
  8
_0-3_
  6
CONTINUOUS
 62
    7
 10
4012.5119179728331
 20
4056.9339022348568
 11
4030.9224305361772
 21
3945.1071859922467
  0
LINE
  8
_0-3_
  6
CONTINUOUS
 62
    7
 10
4012.5524981037452
 20
3952.1379411126013
 11
4030.9224305361772
 21
3840.5589121324492
  0
LINE
  8
_0-3_
  6
CONTINUOUS
 62
    7
 10
4272.4192435112618
 20
4161.3037719825334
 11
4290.9213088089818
 21
4049.6564496113347
  0
LINE
  8
_0-3_
  6
CONTINUOUS
 62
    7
 10
4272.4192435112618
 20
4056.7547558032684
 11
4290.9213088089818
 21
3945.1071859922467
  0
LINE
  8
_0-3_
  6
CONTINUOUS
 62
    7
 10
4272.5107962456368
 20
3952.3846386157684
 11
4290.9213088089818
 21
3840.5589121324492
  0
LINE
  8
_0-3_
  6
CONTINUOUS
 62
    7
 10
3903.6037544382043
 20
3835.6959772982009
 11
3890.9229584077993
 21
3741.5216180023817
  0
LINE
  8
_0-3_
  6
CONTINUOUS
 62
    7
 10
3903.6042493178497
 20
3731.146218799468
 11
3890.9224635281539
 21
3636.9730967027617
  0
LINE
  8
_0-3_
  6
CONTINUOUS
 62
    7
 10
3903.6042493178497
 20
3626.5976974998484
 11
3890.9224635281539
 21
3532.4240805234967
  0
LINE
  8
_0-3_
  6
CONTINUOUS
 62
    7
 10
3903.6042493178497
 20
3522.0486813205825
 11
3890.9224635281539
 21
3427.8745694645863
  0
LINE
  8
_0-3_
  6
CONTINUOUS
 62
    7
 10
3903.6042493178497
 20
3417.4991702616721
 11
3890.9224635281539
 21
3323.3258007251434
  0
LINE
  8
_0-3_
  6
CONTINUOUS
 62
    7
 10
3903.6037544382043
 20
3312.9504015222301
 11
3890.9229584077993
 21
3218.7767845458784
  0
LINE
  8
_0-3_
  6
CONTINUOUS
 62
    7
 10
4012.5119179728331
 20
3325.0907889800001
 11
4030.9224305361772
 21
3213.264320177213
  0
LINE
  8
_0-3_
  6
CONTINUOUS
 62
    7
 10
4012.5119179728331
 20
3429.6395577194426
 11
4030.9224305361772
 21
3317.813336356478
  0
LINE
  8
_0-3_
  6
CONTINUOUS
 62
    7
 10
4012.5119179728331
 20
3534.189068778353
 11
4030.9224305361772
 21
3422.3621050959209
  0
LINE
  8
_0-3_
  6
CONTINUOUS
 62
    7
 10
4012.5524981037452
 20
3638.4913874544509
 11
4030.9224305361772
 21
3526.9116161548309
  0
LINE
  8
_0-3_
  6
CONTINUOUS
 62
    7
 10
4012.5119179728331
 20
3743.2866062572384
 11
4030.9224305361772
 21
3631.4606323340963
  0
LINE
  8
_0-3_
  6
CONTINUOUS
 62
    7
 10
4012.5119179728331
 20
3847.8363647559713
 11
4030.9224305361772
 21
3736.0091536337168
  0
LINE
  8
_0-3_
  6
CONTINUOUS
 62
    7
 10
4272.5107962456368
 20
3325.0907889800001
 11
4290.9213088089818
 21
3213.264320177213
  0
LINE
  8
_0-3_
  6
CONTINUOUS
 62
    7
 10
4272.5107962456368
 20
3429.6395577194426
 11
4290.9213088089818
 21
3317.813336356478
  0
LINE
  8
_0-3_
  6
CONTINUOUS
 62
    7
 10
4272.4192435112618
 20
3534.0099223467655
 11
4290.9213088089818
 21
3422.3621050959209
  0
LINE
  8
_0-3_
  6
CONTINUOUS
 62
    7
 10
4272.4192435112618
 20
3743.1074598256505
 11
4290.9213088089818
 21
3631.4606323340963
  0
LINE
  8
_0-3_
  6
CONTINUOUS
 62
    7
 10
4272.4192435112618
 20
3847.6572183243838
 11
4290.9213088089818
 21
3736.0091536337168
  0
LINE
  8
_0-3_
  6
CONTINUOUS
 62
    7
 10
4423.6025007431035
 20
4149.3420360767059
 11
4410.9212098330527
 21
4055.1684191003551
  0
LINE
  8
_0-3_
  6
CONTINUOUS
 62
    7
 10
4423.6025007431035
 20
4044.7930198974409
 11
4410.9207149534077
 21
3950.6191554812672
  0
LINE
  8
_0-3_
  6
CONTINUOUS
 62
    7
 10
4423.6025007431035
 20
3940.243756278353
 11
4410.9207149534077
 21
3846.0708816214697
  0
LINE
  8
_0-3_
  6
CONTINUOUS
 62
    7
 10
4532.418616663711
 20
3952.2052447443584
 11
4550.921176841076
 21
3840.5584172528042
  0
LINE
  8
_0-3_
  6
CONTINUOUS
 62
    7
 10
4532.5106642777318
 20
4161.4824235344768
 11
4550.921176841076
 21
4049.6559547316892
  0
LINE
  8
_0-3_
  6
CONTINUOUS
 62
    7
 10
4532.5106642777318
 20
4056.9334073552113
 11
4550.921176841076
 21
3945.1066911126013
  0
LINE
  8
_0-3_
  6
CONTINUOUS
 62
    7
 10
4272.5107962456368
 20
3638.738084957618
 11
4290.9213088089818
 21
3526.9116161548309
  0
LINE
  8
_0-3_
  6
CONTINUOUS
 62
    7
 10
4423.6025007431035
 20
3835.6954824185555
 11
4410.9207149534077
 21
3741.5211231227363
  0
LINE
  8
_0-3_
  6
CONTINUOUS
 62
    7
 10
4423.6025007431035
 20
3731.1457239198226
 11
4410.9212098330527
 21
3636.9726018231167
  0
LINE
  8
_0-3_
  6
CONTINUOUS
 62
    7
 10
4423.6025007431035
 20
3626.597202620203
 11
4410.9207149534077
 21
3532.4235856438513
  0
LINE
  8
_0-3_
  6
CONTINUOUS
 62
    7
 10
4423.6025007431035
 20
3522.0481864409376
 11
4410.9207149534077
 21
3427.8740745849409
  0
LINE
  8
_0-3_
  6
CONTINUOUS
 62
    7
 10
4423.6025007431035
 20
3417.4986753820267
 11
4410.9207149534077
 21
3323.3253058454984
  0
LINE
  8
_0-3_
  6
CONTINUOUS
 62
    7
 10
4423.6025007431035
 20
3312.9499066425842
 11
4410.9212098330527
 21
3218.7762896662334
  0
LINE
  8
_0-3_
  6
CONTINUOUS
 62
    7
 10
4532.5106642777318
 20
3847.8358698763259
 11
4550.921176841076
 21
3736.0086587540713
  0
LINE
  8
_0-3_
  6
CONTINUOUS
 62
    7
 10
4532.5106642777318
 20
3743.286111377593
 11
4550.921176841076
 21
3631.4601374544509
  0
LINE
  8
_0-3_
  6
CONTINUOUS
 62
    7
 10
4532.418616663711
 20
3638.5586910862075
 11
4550.921176841076
 21
3526.9111212751859
  0
LINE
  8
_0-3_
  6
CONTINUOUS
 62
    7
 10
4532.418616663711
 20
3324.9113951085892
 11
4550.921176841076
 21
3213.2638252975676
  0
LINE
  8
_0-3_
  6
CONTINUOUS
 62
    7
 10
4683.6023687751976
 20
3312.9494117629392
 11
4670.9205829855018
 21
3218.775794786588
  0
LINE
  8
_0-3_
  6
CONTINUOUS
 62
    7
 10
4670.9210778651477
 20
3323.324810965853
 11
4683.6023687751976
 21
3417.4981805023822
  0
LINE
  8
_0-3_
  6
CONTINUOUS
 62
    7
 10
4670.9205829855018
 20
3427.8735797052959
 11
4683.6023687751976
 21
3522.0476915612926
  0
LINE
  8
_0-3_
  6
CONTINUOUS
 62
    7
 10
4532.5106642777318
 20
3534.1885738987075
 11
4550.921176841076
 21
3422.3616102162755
  0
LINE
  8
_0-3_
  6
CONTINUOUS
 62
    7
 10
4532.5106642777318
 20
3429.6390628397971
 11
4550.921176841076
 21
3317.8128414768335
  0
LINE
  8
_0-3_
  6
CONTINUOUS
 62
    7
 10
4683.6023687751976
 20
3626.5967077405576
 11
4670.9210778651477
 21
3532.4230907642059
  0
LINE
  8
_0-3_
  6
CONTINUOUS
 62
    7
 10
4683.6023687751976
 20
3731.1452290401776
 11
4670.9205829855018
 21
3636.9721069434713
  0
LINE
  8
_0-3_
  6
CONTINUOUS
 62
    7
 10
4683.6023687751976
 20
3835.6949875389109
 11
4670.9210778651477
 21
3741.5206282430918
  0
LINE
  8
_0-3_
  6
CONTINUOUS
 62
    7
 10
4683.6023687751976
 20
3940.2432613987075
 11
4670.9210778651477
 21
3846.0703867418242
  0
LINE
  8
_0-3_
  6
CONTINUOUS
 62
    7
 10
4683.6023687751976
 20
4044.7925250177959
 11
4670.9210778651477
 21
3950.6186606016217
  0
LINE
  8
_0-3_
  6
CONTINUOUS
 62
    7
 10
4683.6023687751976
 20
4149.3415411970609
 11
4670.9205829855018
 21
4055.1679242207097
  0
LINE
  8
_0-3_
  6
CONTINUOUS
 62
    7
 10
4792.510532309826
 20
4161.4819286548309
 11
4810.9210448731701
 21
4049.6554598520443
  0
LINE
  8
_0-3_
  6
CONTINUOUS
 62
    7
 10
4792.418979575451
 20
4056.7540134838009
 11
4810.9210448731701
 21
3945.1061962329559
  0
LINE
  8
_0-3_
  6
CONTINUOUS
 62
    7
 10
4792.510532309826
 20
3952.383648856478
 11
4810.9210448731701
 21
3840.5579223731588
  0
LINE
  8
_0-3_
  6
CONTINUOUS
 62
    7
 10
4792.510532309826
 20
3847.8353749966805
 11
4810.9210448731701
 21
3736.0081638744259
  0
LINE
  8
_0-3_
  6
CONTINUOUS
 62
    7
 10
4792.418979575451
 20
3743.1067175061826
 11
4810.9210448731701
 21
3631.4596425748055
  0
LINE
  8
_0-3_
  6
CONTINUOUS
 62
    7
 10
4792.418979575451
 20
3638.5581962065626
 11
4810.9210448731701
 21
3526.9106263955405
  0
LINE
  8
_0-3_
  6
CONTINUOUS
 62
    7
 10
4792.510532309826
 20
3534.1880790190626
 11
4810.9210448731701
 21
3422.3611153366301
  0
LINE
  8
_0-3_
  6
CONTINUOUS
 62
    7
 10
4792.418979575451
 20
3429.4596689683867
 11
4810.9210448731701
 21
3317.8123465971876
  0
LINE
  8
_0-3_
  6
CONTINUOUS
 62
    7
 10
4792.510532309826
 20
3325.0897992207092
 11
4810.9210448731701
 21
3213.2633304179221
  0
LINE
  8
_0-3_
  6
CONTINUOUS
 62
    7
 10
4930.9204510175969
 20
3218.7752999069426
 11
4943.6022368072927
 21
3312.9489168832934
  0
LINE
  8
_0-3_
  6
CONTINUOUS
 62
    7
 10
4930.9204510175969
 20
3323.3243160862085
 11
4943.6027316869386
 21
3417.4976856227363
  0
LINE
  8
_0-3_
  6
CONTINUOUS
 62
    7
 10
5070.9209129052651
 20
3317.8118517175426
 11
5052.4188476075451
 21
3429.4596689683867
  0
LINE
  8
_0-3_
  6
CONTINUOUS
 62
    7
 10
5052.4188476075451
 20
3324.9109002289447
 11
5070.921407784911
 21
3213.2628355382767
  0
LINE
  8
_0-3_
  6
CONTINUOUS
 62
    7
 10
4943.6022368072927
 20
3522.0471966816472
 11
4930.9204510175969
 21
3427.8730848256505
  0
LINE
  8
_0-3_
  6
CONTINUOUS
 62
    7
 10
5052.5104003419201
 20
3534.1875841394176
 11
5070.921407784911
 21
3422.3606204569846
  0
LINE
  8
_0-3_
  6
CONTINUOUS
 62
    7
 10
4943.6027316869386
 20
3626.5962128609126
 11
4930.9204510175969
 21
3532.4225958845609
  0
LINE
  8
_0-3_
  6
CONTINUOUS
 62
    7
 10
5052.4188476075451
 20
3638.5581962065626
 11
5070.921407784911
 21
3526.910131515895
  0
LINE
  8
_0-3_
  6
CONTINUOUS
 62
    7
 10
4943.6022368072927
 20
3731.1447341605322
 11
4930.9204510175969
 21
3636.9716120638259
  0
LINE
  8
_0-3_
  6
CONTINUOUS
 62
    7
 10
5052.5104003419201
 20
3743.2851216183026
 11
5070.9209129052651
 21
3631.4591476951609
  0
LINE
  8
_0-3_
  6
CONTINUOUS
 62
    7
 10
4943.6022368072927
 20
3835.6944926592655
 11
4930.9204510175969
 21
3741.5201333634463
  0
LINE
  8
_0-3_
  6
CONTINUOUS
 62
    7
 10
5052.5104003419201
 20
3847.834632677213
 11
5070.9209129052651
 21
3736.0076689947805
  0
LINE
  8
_0-3_
  6
CONTINUOUS
 62
    7
 10
4943.6027316869386
 20
3940.2427665190626
 11
4930.9209458972409
 21
3846.0698918621792
  0
LINE
  8
_0-3_
  6
CONTINUOUS
 62
    7
 10
5052.4188476075451
 20
3952.204749864713
 11
5070.9209129052651
 21
3840.5574274935134
  0
LINE
  8
_0-3_
  6
CONTINUOUS
 62
    7
 10
4943.6027316869386
 20
4044.7920301381505
 11
4930.9204510175969
 21
3950.6181657219763
  0
LINE
  8
_0-3_
  6
CONTINUOUS
 62
    7
 10
5052.4188476075451
 20
4056.7540134838009
 11
5070.921407784911
 21
3945.1057013533109
  0
LINE
  8
_0-3_
  6
CONTINUOUS
 62
    7
 10
4943.6022368072927
 20
4149.341046317415
 11
4930.9204510175969
 21
4055.1674293410642
  0
LINE
  8
_0-3_
  6
CONTINUOUS
 62
    7
 10
5052.5104003419201
 20
4161.4814337751859
 11
5070.9209129052651
 21
4049.6549649723988
  0
LINE
  8
_0-3_
  6
CONTINUOUS
 62
    7
 10
5203.6025997190318
 20
4149.341046317415
 11
5190.9208139293351
 21
4055.1674293410642
  0
LINE
  8
_0-3_
  6
CONTINUOUS
 62
    7
 10
5203.6021048393877
 20
4044.7920301381505
 11
5190.9208139293351
 21
3950.6181657219763
  0
LINE
  8
_0-3_
  6
CONTINUOUS
 62
    7
 10
5203.6021048393877
 20
3940.2427665190626
 11
5190.9208139293351
 21
3846.0698918621792
  0
LINE
  8
_0-3_
  6
CONTINUOUS
 62
    7
 10
5312.4187156396401
 20
4161.3022873435984
 11
5330.9212758170042
 21
4049.6549649723988
  0
LINE
  8
_0-3_
  6
CONTINUOUS
 62
    7
 10
5312.5102683740151
 20
4056.9324175959209
 11
5330.9212758170042
 21
3945.1057013533109
  0
LINE
  8
_0-3_
  6
CONTINUOUS
 62
    7
 10
5312.4187156396401
 20
3952.2040075452451
 11
5330.9212758170042
 21
3840.5574274935134
  0
LINE
  8
_0-3_
  6
CONTINUOUS
 62
    7
 10
5463.6009831121919
 20
4149.341046317415
 11
5450.9191973224961
 21
4055.1674293410642
  0
LINE
  8
_0-3_
  6
CONTINUOUS
 62
    7
 10
5463.6009831121919
 20
4044.7920301381505
 11
5450.9191973224961
 21
3950.6181657219763
  0
LINE
  8
_0-3_
  6
CONTINUOUS
 62
    7
 10
5463.6009831121919
 20
3940.2427665190626
 11
5450.9191973224961
 21
3846.0698918621792
  0
LINE
  8
_0-3_
  6
CONTINUOUS
 62
    7
 10
5572.5086517671753
 20
4161.4814337751859
 11
5590.9191643305185
 21
4049.6549649723988
  0
LINE
  8
_0-3_
  6
CONTINUOUS
 62
    7
 10
5572.5086517671753
 20
4056.9324175959209
 11
5590.9191643305185
 21
3945.1057013533109
  0
LINE
  8
_0-3_
  6
CONTINUOUS
 62
    7
 10
5572.4170990328003
 20
3952.2042549850676
 11
5590.9196592101653
 21
3840.5574274935134
  0
LINE
  8
_0-3_
  6
CONTINUOUS
 62
    7
 10
5203.6021048393877
 20
3835.6944926592655
 11
5190.9208139293351
 21
3741.5201333634463
  0
LINE
  8
_0-3_
  6
CONTINUOUS
 62
    7
 10
5203.6025997190318
 20
3731.1447341605322
 11
5190.9208139293351
 21
3636.9716120638259
  0
LINE
  8
_0-3_
  6
CONTINUOUS
 62
    7
 10
5203.6025997190318
 20
3626.5962128609126
 11
5190.9208139293351
 21
3532.4225958845609
  0
LINE
  8
_0-3_
  6
CONTINUOUS
 62
    7
 10
5203.6025997190318
 20
3522.0471966816472
 11
5190.9208139293351
 21
3427.8730848256505
  0
LINE
  8
_0-3_
  6
CONTINUOUS
 62
    7
 10
5312.5102683740151
 20
3847.8348801170359
 11
5330.9212758170042
 21
3736.0076689947805
  0
LINE
  8
_0-3_
  6
CONTINUOUS
 62
    7
 10
5312.4187156396401
 20
3743.1059751867142
 11
5330.9207809373602
 21
3631.4591476951609
  0
LINE
  8
_0-3_
  6
CONTINUOUS
 62
    7
 10
5312.4187156396401
 20
3638.5574538870947
 11
5330.9212758170042
 21
3526.910131515895
  0
LINE
  8
_0-3_
  6
CONTINUOUS
 62
    7
 10
5312.4187156396401
 20
3534.0084377078297
 11
5330.9212758170042
 21
3422.3606204569846
  0
LINE
  8
_0-3_
  6
CONTINUOUS
 62
    7
 10
5203.6025997190318
 20
3417.4976856227363
 11
5190.9208139293351
 21
3323.3243160862085
  0
LINE
  8
_0-3_
  6
CONTINUOUS
 62
    7
 10
5312.5102683740151
 20
3429.6380730805072
 11
5330.9207809373602
 21
3317.8118517175426
  0
LINE
  8
_0-3_
  6
CONTINUOUS
 62
    7
 10
5463.6009831121919
 20
3835.6944926592655
 11
5450.9191973224961
 21
3741.5201333634463
  0
LINE
  8
_0-3_
  6
CONTINUOUS
 62
    7
 10
5463.6009831121919
 20
3731.1447341605322
 11
5450.9191973224961
 21
3636.9716120638259
  0
LINE
  8
_0-3_
  6
CONTINUOUS
 62
    7
 10
5463.600488232546
 20
3626.5962128609126
 11
5450.9191973224961
 21
3532.4225958845609
  0
LINE
  8
_0-3_
  6
CONTINUOUS
 62
    7
 10
5463.600488232546
 20
3522.0471966816472
 11
5450.9191973224961
 21
3427.8730848256505
  0
LINE
  8
_0-3_
  6
CONTINUOUS
 62
    7
 10
5572.4170990328003
 20
3534.0086851476517
 11
5590.9196592101653
 21
3422.3606204569846
  0
LINE
  8
_0-3_
  6
CONTINUOUS
 62
    7
 10
5572.4170990328003
 20
3847.65598112527
 11
5590.9191643305185
 21
3736.0076689947805
  0
LINE
  8
_0-3_
  6
CONTINUOUS
 62
    7
 10
5572.5086517671753
 20
3743.2851216183026
 11
5590.9191643305185
 21
3631.4591476951609
  0
LINE
  8
_0-3_
  6
CONTINUOUS
 62
    7
 10
5572.4170990328003
 20
3638.5577013269176
 11
5590.9196592101653
 21
3526.910131515895
  0
LINE
  8
_0-3_
  6
CONTINUOUS
 62
    7
 10
5463.600488232546
 20
3417.4976856227363
 11
5450.9191973224961
 21
3323.3243160862085
  0
LINE
  8
_0-3_
  6
CONTINUOUS
 62
    7
 10
5572.4170990328003
 20
3429.4591740887417
 11
5590.9191643305185
 21
3317.8118517175426
  0
LINE
  8
_0-3_
  6
CONTINUOUS
 62
    7
 10
5463.6009831121919
 20
3312.9489168832934
 11
5450.9191973224961
 21
3218.7752999069426
  0
LINE
  8
_0-3_
  6
CONTINUOUS
 62
    7
 10
5572.5086517671753
 20
3325.0893043410642
 11
5590.9196592101653
 21
3213.2628355382767
  0
LINE
  8
_0-3_
  6
CONTINUOUS
 62
    7
 10
5723.6003562646401
 20
3522.0467018020017
 11
5710.9190653545902
 21
3427.8725899460051
  0
LINE
  8
_0-3_
  6
CONTINUOUS
 62
    7
 10
5723.6008511442851
 20
3417.4971907430918
 11
5710.9190653545902
 21
3323.3238212065626
  0
LINE
  8
_0-3_
  6
CONTINUOUS
 62
    7
 10
5710.9190653545902
 20
3218.7748050272971
 11
5723.6003562646401
 21
3312.9484220036488
  0
LINE
  8
_0-3_
  6
CONTINUOUS
 62
    7
 10
5832.5490999301819
 20
3324.8428542777197
 11
5850.9190323626126
 21
3213.2623406586322
  0
LINE
  8
_0-3_
  6
CONTINUOUS
 62
    7
 10
5832.5085197992685
 20
3534.1868418199492
 11
5850.9190323626126
 21
3422.3601255773392
  0
LINE
  8
_0-3_
  6
CONTINUOUS
 62
    7
 10
5832.5490999301819
 20
3429.3916230171626
 11
5850.9190323626126
 21
3317.8113568378967
  0
LINE
  8
_0-3_
  6
CONTINUOUS
 62
    7
 10
5983.6002242967352
 20
3522.0467018020017
 11
5970.9189333866834
 21
3427.8725899460051
  0
LINE
  8
_0-3_
  6
CONTINUOUS
 62
    7
 10
5983.6007191763792
 20
3417.4971907430918
 11
5970.9189333866834
 21
3323.3238212065626
  0
LINE
  8
_0-3_
  6
CONTINUOUS
 62
    7
 10
5983.6002242967352
 20
3312.9484220036488
 11
5970.9189333866834
 21
3218.7748050272971
  0
LINE
  8
_0-3_
  6
CONTINUOUS
 62
    7
 10
6092.4168350969876
 20
3534.0084377078297
 11
6110.9193952743517
 21
3422.3601255773392
  0
LINE
  8
_0-3_
  6
CONTINUOUS
 62
    7
 10
6092.4168350969876
 20
3429.4589266489184
 11
6110.9189003947085
 21
3317.8113568378967
  0
LINE
  8
_0-3_
  6
CONTINUOUS
 62
    7
 10
6092.5083878313626
 20
3325.0888094614184
 11
6110.9189003947085
 21
3213.2623406586322
  0
LINE
  8
_0-3_
  6
CONTINUOUS
 62
    7
 10
5723.6008511442851
 20
3835.6939977796201
 11
5710.9190653545902
 21
3741.5196384838009
  0
LINE
  8
_0-3_
  6
CONTINUOUS
 62
    7
 10
5723.6003562646401
 20
3731.1442392808867
 11
5710.9190653545902
 21
3636.9711171841805
  0
LINE
  8
_0-3_
  6
CONTINUOUS
 62
    7
 10
5723.6003562646401
 20
3626.5957179812672
 11
5710.9190653545902
 21
3532.4221010049155
  0
LINE
  8
_0-3_
  6
CONTINUOUS
 62
    7
 10
5832.5490999301819
 20
3847.5884300536909
 11
5850.9190323626126
 21
3736.0071741151351
  0
LINE
  8
_0-3_
  6
CONTINUOUS
 62
    7
 10
5832.5085197992685
 20
3743.2846267386572
 11
5850.9195272422585
 21
3631.4586528155155
  0
LINE
  8
_0-3_
  6
CONTINUOUS
 62
    7
 10
5832.5085197992685
 20
3638.7361054390376
 11
5850.9195272422585
 21
3526.9096366362501
  0
LINE
  8
_0-3_
  6
CONTINUOUS
 62
    7
 10
5983.6007191763792
 20
3626.5957179812672
 11
5970.9189333866834
 21
3532.4221010049155
  0
LINE
  8
_0-3_
  6
CONTINUOUS
 62
    7
 10
5983.6007191763792
 20
3731.1442392808867
 11
5970.9189333866834
 21
3636.9711171841805
  0
LINE
  8
_0-3_
  6
CONTINUOUS
 62
    7
 10
5983.6007191763792
 20
3835.6939977796201
 11
5970.9189333866834
 21
3741.5196384838009
  0
LINE
  8
_0-3_
  6
CONTINUOUS
 62
    7
 10
5723.6003562646401
 20
4149.34055143777
 11
5710.9190653545902
 21
4055.1669344614193
  0
LINE
  8
_0-3_
  6
CONTINUOUS
 62
    7
 10
5723.6008511442851
 20
4044.7915352585051
 11
5710.9190653545902
 21
3950.6176708423309
  0
LINE
  8
_0-3_
  6
CONTINUOUS
 62
    7
 10
5710.9190653545902
 20
3846.0693969825338
 11
5723.6003562646401
 21
3940.2422716394176
  0
LINE
  8
_0-3_
  6
CONTINUOUS
 62
    7
 10
5832.5085197992685
 20
4161.48093889554
 11
5850.9195272422585
 21
4049.6544700927534
  0
LINE
  8
_0-3_
  6
CONTINUOUS
 62
    7
 10
5832.5490999301819
 20
4056.6859675325759
 11
5850.9195272422585
 21
3945.1052064736655
  0
LINE
  8
_0-3_
  6
CONTINUOUS
 62
    7
 10
5832.5085197992685
 20
3952.3826590971876
 11
5850.9190323626126
 21
3840.556932613868
  0
LINE
  8
_0-3_
  6
CONTINUOUS
 62
    7
 10
5983.6007191763792
 20
3940.2422716394176
 11
5970.9189333866834
 21
3846.0693969825338
  0
LINE
  8
_0-3_
  6
CONTINUOUS
 62
    7
 10
5983.6007191763792
 20
4044.7915352585051
 11
5970.9189333866834
 21
3950.6176708423309
  0
LINE
  8
_0-3_
  6
CONTINUOUS
 62
    7
 10
5983.6007191763792
 20
4149.34055143777
 11
5970.9189333866834
 21
4055.1669344614193
  0
LINE
  8
_0-3_
  6
CONTINUOUS
 62
    7
 10
6110.9193952743517
 20
4049.6544700927534
 11
6092.4168350969876
 21
4161.3022873435984
  0
LINE
  8
_0-3_
  6
CONTINUOUS
 62
    7
 10
6092.4168350969876
 20
4056.7532711643325
 11
6110.9189003947085
 21
3945.1052064736655
  0
LINE
  8
_0-3_
  6
CONTINUOUS
 62
    7
 10
6092.4168350969876
 20
3952.2040075452451
 11
6110.9193952743517
 21
3840.556932613868
  0
LINE
  8
_0-3_
  6
CONTINUOUS
 62
    7
 10
6243.6005872084752
 20
3940.2417767597722
 11
6230.9192962984253
 21
3846.0689021028884
  0
LINE
  8
_0-3_
  6
CONTINUOUS
 62
    7
 10
6243.6010820881211
 20
4044.7910403788596
 11
6230.9192962984253
 21
3950.6171759626859
  0
LINE
  8
_0-3_
  6
CONTINUOUS
 62
    7
 10
6243.6010820881211
 20
4149.3400565581251
 11
6230.9192962984253
 21
4055.1664395817738
  0
LINE
  8
_0-3_
  6
CONTINUOUS
 62
    7
 10
6352.5087507431017
 20
4161.480444015895
 11
6370.9197581860935
 21
4049.6539752131084
  0
LINE
  8
_0-3_
  6
CONTINUOUS
 62
    7
 10
6352.5087507431017
 20
4056.9314278366301
 11
6370.9192633064486
 21
3945.10471159402
  0
LINE
  8
_0-3_
  6
CONTINUOUS
 62
    7
 10
6352.5493308740151
 20
3952.13596159402
 11
6370.9197581860935
 21
3840.5564377342234
  0
LINE
  8
_0-3_
  6
CONTINUOUS
 62
    7
 10
6092.5083878313626
 20
3847.8343852373905
 11
6110.9189003947085
 21
3736.0071741151351
  0
LINE
  8
_0-3_
  6
CONTINUOUS
 62
    7
 10
6092.4168350969876
 20
3743.1059751867142
 11
6110.9193952743517
 21
3631.4586528155155
  0
LINE
  8
_0-3_
  6
CONTINUOUS
 62
    7
 10
6092.4168350969876
 20
3638.5574538870947
 11
6110.9193952743517
 21
3526.9096366362501
  0
LINE
  8
_0-3_
  6
CONTINUOUS
 62
    7
 10
6243.6010820881211
 20
3835.6935028999751
 11
6230.9192962984253
 21
3741.5191436041555
  0
LINE
  8
_0-3_
  6
CONTINUOUS
 62
    7
 10
6243.6005872084752
 20
3731.1437444012417
 11
6230.9192962984253
 21
3636.9706223045359
  0
LINE
  8
_0-3_
  6
CONTINUOUS
 62
    7
 10
6243.6010820881211
 20
3626.5952231016217
 11
6230.9192962984253
 21
3532.42160612527
  0
LINE
  8
_0-3_
  6
CONTINUOUS
 62
    7
 10
6352.5493308740151
 20
3638.4894079358701
 11
6370.9192633064486
 21
3526.9091417566051
  0
LINE
  8
_0-3_
  6
CONTINUOUS
 62
    7
 10
6352.5087507431017
 20
3743.2841318590117
 11
6370.9197581860935
 21
3631.4581579358701
  0
LINE
  8
_0-3_
  6
CONTINUOUS
 62
    7
 10
6352.5087507431017
 20
3847.8338903577451
 11
6370.9197581860935
 21
3736.0066792354901
  0
LINE
  8
_0-3_
  6
CONTINUOUS
 62
    7
 10
6243.6005872084752
 20
3522.0462069223568
 11
6230.9192962984253
 21
3427.8720950663596
  0
LINE
  8
_0-3_
  6
CONTINUOUS
 62
    7
 10
6243.6010820881211
 20
3417.4966958634459
 11
6230.9192962984253
 21
3323.3233263269176
  0
LINE
  8
_0-3_
  6
CONTINUOUS
 62
    7
 10
6243.6005872084752
 20
3312.9479271240034
 11
6230.9192962984253
 21
3218.7743101476517
  0
LINE
  8
_0-3_
  6
CONTINUOUS
 62
    7
 10
6352.5087507431017
 20
3325.0883145817738
 11
6370.9197581860935
 21
3213.2618457789863
  0
LINE
  8
_0-3_
  6
CONTINUOUS
 62
    7
 10
6352.5087507431017
 20
3429.6370833212168
 11
6370.9192633064486
 21
3317.8108619582517
  0
LINE
  8
_0-3_
  6
CONTINUOUS
 62
    7
 10
6370.9197581860935
 20
3422.3596306976947
 11
6352.5493308740151
 21
3533.9403917566051
  0
LINE
  8
_0-3_
  6
CONTINUOUS
 62
    7
 10
6503.6014449998602
 20
4149.3395616784801
 11
6490.9196592101653
 21
4055.1659447021284
  0
LINE
  8
_0-3_
  6
CONTINUOUS
 62
    7
 10
6503.6009501202152
 20
4044.7905454992142
 11
6490.9196592101653
 21
3950.6166810830405
  0
LINE
  8
_0-3_
  6
CONTINUOUS
 62
    7
 10
6612.4175609204685
 20
4161.3012975843076
 11
6630.9196262181877
 21
4049.653480333463
  0
LINE
  8
_0-3_
  6
CONTINUOUS
 62
    7
 10
6612.5091136548435
 20
4056.9309329569846
 11
6630.9201210978335
 21
3945.1042167143751
  0
LINE
  8
_0-3_
  6
CONTINUOUS
 62
    7
 10
7023.6011810640503
 20
4149.3385719191892
 11
7010.9198901539985
 21
4055.164954942838
  0
LINE
  8
_0-3_
  6
CONTINUOUS
 62
    7
 10
7023.6016759436934
 20
4044.7895557399243
 11
7010.9198901539985
 21
3950.6156913237501
  0
LINE
  8
_0-3_
  6
CONTINUOUS
 62
    7
 10
7023.6016759436934
 20
3940.2402921208363
 11
7010.9198901539985
 21
3846.067417463953
  0
LINE
  8
_0-3_
  6
CONTINUOUS
 62
    7
 10
6503.6009501202152
 20
3940.2412818801267
 11
6490.9196592101653
 21
3846.068407223243
  0
LINE
  8
_0-3_
  6
CONTINUOUS
 62
    7
 10
6612.4175609204685
 20
3952.2030177859547
 11
6630.9201210978335
 21
3840.555942854578
  0
LINE
  8
_0-3_
  6
CONTINUOUS
 62
    7
 10
6872.5094765665835
 20
4161.4794542566051
 11
6890.9204840095736
 21
4049.6529854538176
  0
LINE
  8
_0-3_
  6
CONTINUOUS
 62
    7
 10
6872.4179238322085
 20
4056.7515390855742
 11
6890.9199891299268
 21
3945.1037218347301
  0
LINE
  8
_0-3_
  6
CONTINUOUS
 62
    7
 10
6872.5094765665835
 20
3952.3811744582517
 11
6890.9204840095736
 21
3840.5554479749326
  0
LINE
  8
_0-3_
  6
CONTINUOUS
 62
    7
 10
7132.5093445986768
 20
4161.4787119371367
 11
7150.9203520416668
 21
4049.6524905741721
  0
LINE
  8
_0-3_
  6
CONTINUOUS
 62
    7
 10
7132.5093445986768
 20
4056.9296957578717
 11
7150.9203520416668
 21
3945.1032269550847
  0
LINE
  8
_0-3_
  6
CONTINUOUS
 62
    7
 10
7132.5093445986768
 20
3952.3806795786068
 11
7150.9203520416668
 21
3840.5549530952876
  0
LINE
  8
_0-3_
  6
CONTINUOUS
 62
    7
 10
6503.6009501202152
 20
3835.6930080203297
 11
6490.9196592101653
 21
3741.5186487245101
  0
LINE
  8
_0-3_
  6
CONTINUOUS
 62
    7
 10
6503.6014449998602
 20
3731.1432495215963
 11
6490.9196592101653
 21
3636.9701274248905
  0
LINE
  8
_0-3_
  6
CONTINUOUS
 62
    7
 10
6503.6014449998602
 20
3626.5947282219763
 11
6490.9196592101653
 21
3532.4211112456251
  0
LINE
  8
_0-3_
  6
CONTINUOUS
 62
    7
 10
6503.6014449998602
 20
3522.0457120427113
 11
6490.9196592101653
 21
3427.8716001867142
  0
LINE
  8
_0-3_
  6
CONTINUOUS
 62
    7
 10
7023.6011810640503
 20
3835.6920182610388
 11
7010.9198901539985
 21
3741.5176589652197
  0
LINE
  8
_0-3_
  6
CONTINUOUS
 62
    7
 10
7023.6011810640503
 20
3731.1422597623055
 11
7010.9198901539985
 21
3636.9691376656001
  0
LINE
  8
_0-3_
  6
CONTINUOUS
 62
    7
 10
7023.6016759436934
 20
3626.5937384626859
 11
7010.9198901539985
 21
3532.4201214863347
  0
LINE
  8
_0-3_
  6
CONTINUOUS
 62
    7
 10
7023.6016759436934
 20
3522.0447222834209
 11
7010.9198901539985
 21
3427.8706104274238
  0
LINE
  8
_0-3_
  6
CONTINUOUS
 62
    7
 10
6612.5091136548435
 20
3847.8333954781001
 11
6630.9201210978335
 21
3736.0061843558447
  0
LINE
  8
_0-3_
  6
CONTINUOUS
 62
    7
 10
6612.4175609204685
 20
3743.1049854274238
 11
6630.9196262181877
 21
3631.4576630562251
  0
LINE
  8
_0-3_
  6
CONTINUOUS
 62
    7
 10
6612.4175609204685
 20
3638.5564641278042
 11
6630.9201210978335
 21
3526.9086468769597
  0
LINE
  8
_0-3_
  6
CONTINUOUS
 62
    7
 10
6612.4175609204685
 20
3534.0074479485388
 11
6630.9201210978335
 21
3422.3591358180488
  0
LINE
  8
_0-3_
  6
CONTINUOUS
 62
    7
 10
6872.4179238322085
 20
3847.6540016066892
 11
6890.9204840095736
 21
3736.0056894761992
  0
LINE
  8
_0-3_
  6
CONTINUOUS
 62
    7
 10
6872.5094765665835
 20
3743.2831420997213
 11
6890.9199891299268
 21
3631.4571681765797
  0
LINE
  8
_0-3_
  6
CONTINUOUS
 62
    7
 10
6872.4179238322085
 20
3638.5557218083363
 11
6890.9204840095736
 21
3526.9081519973142
  0
LINE
  8
_0-3_
  6
CONTINUOUS
 62
    7
 10
6872.4179238322085
 20
3534.0067056290713
 11
6890.9204840095736
 21
3422.3586409384043
  0
LINE
  8
_0-3_
  6
CONTINUOUS
 62
    7
 10
7132.5093445986768
 20
3847.8321582789868
 11
7150.9198571620236
 21
3736.0051945965542
  0
LINE
  8
_0-3_
  6
CONTINUOUS
 62
    7
 10
7132.5093445986768
 20
3743.2826472200759
 11
7150.9203520416668
 21
3631.4566732969342
  0
LINE
  8
_0-3_
  6
CONTINUOUS
 62
    7
 10
7132.5093445986768
 20
3638.7341259204559
 11
7150.9203520416668
 21
3526.9076571176693
  0
LINE
  8
_0-3_
  6
CONTINUOUS
 62
    7
 10
7133.184855314471
 20
3530.082310042078
 11
7150.9203520416668
 21
3422.3581460587584
  0
LINE
  8
_0-3_
  6
CONTINUOUS
 62
    7
 10
6503.6014449998602
 20
3417.4962009838009
 11
6490.9196592101653
 21
3323.3228314472717
  0
LINE
  8
_0-3_
  6
CONTINUOUS
 62
    7
 10
6503.6009501202152
 20
3312.9474322443584
 11
6490.9196592101653
 21
3218.7738152680072
  0
LINE
  8
_0-3_
  6
CONTINUOUS
 62
    7
 10
6612.4175609204685
 20
3429.4579368896284
 11
6630.9201210978335
 21
3317.8103670786059
  0
LINE
  8
_0-3_
  6
CONTINUOUS
 62
    7
 10
6612.5091136548435
 20
3325.0878197021284
 11
6630.9196262181877
 21
3213.2613508993418
  0
LINE
  8
_0-3_
  6
CONTINUOUS
 62
    7
 10
6872.5094765665835
 20
3429.6360935619259
 11
6890.9199891299268
 21
3317.8098721989613
  0
LINE
  8
_0-3_
  6
CONTINUOUS
 62
    7
 10
6872.5094765665835
 20
3325.0873248224834
 11
6890.9199891299268
 21
3213.2608560196959
  0
LINE
  8
_0-3_
  6
CONTINUOUS
 62
    7
 10
7023.6011810640503
 20
3312.9464424850676
 11
7010.9198901539985
 21
3218.7728255087168
  0
LINE
  8
_0-3_
  6
CONTINUOUS
 62
    7
 10
7023.6016759436934
 20
3417.4952112245101
 11
7010.9198901539985
 21
3323.3218416879809
  0
LINE
  8
_0-3_
  6
CONTINUOUS
 62
    7
 10
7132.5093445986768
 20
3429.6355986822805
 11
7150.9198571620236
 21
3317.8093773193159
  0
LINE
  8
_0-3_
  6
CONTINUOUS
 62
    7
 10
7132.5093445986768
 20
3325.086829942838
 11
7150.9203520416668
 21
3213.2603611400509
  0
LINE
  8
_0-3_
  6
CONTINUOUS
 62
    7
 10
5330.9207809373602
 20
4259.6576373224834
 11
5314.9049909774767
 21
4357.7229878292401
  0
LINE
  8
_0-3_
  6
CONTINUOUS
 62
    7
 10
3890.9224635281539
 20
4265.1715863300851
 11
3903.148465164556
 21
4356.8344314261576
  0
LINE
  8
_0-3_
  6
CONTINUOUS
 62
    7
 10
4030.9224305361772
 20
4259.6591219614193
 11
4015.0516403123602
 21
4356.8344314261576
  0
LINE
  8
_0-3_
  6
CONTINUOUS
 62
    7
 10
4290.9213088089818
 20
4259.6591219614193
 11
4275.0505185851644
 21
4356.8344314261576
  0
LINE
  8
_0-3_
  6
CONTINUOUS
 62
    7
 10
4410.9207149534077
 20
4265.1710914504392
 11
4423.1472114694543
 21
4356.8344314261576
  0
LINE
  8
_0-3_
  6
CONTINUOUS
 62
    7
 10
4550.921176841076
 20
4259.6586270817734
 11
4535.0503866172585
 21
4356.8344314261576
  0
LINE
  8
_0-3_
  6
CONTINUOUS
 62
    7
 10
4670.9205829855018
 20
4265.1705965707943
 11
4683.1470795015493
 21
4356.8344314261576
  0
LINE
  8
_0-3_
  6
CONTINUOUS
 62
    7
 10
4810.9210448731701
 20
4259.6581322021284
 11
4795.0502546493526
 21
4356.8344314261576
  0
LINE
  8
_0-3_
  6
CONTINUOUS
 62
    7
 10
4930.9204510175969
 20
4265.1701016911484
 11
4943.1469475336435
 21
4356.8344314261576
  0
LINE
  8
_0-3_
  6
CONTINUOUS
 62
    7
 10
5070.9209129052651
 20
4259.6576373224834
 11
5055.0501226814476
 21
4356.8344314261576
  0
LINE
  8
_0-3_
  6
CONTINUOUS
 62
    7
 10
5190.9208139293351
 20
4265.1701016911484
 11
5203.1473104453835
 21
4356.8344314261576
  0
LINE
  8
_0-3_
  6
CONTINUOUS
 62
    7
 10
5450.9191973224961
 20
4265.1701016911484
 11
5463.1456938385418
 21
4356.8344314261576
  0
LINE
  8
_0-3_
  6
CONTINUOUS
 62
    7
 10
5590.9196592101653
 20
4259.6576373224834
 11
5575.048868986346
 21
4356.8344314261576
  0
LINE
  8
_0-3_
  6
CONTINUOUS
 62
    7
 10
5710.9190653545902
 20
4265.1696068115034
 11
5723.1455618706377
 21
4356.8344314261576
  0
LINE
  8
_0-3_
  6
CONTINUOUS
 62
    7
 10
5850.9190323626126
 20
4259.6571424428375
 11
5835.048242138796
 21
4356.8344314261576
  0
LINE
  8
_0-3_
  6
CONTINUOUS
 62
    7
 10
5970.9189333866834
 20
4265.1696068115034
 11
5983.1454299027318
 21
4356.8344314261576
  0
LINE
  8
_0-3_
  6
CONTINUOUS
 62
    7
 10
6110.9189003947085
 20
4259.6571424428375
 11
6095.0481101708901
 21
4356.8344314261576
  0
LINE
  8
_0-3_
  6
CONTINUOUS
 62
    7
 10
6370.9197581860935
 20
4259.6566475631926
 11
6355.0489679622751
 21
4356.8344314261576
  0
LINE
  8
_0-3_
  6
CONTINUOUS
 62
    7
 10
6230.9192962984253
 20
4265.1691119318584
 11
6243.145792814471
 21
4356.8344314261576
  0
LINE
  8
_0-3_
  6
CONTINUOUS
 62
    7
 10
6490.9196592101653
 20
4265.1686170522125
 11
6503.1461557262101
 21
4356.8344314261576
  0
LINE
  8
_0-3_
  6
CONTINUOUS
 62
    7
 10
6630.9201210978335
 20
4259.6561526835476
 11
6615.0493308740151
 21
4356.8344314261576
  0
LINE
  8
_0-3_
  6
CONTINUOUS
 62
    7
 10
6890.9199891299268
 20
4259.6556578039017
 11
6875.0491989061102
 21
4356.8344314261576
  0
LINE
  8
_0-3_
  6
CONTINUOUS
 62
    7
 10
7010.9198901539985
 20
4265.1676272929226
 11
7023.1468815496919
 21
4356.8344314261576
  0
LINE
  8
_0-3_
  6
CONTINUOUS
 62
    7
 10
7150.9203520416668
 20
4259.6551629242567
 11
7135.0490669382043
 21
4356.8344314261576
  0
LINE
  8
ADD_LINE
  6
DOT
 62
    3
 10
3626.8264766721577
 20
3057.8119836854476
 11
3626.8264766721577
 21
2997.2315393495101
  0
LINE
  8
ADD_LINE
  6
DOT
 62
    3
 10
3626.8264766721577
 20
3057.8119836854476
 11
3654.6877058212285
 21
3057.8119836854476
  0
CIRCLE
  8
_0-0_
  6
CONTINUOUS
 62
    7
 10
3188.7461478081373
 20
3181.7540959637417
 40
2.9999997970220207
  0
CIRCLE
  8
_0-0_
  6
CONTINUOUS
 62
    7
 10
3322.0988914208901
 20
3123.8932627183867
 40
2.9999997970220207
  0
CIRCLE
  8
_0-0_
  6
CONTINUOUS
 62
    7
 10
2947.791475484446
 20
3286.3031121430072
 40
2.9999997970220207
  0
CIRCLE
  8
_0-0_
  6
CONTINUOUS
 62
    7
 10
3081.1439716573768
 20
3228.4425263374751
 40
2.9999997970220207
  0
CIRCLE
  8
_0-0_
  6
CONTINUOUS
 62
    7
 10
2706.8363082811102
 20
3390.8523757620947
 40
2.9999997970220207
  0
CIRCLE
  8
_0-0_
  6
CONTINUOUS
 62
    7
 10
2840.1895467735085
 20
3332.9915425167401
 40
2.9999997970220207
  0
CIRCLE
  8
_0-0_
  6
CONTINUOUS
 62
    7
 10
2465.8818833972418
 20
3495.4013919413596
 40
2.9999997970220207
  0
CIRCLE
  8
_0-0_
  6
CONTINUOUS
 62
    7
 10
2599.2346270099952
 20
3437.5405586960051
 40
2.9999997970220207
  0
CIRCLE
  8
_0-0_
  6
CONTINUOUS
 62
    7
 10
2224.9274585133735
 20
3599.9504081206251
 40
2.9999997970220207
  0
CIRCLE
  8
_0-0_
  6
CONTINUOUS
 62
    7
 10
2358.2797072464814
 20
3542.08957487527
 40
2.9999997970220207
  0
CIRCLE
  8
_0-0_
  6
CONTINUOUS
 62
    7
 10
1983.9725387498597
 20
3704.4994242998905
 40
2.9999997970220207
  0
CIRCLE
  8
_0-0_
  6
CONTINUOUS
 62
    7
 10
2117.3252823626131
 20
3646.6385910545359
 40
2.9999997970220207
  0
CIRCLE
  8
_0-0_
  6
CONTINUOUS
 62
    7
 10
1743.0176189863462
 20
3809.0484404791555
 40
2.9999997970220207
  0
CIRCLE
  8
_0-0_
  6
CONTINUOUS
 62
    7
 10
1876.3708574787449
 20
3751.1876072338009
 40
2.9999997970220207
  0
CIRCLE
  8
_0-0_
  6
CONTINUOUS
 62
    7
 10
1502.0631941024783
 20
3913.597704098243
 40
2.9999997970220207
  0
CIRCLE
  8
_0-0_
  6
CONTINUOUS
 62
    7
 10
1635.4159377152314
 20
3855.7368708528884
 40
2.9999997970220207
  0
CIRCLE
  8
_0-0_
  6
CONTINUOUS
 62
    7
 10
1261.1087692186095
 20
4018.1467202775088
 40
2.9999997970220207
  0
CIRCLE
  8
_0-0_
  6
CONTINUOUS
 62
    7
 10
1394.4615128313631
 20
3960.2858870321543
 40
2.9999997970220207
  0
CIRCLE
  8
_0-0_
  6
CONTINUOUS
 62
    7
 10
1020.1538494550965
 20
4122.6957364567734
 40
2.9999997970220207
  0
CIRCLE
  8
_0-0_
  6
CONTINUOUS
 62
    7
 10
1153.5060981882043
 20
4064.8349032114193
 40
2.9999997970220207
  0
ARC
  8
_0-1_
  6
CONTINUOUS
 62
    7
 10
3695.9225625040831
 20
3097.043072684603
 40
75.769236281111432
 50
8.1712493896484339
 51
171.82875061035156
  0
ARC
  8
_0-1_
  6
CONTINUOUS
 62
    7
 10
3695.9225625040831
 20
3097.043072684603
 40
58.769238961709512
 50
23.856689453125004
 51
172.48289489746094
  0
CIRCLE
  8
_0-0_
  6
CONTINUOUS
 62
    7
 10
1020.1533545754506
 20
4122.6959838965959
 40
2.9999997970220207
  0
CIRCLE
  8
_0-0_
  6
CONTINUOUS
 62
    7
 10
779.19892969158298
 20
4227.2450000758618
 40
2.9999997970220207
  0
CIRCLE
  8
_0-0_
  6
CONTINUOUS
 62
    7
 10
912.55167330433608
 20
4169.3841668305067
 40
2.9999997970220207
  0
ARC
  8
_0-1_
  6
CONTINUOUS
 62
    7
 10
3695.9225625040831
 20
3201.5920888638684
 40
75.769236281111432
 50
8.1712493896484339
 51
171.82875061035156
  0
ARC
  8
_0-1_
  6
CONTINUOUS
 62
    7
 10
3695.9225625040831
 20
3201.5920888638684
 40
58.769238961709512
 50
23.856689453125004
 51
172.48289489746094
  0
ARC
  8
_0-1_
  6
CONTINUOUS
 62
    7
 10
3695.9225625040831
 20
3306.1411050431334
 40
75.769236281111432
 50
8.1712493896484339
 51
171.82875061035156
  0
ARC
  8
_0-1_
  6
CONTINUOUS
 62
    7
 10
3695.9225625040831
 20
3306.1411050431334
 40
58.769238961709512
 50
23.856689453125004
 51
172.48289489746094
  0
ARC
  8
_0-1_
  6
CONTINUOUS
 62
    7
 10
3695.9225625040831
 20
3410.6901212223988
 40
75.769236281111432
 50
8.1712493896484339
 51
171.82875061035156
  0
ARC
  8
_0-1_
  6
CONTINUOUS
 62
    7
 10
3695.9225625040831
 20
3410.6901212223988
 40
58.769238961709512
 50
23.856689453125004
 51
172.48289489746094
  0
ARC
  8
_0-1_
  6
CONTINUOUS
 62
    7
 10
3695.9225625040831
 20
3515.2393848414863
 40
75.769236281111432
 50
8.1712493896484339
 51
171.82875061035156
  0
ARC
  8
_0-1_
  6
CONTINUOUS
 62
    7
 10
3695.9225625040831
 20
3515.2393848414863
 40
58.769238961709512
 50
23.856689453125004
 51
172.48289489746094
  0
ARC
  8
_0-1_
  6
CONTINUOUS
 62
    7
 10
3695.9225625040831
 20
3619.7884010207517
 40
75.769236281111432
 50
8.1712493896484339
 51
171.82875061035156
  0
ARC
  8
_0-1_
  6
CONTINUOUS
 62
    7
 10
3695.9225625040831
 20
3619.7884010207517
 40
58.769238961709512
 50
23.856689453125004
 51
172.48289489746094
  0
ARC
  8
_0-1_
  6
CONTINUOUS
 62
    7
 10
3695.9225625040831
 20
3724.3374172000172
 40
75.769236281111432
 50
8.1712493896484339
 51
171.82875061035156
  0
ARC
  8
_0-1_
  6
CONTINUOUS
 62
    7
 10
3695.9225625040831
 20
3724.3374172000172
 40
58.769238961709512
 50
23.856689453125004
 51
172.48289489746094
  0
ARC
  8
_0-1_
  6
CONTINUOUS
 62
    7
 10
3695.9225625040831
 20
3828.8866808191051
 40
75.769236281111432
 50
8.1712493896484339
 51
171.82875061035156
  0
ARC
  8
_0-1_
  6
CONTINUOUS
 62
    7
 10
3695.9225625040831
 20
3828.8866808191051
 40
58.769238961709512
 50
23.856689453125004
 51
172.48289489746094
  0
ARC
  8
_0-1_
  6
CONTINUOUS
 62
    7
 10
3695.9225625040831
 20
3933.4354495585471
 40
75.769236281111432
 50
8.1712493896484339
 51
171.82875061035156
  0
ARC
  8
_0-1_
  6
CONTINUOUS
 62
    7
 10
3695.9225625040831
 20
3933.4354495585471
 40
58.769238961709512
 50
23.856689453125004
 51
172.48289489746094
  0
ARC
  8
_0-1_
  6
CONTINUOUS
 62
    7
 10
3695.9225625040831
 20
4037.9847131776351
 40
75.769236281111432
 50
8.1712493896484339
 51
171.82875061035156
  0
ARC
  8
_0-1_
  6
CONTINUOUS
 62
    7
 10
3695.9225625040831
 20
4037.9847131776351
 40
58.769238961709512
 50
23.856689453125004
 51
172.48289489746094
  0
ARC
  8
_0-1_
  6
CONTINUOUS
 62
    7
 10
3695.9225625040831
 20
4142.5337293569
 40
75.769236281111432
 50
8.1712493896484339
 51
171.82875061035156
  0
ARC
  8
_0-1_
  6
CONTINUOUS
 62
    7
 10
3695.9225625040831
 20
4142.5337293569
 40
58.769238961709512
 50
23.856689453125004
 51
172.48289489746094
  0
ARC
  8
_0-1_
  6
CONTINUOUS
 62
    7
 10
3695.9225625040831
 20
4247.0829929759884
 40
75.769236281111432
 50
8.1712493896484339
 51
171.82875061035156
  0
ARC
  8
_0-1_
  6
CONTINUOUS
 62
    7
 10
3695.9225625040831
 20
4247.0829929759884
 40
58.769238961709512
 50
23.856689453125004
 51
172.48289489746094
  0
ARC
  8
_0-2_
  6
CONTINUOUS
 62
    7
 10
3960.1298972802651
 20
3091.3378526941051
 40
72.894488154230885
 50
13.791900634765625
 51
161.69851684570312
  0
ARC
  8
_0-2_
  6
CONTINUOUS
 62
    7
 10
3824.0083020522247
 20
3251.0919305023822
 40
167.37639968459672
 50
231.9831237792969
 51
298.39506530761719
  0
ARC
  8
_0-2_
  6
CONTINUOUS
 62
    7
 10
3960.1298972802651
 20
3091.3378526941051
 40
57.894485061233112
 50
25.205398559570313
 51
167.5159912109375
  0
ARC
  8
_0-2_
  6
CONTINUOUS
 62
    7
 10
3823.2659825843193
 20
3254.2279828144592
 40
155.49068966427365
 50
234.57966613769534
 51
295.79264831542969
  0
ARC
  8
_0-2_
  6
CONTINUOUS
 62
    7
 10
3740.7269860682718
 20
3134.7932343452876
 40
10.507658687797754
 50
201.07586669921878
 51
223.8392028808594
  0
ARC
  8
_0-2_
  6
CONTINUOUS
 62
    7
 10
4480.1286435851644
 20
3091.3373578144592
 40
72.894488154230885
 50
13.791900634765625
 51
161.69851684570312
  0
ARC
  8
_0-2_
  6
CONTINUOUS
 62
    7
 10
4344.0070483571235
 20
3251.0914356227363
 40
167.37639968459672
 50
231.9831237792969
 51
298.39506530761719
  0
ARC
  8
_0-2_
  6
CONTINUOUS
 62
    7
 10
4480.1286435851644
 20
3091.3373578144592
 40
57.894485061233112
 50
25.205398559570313
 51
167.5159912109375
  0
ARC
  8
_0-2_
  6
CONTINUOUS
 62
    7
 10
4343.2647288892176
 20
3254.2274879348142
 40
155.49068966427365
 50
234.57966613769534
 51
295.79264831542969
  0
ARC
  8
_0-2_
  6
CONTINUOUS
 62
    7
 10
4260.725732373171
 20
3134.7927394656422
 40
10.507658687797754
 50
201.07586669921878
 51
223.8392028808594
  0
ARC
  8
_0-2_
  6
CONTINUOUS
 62
    7
 10
4740.1285116172594
 20
3091.3368629348142
 40
72.894488154230885
 50
13.791900634765625
 51
161.69851684570312
  0
ARC
  8
_0-2_
  6
CONTINUOUS
 62
    7
 10
4604.0069163892185
 20
3251.0909407430918
 40
167.37639968459672
 50
231.9831237792969
 51
298.39506530761719
  0
ARC
  8
_0-2_
  6
CONTINUOUS
 62
    7
 10
4740.1285116172594
 20
3091.3368629348142
 40
57.894485061233112
 50
25.205398559570313
 51
167.5159912109375
  0
ARC
  8
_0-2_
  6
CONTINUOUS
 62
    7
 10
4603.2645969213117
 20
3254.2269930551684
 40
155.49068966427365
 50
234.57966613769534
 51
295.79264831542969
  0
ARC
  8
_0-2_
  6
CONTINUOUS
 62
    7
 10
4520.7256004052651
 20
3134.7922445859967
 40
10.507658687797754
 50
201.07586669921878
 51
223.8392028808594
  0
ARC
  8
_0-2_
  6
CONTINUOUS
 62
    7
 10
5000.1283796493526
 20
3091.3363680551684
 40
72.894488154230885
 50
13.791900634765625
 51
161.69851684570312
  0
ARC
  8
_0-2_
  6
CONTINUOUS
 62
    7
 10
4864.0067844213136
 20
3251.0904458634459
 40
167.37639968459672
 50
231.9831237792969
 51
298.39506530761719
  0
ARC
  8
_0-2_
  6
CONTINUOUS
 62
    7
 10
5000.1283796493526
 20
3091.3363680551684
 40
57.894485061233112
 50
25.205398559570313
 51
167.5159912109375
  0
ARC
  8
_0-2_
  6
CONTINUOUS
 62
    7
 10
4863.2644649534068
 20
3254.2264981755238
 40
155.49068966427365
 50
234.57966613769534
 51
295.79264831542969
  0
ARC
  8
_0-2_
  6
CONTINUOUS
 62
    7
 10
4780.7254684373602
 20
3134.7917497063513
 40
10.507658687797754
 50
201.07586669921878
 51
223.8392028808594
  0
ARC
  8
_0-2_
  6
CONTINUOUS
 62
    7
 10
5260.1282476814486
 20
3091.3363680551684
 40
72.894488154230885
 50
13.791900634765625
 51
161.69851684570312
  0
ARC
  8
_0-2_
  6
CONTINUOUS
 62
    7
 10
5124.0066524534068
 20
3251.0904458634459
 40
167.37639968459672
 50
231.9831237792969
 51
298.39506530761719
  0
ARC
  8
_0-2_
  6
CONTINUOUS
 62
    7
 10
5260.1282476814486
 20
3091.3363680551684
 40
57.894485061233112
 50
25.205398559570313
 51
167.5159912109375
  0
ARC
  8
_0-2_
  6
CONTINUOUS
 62
    7
 10
5123.2643329855018
 20
3254.2264981755238
 40
155.49068966427365
 50
234.57966613769534
 51
295.79264831542969
  0
ARC
  8
_0-2_
  6
CONTINUOUS
 62
    7
 10
5040.7253364694552
 20
3134.7917497063513
 40
10.507658687797754
 50
201.07586669921878
 51
223.8392028808594
  0
ARC
  8
_0-2_
  6
CONTINUOUS
 62
    7
 10
5520.1266310746068
 20
3091.3363680551684
 40
72.894488154230885
 50
13.791900634765625
 51
161.69851684570312
  0
ARC
  8
_0-2_
  6
CONTINUOUS
 62
    7
 10
5384.0050358465669
 20
3251.0904458634459
 40
167.37639968459672
 50
231.9831237792969
 51
298.39506530761719
  0
ARC
  8
_0-2_
  6
CONTINUOUS
 62
    7
 10
5520.1266310746068
 20
3091.3363680551684
 40
57.894485061233112
 50
25.205398559570313
 51
167.5159912109375
  0
ARC
  8
_0-2_
  6
CONTINUOUS
 62
    7
 10
5383.2627163786601
 20
3254.2264981755238
 40
155.49068966427365
 50
234.57966613769534
 51
295.79264831542969
  0
ARC
  8
_0-2_
  6
CONTINUOUS
 62
    7
 10
5300.7237198626126
 20
3134.7917497063513
 40
10.507658687797754
 50
201.07586669921878
 51
223.8392028808594
  0
ARC
  8
_0-2_
  6
CONTINUOUS
 62
    7
 10
5780.1264991067019
 20
3091.3358731755238
 40
72.894488154230885
 50
13.791900634765625
 51
161.69851684570312
  0
ARC
  8
_0-2_
  6
CONTINUOUS
 62
    7
 10
5644.0049038786601
 20
3251.0899509838009
 40
167.37639968459672
 50
231.9831237792969
 51
298.39506530761719
  0
ARC
  8
_0-2_
  6
CONTINUOUS
 62
    7
 10
5780.1264991067019
 20
3091.3358731755238
 40
57.894485061233112
 50
25.205398559570313
 51
167.5159912109375
  0
ARC
  8
_0-2_
  6
CONTINUOUS
 62
    7
 10
5643.2625844107542
 20
3254.2260032958784
 40
155.49068966427365
 50
234.57966613769534
 51
295.79264831542969
  0
ARC
  8
_0-2_
  6
CONTINUOUS
 62
    7
 10
5560.7235878947085
 20
3134.7912548267059
 40
10.507658687797754
 50
201.07586669921878
 51
223.8392028808594
  0
ARC
  8
_0-2_
  6
CONTINUOUS
 62
    7
 10
6040.126367138796
 20
3091.3358731755238
 40
72.894488154230885
 50
13.791900634765625
 51
161.69851684570312
  0
ARC
  8
_0-2_
  6
CONTINUOUS
 62
    7
 10
5904.0047719107542
 20
3251.0899509838009
 40
167.37639968459672
 50
231.9831237792969
 51
298.39506530761719
  0
ARC
  8
_0-2_
  6
CONTINUOUS
 62
    7
 10
6040.126367138796
 20
3091.3358731755238
 40
57.894485061233112
 50
25.205398559570313
 51
167.5159912109375
  0
ARC
  8
_0-2_
  6
CONTINUOUS
 62
    7
 10
5903.2624524428502
 20
3254.2260032958784
 40
155.49068966427365
 50
234.57966613769534
 51
295.79264831542969
  0
ARC
  8
_0-2_
  6
CONTINUOUS
 62
    7
 10
5820.7234559268018
 20
3134.7912548267059
 40
10.507658687797754
 50
201.07586669921878
 51
223.8392028808594
  0
ARC
  8
_0-2_
  6
CONTINUOUS
 62
    7
 10
6300.1267300505351
 20
3091.3353782958784
 40
72.894488154230885
 50
13.791900634765625
 51
161.69851684570312
  0
ARC
  8
_0-2_
  6
CONTINUOUS
 62
    7
 10
6164.0051348224961
 20
3251.0894561041555
 40
167.37639968459672
 50
231.9831237792969
 51
298.39506530761719
  0
ARC
  8
_0-2_
  6
CONTINUOUS
 62
    7
 10
6300.1267300505351
 20
3091.3353782958784
 40
57.894485061233112
 50
25.205398559570313
 51
167.5159912109375
  0
ARC
  8
_0-2_
  6
CONTINUOUS
 62
    7
 10
6163.2628153545902
 20
3254.2255084162334
 40
155.49068966427365
 50
234.57966613769534
 51
295.79264831542969
  0
ARC
  8
_0-2_
  6
CONTINUOUS
 62
    7
 10
6080.7238188385418
 20
3134.7907599470609
 40
10.507658687797754
 50
201.07586669921878
 51
223.8392028808594
  0
ARC
  8
_0-2_
  6
CONTINUOUS
 62
    7
 10
6560.1270929622751
 20
3091.3348834162334
 40
72.894488154230885
 50
13.791900634765625
 51
161.69851684570312
  0
ARC
  8
_0-2_
  6
CONTINUOUS
 62
    7
 10
6424.0054977342352
 20
3251.0889612245101
 40
167.37639968459672
 50
231.9831237792969
 51
298.39506530761719
  0
ARC
  8
_0-2_
  6
CONTINUOUS
 62
    7
 10
6560.1270929622751
 20
3091.3348834162334
 40
57.894485061233112
 50
25.205398559570313
 51
167.5159912109375
  0
ARC
  8
_0-2_
  6
CONTINUOUS
 62
    7
 10
6423.2631782663293
 20
3254.225013536588
 40
155.49068966427365
 50
234.57966613769534
 51
295.79264831542969
  0
ARC
  8
_0-2_
  6
CONTINUOUS
 62
    7
 10
6340.7241817502818
 20
3134.7902650674155
 40
10.507658687797754
 50
201.07586669921878
 51
223.8392028808594
  0
ARC
  8
_0-2_
  6
CONTINUOUS
 62
    7
 10
7080.1273239061102
 20
3091.3338936569426
 40
72.894488154230885
 50
13.791900634765625
 51
161.69851684570312
  0
ARC
  8
_0-2_
  6
CONTINUOUS
 62
    7
 10
6944.0057286780684
 20
3251.0879714652197
 40
167.37639968459672
 50
231.9831237792969
 51
298.39506530761719
  0
ARC
  8
_0-2_
  6
CONTINUOUS
 62
    7
 10
7080.1273239061102
 20
3091.3338936569426
 40
57.894485061233112
 50
25.205398559570313
 51
167.5159912109375
  0
ARC
  8
_0-2_
  6
CONTINUOUS
 62
    7
 10
6943.2634092101653
 20
3254.2240237772971
 40
155.49068966427365
 50
234.57966613769534
 51
295.79264831542969
  0
ARC
  8
_0-2_
  6
CONTINUOUS
 62
    7
 10
6860.7244126941168
 20
3134.7892753081251
 40
10.507658687797754
 50
201.07586669921878
 51
223.8392028808594
  0
ARC
  8
_0-2_
  6
CONTINUOUS
 62
    7
 10
7210.9200551138792
 20
3361.2118068484547
 40
277.50014227789802
 50
251.07536315917969
 51
288.92463684082031
  0
ARC
  8
_0-2_
  6
CONTINUOUS
 62
    7
 10
7210.9200551138792
 20
3477.3942062889109
 40
373.68275410420188
 50
256.06352233886719
 51
283.93647766113281
  0
ARC
  8
_0-1_
  6
CONTINUOUS
 62
    7
 10
7345.9202530657376
 20
3097.043072684603
 40
75.769236281111432
 50
8.1712493896484393
 51
171.82875061035156
  0
ARC
  8
_0-1_
  6
CONTINUOUS
 62
    7
 10
7345.9202530657376
 20
3097.043072684603
 40
58.769238961709512
 50
7.5171051025390634
 51
156.143310546875
  0
ARC
  8
_0-1_
  6
CONTINUOUS
 62
    7
 10
7345.9202530657376
 20
3201.5920888638684
 40
75.769236281111432
 50
8.1712493896484393
 51
171.82875061035156
  0
ARC
  8
_0-1_
  6
CONTINUOUS
 62
    7
 10
7345.9202530657376
 20
3201.5920888638684
 40
58.769238961709512
 50
7.5171051025390634
 51
156.143310546875
  0
ARC
  8
_0-1_
  6
CONTINUOUS
 62
    7
 10
7345.9202530657376
 20
3306.1411050431334
 40
75.769236281111432
 50
8.1712493896484393
 51
171.82875061035156
  0
ARC
  8
_0-1_
  6
CONTINUOUS
 62
    7
 10
7345.9202530657376
 20
3306.1411050431334
 40
58.769238961709512
 50
7.5171051025390634
 51
156.143310546875
  0
ARC
  8
_0-1_
  6
CONTINUOUS
 62
    7
 10
7345.9202530657376
 20
3410.6901212223988
 40
75.769236281111432
 50
8.1712493896484393
 51
171.82875061035156
  0
ARC
  8
_0-1_
  6
CONTINUOUS
 62
    7
 10
7345.9202530657376
 20
3410.6901212223988
 40
58.769238961709512
 50
7.5171051025390634
 51
156.143310546875
  0
ARC
  8
_0-1_
  6
CONTINUOUS
 62
    7
 10
7345.9202530657376
 20
3515.2393848414863
 40
75.769236281111432
 50
8.1712493896484393
 51
171.82875061035156
  0
ARC
  8
_0-1_
  6
CONTINUOUS
 62
    7
 10
7345.9202530657376
 20
3515.2393848414863
 40
58.769238961709512
 50
7.5171051025390634
 51
156.143310546875
  0
ARC
  8
_0-1_
  6
CONTINUOUS
 62
    7
 10
7345.9202530657376
 20
3619.7884010207517
 40
75.769236281111432
 50
8.1712493896484393
 51
171.82875061035156
  0
ARC
  8
_0-1_
  6
CONTINUOUS
 62
    7
 10
7345.9202530657376
 20
3619.7884010207517
 40
58.769238961709512
 50
7.5171051025390634
 51
156.143310546875
  0
ARC
  8
_0-1_
  6
CONTINUOUS
 62
    7
 10
7345.9202530657376
 20
3724.3374172000172
 40
75.769236281111432
 50
8.1712493896484393
 51
171.82875061035156
  0
ARC
  8
_0-1_
  6
CONTINUOUS
 62
    7
 10
7345.9202530657376
 20
3724.3374172000172
 40
58.769238961709512
 50
7.5171051025390634
 51
156.143310546875
  0
ARC
  8
_0-1_
  6
CONTINUOUS
 62
    7
 10
7345.9202530657376
 20
3828.8866808191051
 40
75.769236281111432
 50
8.1712493896484393
 51
171.82875061035156
  0
ARC
  8
_0-1_
  6
CONTINUOUS
 62
    7
 10
7345.9202530657376
 20
3828.8866808191051
 40
58.769238961709512
 50
7.5171051025390634
 51
156.143310546875
  0
ARC
  8
_0-1_
  6
CONTINUOUS
 62
    7
 10
7345.9202530657376
 20
3933.4354495585471
 40
75.769236281111432
 50
8.1712493896484393
 51
171.82875061035156
  0
ARC
  8
_0-1_
  6
CONTINUOUS
 62
    7
 10
7345.9202530657376
 20
3933.4354495585471
 40
58.769238961709512
 50
7.5171051025390634
 51
156.143310546875
  0
ARC
  8
_0-1_
  6
CONTINUOUS
 62
    7
 10
7345.9202530657376
 20
4037.9847131776351
 40
75.769236281111432
 50
8.1712493896484393
 51
171.82875061035156
  0
ARC
  8
_0-1_
  6
CONTINUOUS
 62
    7
 10
7345.9202530657376
 20
4037.9847131776351
 40
58.769238961709512
 50
7.5171051025390634
 51
156.143310546875
  0
ARC
  8
_0-1_
  6
CONTINUOUS
 62
    7
 10
7345.9202530657376
 20
4142.5337293569
 40
75.769236281111432
 50
8.1712493896484393
 51
171.82875061035156
  0
ARC
  8
_0-1_
  6
CONTINUOUS
 62
    7
 10
7345.9202530657376
 20
4142.5337293569
 40
58.769238961709512
 50
7.5171051025390634
 51
156.143310546875
  0
ARC
  8
_0-1_
  6
CONTINUOUS
 62
    7
 10
7345.9202530657376
 20
4247.0829929759884
 40
75.769236281111432
 50
8.1712493896484393
 51
171.82875061035156
  0
ARC
  8
_0-1_
  6
CONTINUOUS
 62
    7
 10
7345.9202530657376
 20
4247.0829929759884
 40
58.769238961709512
 50
7.5171051025390634
 51
156.143310546875
  0
ARC
  8
_0-2_
  6
CONTINUOUS
 62
    7
 10
3960.1298972802651
 20
3195.8866214335471
 40
72.894488154230885
 50
13.791900634765625
 51
161.69851684570312
  0
ARC
  8
_0-2_
  6
CONTINUOUS
 62
    7
 10
3960.1298972802651
 20
3195.8866214335471
 40
57.894485061233112
 50
25.205398559570313
 51
167.5159912109375
  0
ARC
  8
_0-2_
  6
CONTINUOUS
 62
    7
 10
4480.1286435851644
 20
3195.8861265539017
 40
72.894488154230885
 50
13.791900634765625
 51
161.69851684570312
  0
ARC
  8
_0-2_
  6
CONTINUOUS
 62
    7
 10
4480.1286435851644
 20
3195.8861265539017
 40
57.894485061233112
 50
25.205398559570313
 51
167.5159912109375
  0
ARC
  8
_0-2_
  6
CONTINUOUS
 62
    7
 10
4740.1285116172594
 20
3195.8856316742572
 40
72.894488154230885
 50
13.791900634765625
 51
161.69851684570312
  0
ARC
  8
_0-2_
  6
CONTINUOUS
 62
    7
 10
4740.1285116172594
 20
3195.8856316742572
 40
57.894485061233112
 50
25.205398559570313
 51
167.5159912109375
  0
ARC
  8
_0-2_
  6
CONTINUOUS
 62
    7
 10
5000.1283796493526
 20
3195.8851367946113
 40
72.894488154230885
 50
13.791900634765625
 51
161.69851684570312
  0
ARC
  8
_0-2_
  6
CONTINUOUS
 62
    7
 10
5000.1283796493526
 20
3195.8851367946113
 40
57.894485061233112
 50
25.205398559570313
 51
167.5159912109375
  0
ARC
  8
_0-2_
  6
CONTINUOUS
 62
    7
 10
5260.1282476814486
 20
3195.8851367946113
 40
72.894488154230885
 50
13.791900634765625
 51
161.69851684570312
  0
ARC
  8
_0-2_
  6
CONTINUOUS
 62
    7
 10
5260.1282476814486
 20
3195.8851367946113
 40
57.894485061233112
 50
25.205398559570313
 51
167.5159912109375
  0
ARC
  8
_0-2_
  6
CONTINUOUS
 62
    7
 10
5520.1266310746068
 20
3195.8851367946113
 40
72.894488154230885
 50
13.791900634765625
 51
161.69851684570312
  0
ARC
  8
_0-2_
  6
CONTINUOUS
 62
    7
 10
5520.1266310746068
 20
3195.8851367946113
 40
57.894485061233112
 50
25.205398559570313
 51
167.5159912109375
  0
ARC
  8
_0-2_
  6
CONTINUOUS
 62
    7
 10
5780.1264991067019
 20
3195.8846419149668
 40
72.894488154230885
 50
13.791900634765625
 51
161.69851684570312
  0
ARC
  8
_0-2_
  6
CONTINUOUS
 62
    7
 10
5780.1264991067019
 20
3195.8846419149668
 40
57.894485061233112
 50
25.205398559570313
 51
167.5159912109375
  0
ARC
  8
_0-2_
  6
CONTINUOUS
 62
    7
 10
6040.126367138796
 20
3195.8846419149668
 40
72.894488154230885
 50
13.791900634765625
 51
161.69851684570312
  0
ARC
  8
_0-2_
  6
CONTINUOUS
 62
    7
 10
6040.126367138796
 20
3195.8846419149668
 40
57.894485061233112
 50
25.205398559570313
 51
167.5159912109375
  0
ARC
  8
_0-2_
  6
CONTINUOUS
 62
    7
 10
6300.1267300505351
 20
3195.8841470353209
 40
72.894488154230885
 50
13.791900634765625
 51
161.69851684570312
  0
ARC
  8
_0-2_
  6
CONTINUOUS
 62
    7
 10
6300.1267300505351
 20
3195.8841470353209
 40
57.894485061233112
 50
25.205398559570313
 51
167.5159912109375
  0
ARC
  8
_0-2_
  6
CONTINUOUS
 62
    7
 10
6560.1270929622751
 20
3195.8836521556759
 40
72.894488154230885
 50
13.791900634765625
 51
161.69851684570312
  0
ARC
  8
_0-2_
  6
CONTINUOUS
 62
    7
 10
6560.1270929622751
 20
3195.8836521556759
 40
57.894485061233112
 50
25.205398559570313
 51
167.5159912109375
  0
ARC
  8
_0-2_
  6
CONTINUOUS
 62
    7
 10
7080.1273239061102
 20
3195.8826623963851
 40
72.894488154230885
 50
13.791900634765625
 51
161.69851684570312
  0
ARC
  8
_0-2_
  6
CONTINUOUS
 62
    7
 10
7080.1273239061102
 20
3195.8826623963851
 40
57.894485061233112
 50
25.205398559570313
 51
167.5159912109375
  0
ARC
  8
_0-2_
  6
CONTINUOUS
 62
    7
 10
3824.0083020522247
 20
3355.6406992418242
 40
167.37639968459672
 50
245.11134338378906
 51
298.39506530761719
  0
ARC
  8
_0-2_
  6
CONTINUOUS
 62
    7
 10
3823.2659825843193
 20
3358.7767515539017
 40
155.49068966427365
 50
242.0476989746094
 51
295.79264831542969
  0
ARC
  8
_0-2_
  6
CONTINUOUS
 62
    7
 10
7210.9200551138792
 20
3465.7605755878972
 40
277.50014227789802
 50
254.36529541015625
 51
285.99972534179687
  0
ARC
  8
_0-2_
  6
CONTINUOUS
 62
    7
 10
7210.9200551138792
 20
3581.942975028353
 40
373.68275410420188
 50
257.99339294433594
 51
282.31724548339844
  0
ARC
  8
_0-2_
  6
CONTINUOUS
 62
    7
 10
4344.0070483571235
 20
3355.6402043621792
 40
167.37639968459672
 50
245.80317687988281
 51
298.39506530761719
  0
ARC
  8
_0-2_
  6
CONTINUOUS
 62
    7
 10
4343.2647288892176
 20
3358.7762566742572
 40
155.49068966427365
 50
242.89494323730469
 51
295.79264831542969
  0
ARC
  8
_0-2_
  6
CONTINUOUS
 62
    7
 10
4604.0069163892185
 20
3355.6397094825343
 40
167.37639968459672
 50
245.80317687988281
 51
298.39506530761719
  0
ARC
  8
_0-2_
  6
CONTINUOUS
 62
    7
 10
4603.2645969213117
 20
3358.7757617946113
 40
155.49068966427365
 50
242.8948669433594
 51
295.79264831542969
  0
ARC
  8
_0-2_
  6
CONTINUOUS
 62
    7
 10
4864.0067844213136
 20
3355.6392146028884
 40
167.37639968459672
 50
245.80317687988281
 51
298.39506530761719
  0
ARC
  8
_0-2_
  6
CONTINUOUS
 62
    7
 10
4863.2644649534068
 20
3358.7752669149668
 40
155.49068966427365
 50
242.8948974609375
 51
295.79264831542969
  0
ARC
  8
_0-2_
  6
CONTINUOUS
 62
    7
 10
5124.0066524534068
 20
3355.6392146028884
 40
167.37639968459672
 50
245.80310058593753
 51
298.39506530761724
  0
ARC
  8
_0-2_
  6
CONTINUOUS
 62
    7
 10
5123.2643329855018
 20
3358.7752669149668
 40
155.49068966427365
 50
242.8948974609375
 51
295.79264831542969
  0
ARC
  8
_0-2_
  6
CONTINUOUS
 62
    7
 10
5384.0050358465669
 20
3355.6392146028884
 40
167.37639968459672
 50
245.80366516113281
 51
298.39506530761719
  0
ARC
  8
_0-2_
  6
CONTINUOUS
 62
    7
 10
5383.2627163786601
 20
3358.7752669149668
 40
155.49068966427365
 50
242.89543151855472
 51
295.79264831542969
  0
ARC
  8
_0-2_
  6
CONTINUOUS
 62
    7
 10
5644.0049038786601
 20
3355.6387197232434
 40
167.37639968459672
 50
245.80310058593753
 51
298.39506530761724
  0
ARC
  8
_0-2_
  6
CONTINUOUS
 62
    7
 10
5643.2625844107542
 20
3358.7747720353209
 40
155.49068966427365
 50
242.8948669433594
 51
295.79264831542969
  0
ARC
  8
_0-2_
  6
CONTINUOUS
 62
    7
 10
5904.0047719107542
 20
3355.6387197232434
 40
167.37639968459672
 50
245.80310058593753
 51
298.39506530761724
  0
ARC
  8
_0-2_
  6
CONTINUOUS
 62
    7
 10
5903.2624524428502
 20
3358.7747720353209
 40
155.49068966427365
 50
242.94950866699224
 51
295.79264831542974
  0
ARC
  8
_0-2_
  6
CONTINUOUS
 62
    7
 10
6164.0051348224961
 20
3355.6382248435975
 40
167.37639968459672
 50
245.80291748046872
 51
298.39506530761719
  0
ARC
  8
_0-2_
  6
CONTINUOUS
 62
    7
 10
6163.2628153545902
 20
3358.7742771556759
 40
155.49068966427365
 50
242.89469909667969
 51
295.79264831542969
  0
ARC
  8
_0-2_
  6
CONTINUOUS
 62
    7
 10
6424.0054977342352
 20
3355.637729963953
 40
167.37639968459672
 50
245.80291748046872
 51
298.39506530761719
  0
ARC
  8
_0-2_
  6
CONTINUOUS
 62
    7
 10
6423.2631782663293
 20
3358.7737822760305
 40
155.49068966427365
 50
242.94931030273437
 51
295.79264831542969
  0
ARC
  8
_0-2_
  6
CONTINUOUS
 62
    7
 10
6944.0057286780684
 20
3355.6367402046626
 40
167.37639968459672
 50
245.80310058593753
 51
298.39506530761724
  0
ARC
  8
_0-2_
  6
CONTINUOUS
 62
    7
 10
6943.2634092101653
 20
3358.7727925167401
 40
155.49068966427365
 50
242.89472961425778
 51
295.79264831542969
  0
ARC
  8
_0-2_
  6
CONTINUOUS
 62
    7
 10
3960.1298972802651
 20
4136.8277670469342
 40
72.894488154230885
 50
13.791900634765625
 51
161.69851684570312
  0
ARC
  8
_0-2_
  6
CONTINUOUS
 62
    7
 10
3960.1298972802651
 20
4136.8277670469342
 40
57.894485061233112
 50
25.205398559570313
 51
167.5159912109375
  0
ARC
  8
_0-2_
  6
CONTINUOUS
 62
    7
 10
4480.1286435851644
 20
4136.8272721672893
 40
72.894488154230885
 50
13.791900634765625
 51
161.69851684570312
  0
ARC
  8
_0-2_
  6
CONTINUOUS
 62
    7
 10
4480.1286435851644
 20
4136.8272721672893
 40
57.894485061233112
 50
25.205398559570313
 51
167.5159912109375
  0
ARC
  8
_0-2_
  6
CONTINUOUS
 62
    7
 10
4740.1285116172594
 20
4136.8267772876434
 40
72.894488154230885
 50
13.791900634765625
 51
161.69851684570312
  0
ARC
  8
_0-2_
  6
CONTINUOUS
 62
    7
 10
4740.1285116172594
 20
4136.8267772876434
 40
57.894485061233112
 50
25.205398559570313
 51
167.5159912109375
  0
ARC
  8
_0-2_
  6
CONTINUOUS
 62
    7
 10
5000.1283796493526
 20
4136.8262824079984
 40
72.894488154230885
 50
13.791900634765625
 51
161.69851684570312
  0
ARC
  8
_0-2_
  6
CONTINUOUS
 62
    7
 10
5000.1283796493526
 20
4136.8262824079984
 40
57.894485061233112
 50
25.205398559570313
 51
167.5159912109375
  0
ARC
  8
_0-2_
  6
CONTINUOUS
 62
    7
 10
5260.1282476814486
 20
4136.8262824079984
 40
72.894488154230885
 50
13.791900634765625
 51
161.69851684570312
  0
ARC
  8
_0-2_
  6
CONTINUOUS
 62
    7
 10
5260.1282476814486
 20
4136.8262824079984
 40
57.894485061233112
 50
25.205398559570313
 51
167.5159912109375
  0
ARC
  8
_0-2_
  6
CONTINUOUS
 62
    7
 10
5520.1266310746068
 20
4136.8262824079984
 40
72.894488154230885
 50
13.791900634765625
 51
161.69851684570312
  0
ARC
  8
_0-2_
  6
CONTINUOUS
 62
    7
 10
5520.1266310746068
 20
4136.8262824079984
 40
57.894485061233112
 50
25.205398559570313
 51
167.5159912109375
  0
ARC
  8
_0-2_
  6
CONTINUOUS
 62
    7
 10
5780.1264991067019
 20
4136.8257875283525
 40
72.894488154230885
 50
13.791900634765625
 51
161.69851684570312
  0
ARC
  8
_0-2_
  6
CONTINUOUS
 62
    7
 10
5780.1264991067019
 20
4136.8257875283525
 40
57.894485061233112
 50
25.205398559570313
 51
167.5159912109375
  0
ARC
  8
_0-2_
  6
CONTINUOUS
 62
    7
 10
6040.126367138796
 20
4136.8257875283525
 40
72.894488154230885
 50
13.791900634765625
 51
161.69851684570312
  0
ARC
  8
_0-2_
  6
CONTINUOUS
 62
    7
 10
6040.126367138796
 20
4136.8257875283525
 40
57.894485061233112
 50
25.205398559570313
 51
167.5159912109375
  0
ARC
  8
_0-2_
  6
CONTINUOUS
 62
    7
 10
6300.1267300505351
 20
4136.8252926487075
 40
72.894488154230885
 50
13.791900634765625
 51
161.69851684570312
  0
ARC
  8
_0-2_
  6
CONTINUOUS
 62
    7
 10
6300.1267300505351
 20
4136.8252926487075
 40
57.894485061233112
 50
25.205398559570313
 51
167.5159912109375
  0
ARC
  8
_0-2_
  6
CONTINUOUS
 62
    7
 10
6560.1270929622751
 20
4136.8247977690626
 40
72.894488154230885
 50
13.791900634765625
 51
161.69851684570312
  0
ARC
  8
_0-2_
  6
CONTINUOUS
 62
    7
 10
6560.1270929622751
 20
4136.8247977690626
 40
57.894485061233112
 50
25.205398559570313
 51
167.5159912109375
  0
ARC
  8
_0-2_
  6
CONTINUOUS
 62
    7
 10
7080.1273239061102
 20
4136.8238080097726
 40
72.894488154230885
 50
13.791900634765625
 51
161.69851684570312
  0
ARC
  8
_0-2_
  6
CONTINUOUS
 62
    7
 10
7080.1273239061102
 20
4136.8238080097726
 40
57.894485061233112
 50
25.205398559570313
 51
167.5159912109375
  0
ARC
  8
_0-2_
  6
CONTINUOUS
 62
    7
 10
3824.0083020522247
 20
4296.5818448552109
 40
167.37639968459672
 50
245.11134338378906
 51
298.39506530761719
  0
ARC
  8
_0-2_
  6
CONTINUOUS
 62
    7
 10
3823.2659825843193
 20
4299.7178971672893
 40
155.49068966427365
 50
242.0476989746094
 51
295.79264831542969
  0
ARC
  8
_0-2_
  6
CONTINUOUS
 62
    7
 10
7210.9200551138792
 20
4406.7017212012834
 40
277.50014227789802
 50
254.36529541015625
 51
285.99972534179687
  0
ARC
  8
_0-2_
  6
CONTINUOUS
 62
    7
 10
7210.9200551138792
 20
4522.8841206417401
 40
373.68275410420188
 50
257.99339294433594
 51
282.31724548339844
  0
ARC
  8
_0-2_
  6
CONTINUOUS
 62
    7
 10
4344.0070483571235
 20
4296.5813499755659
 40
167.37639968459672
 50
245.80317687988281
 51
298.39506530761719
  0
ARC
  8
_0-2_
  6
CONTINUOUS
 62
    7
 10
4343.2647288892176
 20
4299.7174022876434
 40
155.49068966427365
 50
242.89494323730469
 51
295.79264831542969
  0
ARC
  8
_0-2_
  6
CONTINUOUS
 62
    7
 10
4604.0069163892185
 20
4296.5808550959209
 40
167.37639968459672
 50
245.80317687988281
 51
298.39506530761719
  0
ARC
  8
_0-2_
  6
CONTINUOUS
 62
    7
 10
4603.2645969213117
 20
4299.7169074079984
 40
155.49068966427365
 50
242.8948669433594
 51
295.79264831542969
  0
ARC
  8
_0-2_
  6
CONTINUOUS
 62
    7
 10
4864.0067844213136
 20
4296.580360216275
 40
167.37639968459672
 50
245.80317687988281
 51
298.39506530761719
  0
ARC
  8
_0-2_
  6
CONTINUOUS
 62
    7
 10
4863.2644649534068
 20
4299.7164125283525
 40
155.49068966427365
 50
242.8948974609375
 51
295.79264831542969
  0
ARC
  8
_0-2_
  6
CONTINUOUS
 62
    7
 10
5124.0066524534068
 20
4296.580360216275
 40
167.37639968459672
 50
245.80310058593753
 51
298.39506530761724
  0
ARC
  8
_0-2_
  6
CONTINUOUS
 62
    7
 10
5123.2643329855018
 20
4299.7164125283525
 40
155.49068966427365
 50
242.8948974609375
 51
295.79264831542969
  0
ARC
  8
_0-2_
  6
CONTINUOUS
 62
    7
 10
5384.0050358465669
 20
4296.580360216275
 40
167.37639968459672
 50
245.80366516113281
 51
298.39506530761719
  0
ARC
  8
_0-2_
  6
CONTINUOUS
 62
    7
 10
5383.2627163786601
 20
4299.7164125283525
 40
155.49068966427365
 50
242.89543151855472
 51
295.79264831542969
  0
ARC
  8
_0-2_
  6
CONTINUOUS
 62
    7
 10
5644.0049038786601
 20
4296.5798653366301
 40
167.37639968459672
 50
245.80310058593753
 51
298.39506530761724
  0
ARC
  8
_0-2_
  6
CONTINUOUS
 62
    7
 10
5643.2625844107542
 20
4299.7159176487075
 40
155.49068966427365
 50
242.8948669433594
 51
295.79264831542969
  0
ARC
  8
_0-2_
  6
CONTINUOUS
 62
    7
 10
5904.0047719107542
 20
4296.5798653366301
 40
167.37639968459672
 50
245.80310058593753
 51
298.39506530761724
  0
ARC
  8
_0-2_
  6
CONTINUOUS
 62
    7
 10
5903.2624524428502
 20
4299.7159176487075
 40
155.49068966427365
 50
242.94950866699224
 51
295.79264831542974
  0
ARC
  8
_0-2_
  6
CONTINUOUS
 62
    7
 10
6164.0051348224961
 20
4296.5793704569851
 40
167.37639968459672
 50
245.80291748046872
 51
298.39506530761719
  0
ARC
  8
_0-2_
  6
CONTINUOUS
 62
    7
 10
6163.2628153545902
 20
4299.7154227690626
 40
155.49068966427365
 50
242.89469909667969
 51
295.79264831542969
  0
ARC
  8
_0-2_
  6
CONTINUOUS
 62
    7
 10
6424.0054977342352
 20
4296.5788755773392
 40
167.37639968459672
 50
245.80291748046872
 51
298.39506530761719
  0
ARC
  8
_0-2_
  6
CONTINUOUS
 62
    7
 10
6423.2631782663293
 20
4299.7149278894176
 40
155.49068966427365
 50
242.94931030273437
 51
295.79264831542969
  0
ARC
  8
_0-2_
  6
CONTINUOUS
 62
    7
 10
6944.0057286780684
 20
4296.5778858180493
 40
167.37639968459672
 50
245.80310058593753
 51
298.39506530761724
  0
ARC
  8
_0-2_
  6
CONTINUOUS
 62
    7
 10
6943.2634092101653
 20
4299.7139381301267
 40
155.49068966427365
 50
242.89472961425778
 51
295.79264831542969
  0
ARC
  8
_0-2_
  6
CONTINUOUS
 62
    7
 10
3960.1298972802651
 20
4242.2814232177534
 40
72.894488154230885
 50
13.791900634765625
 51
161.69851684570312
  0
ARC
  8
_0-2_
  6
CONTINUOUS
 62
    7
 10
3960.1298972802651
 20
4242.2814232177534
 40
57.894485061233112
 50
25.205398559570313
 51
167.5159912109375
  0
ARC
  8
_0-2_
  6
CONTINUOUS
 62
    7
 10
4480.1286435851644
 20
4242.2809283381084
 40
72.894488154230885
 50
13.791900634765625
 51
161.69851684570312
  0
ARC
  8
_0-2_
  6
CONTINUOUS
 62
    7
 10
4480.1286435851644
 20
4242.2809283381084
 40
57.894485061233112
 50
25.205398559570313
 51
167.5159912109375
  0
ARC
  8
_0-2_
  6
CONTINUOUS
 62
    7
 10
4740.1285116172594
 20
4242.2804334584625
 40
72.894488154230885
 50
13.791900634765625
 51
161.69851684570312
  0
ARC
  8
_0-2_
  6
CONTINUOUS
 62
    7
 10
4740.1285116172594
 20
4242.2804334584625
 40
57.894485061233112
 50
25.205398559570313
 51
167.5159912109375
  0
ARC
  8
_0-2_
  6
CONTINUOUS
 62
    7
 10
5000.1283796493526
 20
4242.2799385788176
 40
72.894488154230885
 50
13.791900634765625
 51
161.69851684570312
  0
ARC
  8
_0-2_
  6
CONTINUOUS
 62
    7
 10
5000.1283796493526
 20
4242.2799385788176
 40
57.894485061233112
 50
25.205398559570313
 51
167.5159912109375
  0
ARC
  8
_0-2_
  6
CONTINUOUS
 62
    7
 10
5260.1282476814486
 20
4242.2799385788176
 40
72.894488154230885
 50
13.791900634765625
 51
161.69851684570312
  0
ARC
  8
_0-2_
  6
CONTINUOUS
 62
    7
 10
5260.1282476814486
 20
4242.2799385788176
 40
57.894485061233112
 50
25.205398559570313
 51
167.5159912109375
  0
ARC
  8
_0-2_
  6
CONTINUOUS
 62
    7
 10
5520.1266310746068
 20
4242.2799385788176
 40
72.894488154230885
 50
13.791900634765625
 51
161.69851684570312
  0
ARC
  8
_0-2_
  6
CONTINUOUS
 62
    7
 10
5520.1266310746068
 20
4242.2799385788176
 40
57.894485061233112
 50
25.205398559570313
 51
167.5159912109375
  0
ARC
  8
_0-2_
  6
CONTINUOUS
 62
    7
 10
5780.1264991067019
 20
4242.2794436991726
 40
72.894488154230885
 50
13.791900634765625
 51
161.69851684570312
  0
ARC
  8
_0-2_
  6
CONTINUOUS
 62
    7
 10
5780.1264991067019
 20
4242.2794436991726
 40
57.894485061233112
 50
25.205398559570313
 51
167.5159912109375
  0
ARC
  8
_0-2_
  6
CONTINUOUS
 62
    7
 10
6040.126367138796
 20
4242.2794436991726
 40
72.894488154230885
 50
13.791900634765625
 51
161.69851684570312
  0
ARC
  8
_0-2_
  6
CONTINUOUS
 62
    7
 10
6040.126367138796
 20
4242.2794436991726
 40
57.894485061233112
 50
25.205398559570313
 51
167.5159912109375
  0
ARC
  8
_0-2_
  6
CONTINUOUS
 62
    7
 10
6300.1267300505351
 20
4242.2789488195267
 40
72.894488154230885
 50
13.791900634765625
 51
161.69851684570312
  0
ARC
  8
_0-2_
  6
CONTINUOUS
 62
    7
 10
6300.1267300505351
 20
4242.2789488195267
 40
57.894485061233112
 50
25.205398559570313
 51
167.5159912109375
  0
ARC
  8
_0-2_
  6
CONTINUOUS
 62
    7
 10
6560.1270929622751
 20
4242.2784539398817
 40
72.894488154230885
 50
13.791900634765625
 51
161.69851684570312
  0
ARC
  8
_0-2_
  6
CONTINUOUS
 62
    7
 10
6560.1270929622751
 20
4242.2784539398817
 40
57.894485061233112
 50
25.205398559570313
 51
167.5159912109375
  0
ARC
  8
_0-2_
  6
CONTINUOUS
 62
    7
 10
7080.1273239061102
 20
4242.2774641805918
 40
72.894488154230885
 50
13.791900634765625
 51
161.69851684570312
  0
ARC
  8
_0-2_
  6
CONTINUOUS
 62
    7
 10
7080.1273239061102
 20
4242.2774641805918
 40
57.894485061233112
 50
25.205398559570313
 51
167.5159912109375
  0
ARC
  8
_0-2_
  6
CONTINUOUS
 62
    7
 10
3824.0083020522247
 20
4402.0355010260309
 40
167.37639968459672
 50
245.11134338378906
 51
298.39506530761719
  0
ARC
  8
_0-2_
  6
CONTINUOUS
 62
    7
 10
3823.2659825843193
 20
4405.1715533381084
 40
155.49068966427365
 50
242.0476989746094
 51
295.79264831542969
  0
ARC
  8
_0-2_
  6
CONTINUOUS
 62
    7
 10
7210.9200551138792
 20
4512.1553773721025
 40
277.50014227789802
 50
254.36529541015625
 51
285.99972534179687
  0
ARC
  8
_0-2_
  6
CONTINUOUS
 62
    7
 10
7210.9200551138792
 20
4628.3377768125592
 40
373.68275410420188
 50
257.99339294433594
 51
282.31724548339844
  0
ARC
  8
_0-2_
  6
CONTINUOUS
 62
    7
 10
4344.0070483571235
 20
4402.0350061463851
 40
167.37639968459672
 50
245.80317687988281
 51
298.39506530761719
  0
ARC
  8
_0-2_
  6
CONTINUOUS
 62
    7
 10
4343.2647288892176
 20
4405.1710584584625
 40
155.49068966427365
 50
242.89494323730469
 51
295.79264831542969
  0
ARC
  8
_0-2_
  6
CONTINUOUS
 62
    7
 10
4604.0069163892185
 20
4402.0345112667401
 40
167.37639968459672
 50
245.80317687988281
 51
298.39506530761719
  0
ARC
  8
_0-2_
  6
CONTINUOUS
 62
    7
 10
4603.2645969213117
 20
4405.1705635788176
 40
155.49068966427365
 50
242.8948669433594
 51
295.79264831542969
  0
ARC
  8
_0-2_
  6
CONTINUOUS
 62
    7
 10
4864.0067844213136
 20
4402.0340163870951
 40
167.37639968459672
 50
245.80317687988281
 51
298.39506530761719
  0
ARC
  8
_0-2_
  6
CONTINUOUS
 62
    7
 10
4863.2644649534068
 20
4405.1700686991726
 40
155.49068966427365
 50
242.8948974609375
 51
295.79264831542969
  0
ARC
  8
_0-2_
  6
CONTINUOUS
 62
    7
 10
5124.0066524534068
 20
4402.0340163870951
 40
167.37639968459672
 50
245.80310058593753
 51
298.39506530761724
  0
ARC
  8
_0-2_
  6
CONTINUOUS
 62
    7
 10
5123.2643329855018
 20
4405.1700686991726
 40
155.49068966427365
 50
242.8948974609375
 51
295.79264831542969
  0
ARC
  8
_0-2_
  6
CONTINUOUS
 62
    7
 10
5384.0050358465669
 20
4402.0340163870951
 40
167.37639968459672
 50
245.80366516113281
 51
298.39506530761719
  0
ARC
  8
_0-2_
  6
CONTINUOUS
 62
    7
 10
5383.2627163786601
 20
4405.1700686991726
 40
155.49068966427365
 50
242.89543151855472
 51
295.79264831542969
  0
ARC
  8
_0-2_
  6
CONTINUOUS
 62
    7
 10
5644.0049038786601
 20
4402.0335215074492
 40
167.37639968459672
 50
245.80310058593753
 51
298.39506530761724
  0
ARC
  8
_0-2_
  6
CONTINUOUS
 62
    7
 10
5643.2625844107542
 20
4405.1695738195267
 40
155.49068966427365
 50
242.8948669433594
 51
295.79264831542969
  0
ARC
  8
_0-2_
  6
CONTINUOUS
 62
    7
 10
5904.0047719107542
 20
4402.0335215074492
 40
167.37639968459672
 50
245.80310058593753
 51
298.39506530761724
  0
ARC
  8
_0-2_
  6
CONTINUOUS
 62
    7
 10
5903.2624524428502
 20
4405.1695738195267
 40
155.49068966427365
 50
242.94950866699224
 51
295.79264831542974
  0
ARC
  8
_0-2_
  6
CONTINUOUS
 62
    7
 10
6164.0051348224961
 20
4402.0330266278042
 40
167.37639968459672
 50
245.80291748046872
 51
298.39506530761719
  0
ARC
  8
_0-2_
  6
CONTINUOUS
 62
    7
 10
6163.2628153545902
 20
4405.1690789398817
 40
155.49068966427365
 50
242.89469909667969
 51
295.79264831542969
  0
ARC
  8
_0-2_
  6
CONTINUOUS
 62
    7
 10
6424.0054977342352
 20
4402.0325317481584
 40
167.37639968459672
 50
245.80291748046872
 51
298.39506530761719
  0
ARC
  8
_0-2_
  6
CONTINUOUS
 62
    7
 10
6423.2631782663293
 20
4405.1685840602368
 40
155.49068966427365
 50
242.94931030273437
 51
295.79264831542969
  0
ARC
  8
_0-2_
  6
CONTINUOUS
 62
    7
 10
6944.0057286780684
 20
4402.0315419888684
 40
167.37639968459672
 50
245.80310058593753
 51
298.39506530761724
  0
ARC
  8
_0-2_
  6
CONTINUOUS
 62
    7
 10
6943.2634092101653
 20
4405.1675943009459
 40
155.49068966427365
 50
242.89472961425778
 51
295.79264831542969
  0
ARC
  8
_0-2_
  6
CONTINUOUS
 62
    7
 10
3960.1298972802651
 20
3300.4356376128126
 40
72.894488154230885
 50
13.791900634765625
 51
161.69851684570312
  0
ARC
  8
_0-2_
  6
CONTINUOUS
 62
    7
 10
3960.1298972802651
 20
3300.4356376128126
 40
57.894485061233112
 50
25.205398559570313
 51
167.5159912109375
  0
ARC
  8
_0-2_
  6
CONTINUOUS
 62
    7
 10
4480.1286435851644
 20
3300.4351427331676
 40
72.894488154230885
 50
13.791900634765625
 51
161.69851684570312
  0
ARC
  8
_0-2_
  6
CONTINUOUS
 62
    7
 10
4480.1286435851644
 20
3300.4351427331676
 40
57.894485061233112
 50
25.205398559570313
 51
167.5159912109375
  0
ARC
  8
_0-2_
  6
CONTINUOUS
 62
    7
 10
4740.1285116172594
 20
3300.4346478535217
 40
72.894488154230885
 50
13.791900634765625
 51
161.69851684570312
  0
ARC
  8
_0-2_
  6
CONTINUOUS
 62
    7
 10
4740.1285116172594
 20
3300.4346478535217
 40
57.894485061233112
 50
25.205398559570313
 51
167.5159912109375
  0
ARC
  8
_0-2_
  6
CONTINUOUS
 62
    7
 10
5000.1283796493526
 20
3300.4341529738767
 40
72.894488154230885
 50
13.791900634765625
 51
161.69851684570312
  0
ARC
  8
_0-2_
  6
CONTINUOUS
 62
    7
 10
5000.1283796493526
 20
3300.4341529738767
 40
57.894485061233112
 50
25.205398559570313
 51
167.5159912109375
  0
ARC
  8
_0-2_
  6
CONTINUOUS
 62
    7
 10
5260.1282476814486
 20
3300.4341529738767
 40
72.894488154230885
 50
13.791900634765625
 51
161.69851684570312
  0
ARC
  8
_0-2_
  6
CONTINUOUS
 62
    7
 10
5260.1282476814486
 20
3300.4341529738767
 40
57.894485061233112
 50
25.205398559570313
 51
167.5159912109375
  0
ARC
  8
_0-2_
  6
CONTINUOUS
 62
    7
 10
5520.1266310746068
 20
3300.4341529738767
 40
72.894488154230885
 50
13.791900634765625
 51
161.69851684570312
  0
ARC
  8
_0-2_
  6
CONTINUOUS
 62
    7
 10
5520.1266310746068
 20
3300.4341529738767
 40
57.894485061233112
 50
25.205398559570313
 51
167.5159912109375
  0
ARC
  8
_0-2_
  6
CONTINUOUS
 62
    7
 10
5780.1264991067019
 20
3300.4336580942309
 40
72.894488154230885
 50
13.791900634765625
 51
161.69851684570312
  0
ARC
  8
_0-2_
  6
CONTINUOUS
 62
    7
 10
5780.1264991067019
 20
3300.4336580942309
 40
57.894485061233112
 50
25.205398559570313
 51
167.5159912109375
  0
ARC
  8
_0-2_
  6
CONTINUOUS
 62
    7
 10
6040.126367138796
 20
3300.4336580942309
 40
72.894488154230885
 50
13.791900634765625
 51
161.69851684570312
  0
ARC
  8
_0-2_
  6
CONTINUOUS
 62
    7
 10
6040.126367138796
 20
3300.4336580942309
 40
57.894485061233112
 50
25.205398559570313
 51
167.5159912109375
  0
ARC
  8
_0-2_
  6
CONTINUOUS
 62
    7
 10
6300.1267300505351
 20
3300.4331632145863
 40
72.894488154230885
 50
13.791900634765625
 51
161.69851684570312
  0
ARC
  8
_0-2_
  6
CONTINUOUS
 62
    7
 10
6300.1267300505351
 20
3300.4331632145863
 40
57.894485061233112
 50
25.205398559570313
 51
167.5159912109375
  0
ARC
  8
_0-2_
  6
CONTINUOUS
 62
    7
 10
6560.1270929622751
 20
3300.4326683349409
 40
72.894488154230885
 50
13.791900634765625
 51
161.69851684570312
  0
ARC
  8
_0-2_
  6
CONTINUOUS
 62
    7
 10
6560.1270929622751
 20
3300.4326683349409
 40
57.894485061233112
 50
25.205398559570313
 51
167.5159912109375
  0
ARC
  8
_0-2_
  6
CONTINUOUS
 62
    7
 10
7080.1273239061102
 20
3300.4316785756505
 40
72.894488154230885
 50
13.791900634765625
 51
161.69851684570312
  0
ARC
  8
_0-2_
  6
CONTINUOUS
 62
    7
 10
7080.1273239061102
 20
3300.4316785756505
 40
57.894485061233112
 50
25.205398559570313
 51
167.5159912109375
  0
ARC
  8
_0-2_
  6
CONTINUOUS
 62
    7
 10
3824.0083020522247
 20
3460.1897154210892
 40
167.37639968459672
 50
245.11134338378906
 51
298.39506530761719
  0
ARC
  8
_0-2_
  6
CONTINUOUS
 62
    7
 10
3823.2659825843193
 20
3463.3257677331671
 40
155.49068966427365
 50
242.0476989746094
 51
295.79264831542969
  0
ARC
  8
_0-2_
  6
CONTINUOUS
 62
    7
 10
7210.9200551138792
 20
3570.3095917671626
 40
277.50014227789802
 50
254.36529541015625
 51
285.99972534179687
  0
ARC
  8
_0-2_
  6
CONTINUOUS
 62
    7
 10
7210.9200551138792
 20
3686.491991207618
 40
373.68275410420188
 50
257.99339294433594
 51
282.31724548339844
  0
ARC
  8
_0-2_
  6
CONTINUOUS
 62
    7
 10
4344.0070483571235
 20
3460.1892205414442
 40
167.37639968459672
 50
245.80317687988281
 51
298.39506530761719
  0
ARC
  8
_0-2_
  6
CONTINUOUS
 62
    7
 10
4343.2647288892176
 20
3463.3252728535222
 40
155.49068966427365
 50
242.89494323730469
 51
295.79264831542969
  0
ARC
  8
_0-2_
  6
CONTINUOUS
 62
    7
 10
4604.0069163892185
 20
3460.1887256617988
 40
167.37639968459672
 50
245.80317687988281
 51
298.39506530761719
  0
ARC
  8
_0-2_
  6
CONTINUOUS
 62
    7
 10
4603.2645969213117
 20
3463.3247779738767
 40
155.49068966427365
 50
242.8948669433594
 51
295.79264831542969
  0
ARC
  8
_0-2_
  6
CONTINUOUS
 62
    7
 10
4864.0067844213136
 20
3460.1882307821543
 40
167.37639968459672
 50
245.80317687988281
 51
298.39506530761719
  0
ARC
  8
_0-2_
  6
CONTINUOUS
 62
    7
 10
4863.2644649534068
 20
3463.3242830942318
 40
155.49068966427365
 50
242.8948974609375
 51
295.79264831542969
  0
ARC
  8
_0-2_
  6
CONTINUOUS
 62
    7
 10
5124.0066524534068
 20
3460.1882307821543
 40
167.37639968459672
 50
245.80310058593753
 51
298.39506530761724
  0
ARC
  8
_0-2_
  6
CONTINUOUS
 62
    7
 10
5123.2643329855018
 20
3463.3242830942318
 40
155.49068966427365
 50
242.8948974609375
 51
295.79264831542969
  0
ARC
  8
_0-2_
  6
CONTINUOUS
 62
    7
 10
5384.0050358465669
 20
3460.1882307821543
 40
167.37639968459672
 50
245.80366516113281
 51
298.39506530761719
  0
ARC
  8
_0-2_
  6
CONTINUOUS
 62
    7
 10
5383.2627163786601
 20
3463.3242830942318
 40
155.49068966427365
 50
242.89543151855472
 51
295.79264831542969
  0
ARC
  8
_0-2_
  6
CONTINUOUS
 62
    7
 10
5644.0049038786601
 20
3460.1877359025088
 40
167.37639968459672
 50
245.80310058593753
 51
298.39506530761724
  0
ARC
  8
_0-2_
  6
CONTINUOUS
 62
    7
 10
5643.2625844107542
 20
3463.3237882145863
 40
155.49068966427365
 50
242.8948669433594
 51
295.79264831542969
  0
ARC
  8
_0-2_
  6
CONTINUOUS
 62
    7
 10
5904.0047719107542
 20
3460.1877359025088
 40
167.37639968459672
 50
245.80310058593753
 51
298.39506530761724
  0
ARC
  8
_0-2_
  6
CONTINUOUS
 62
    7
 10
5903.2624524428502
 20
3463.3237882145863
 40
155.49068966427365
 50
242.94950866699224
 51
295.79264831542974
  0
ARC
  8
_0-2_
  6
CONTINUOUS
 62
    7
 10
6164.0051348224961
 20
3460.1872410228634
 40
167.37639968459672
 50
245.80291748046872
 51
298.39506530761719
  0
ARC
  8
_0-2_
  6
CONTINUOUS
 62
    7
 10
6163.2628153545902
 20
3463.3232933349409
 40
155.49068966427365
 50
242.89469909667969
 51
295.79264831542969
  0
ARC
  8
_0-2_
  6
CONTINUOUS
 62
    7
 10
6424.0054977342352
 20
3460.186746143218
 40
167.37639968459672
 50
245.80291748046872
 51
298.39506530761719
  0
ARC
  8
_0-2_
  6
CONTINUOUS
 62
    7
 10
6423.2631782663293
 20
3463.3227984552959
 40
155.49068966427365
 50
242.94931030273437
 51
295.79264831542969
  0
ARC
  8
_0-2_
  6
CONTINUOUS
 62
    7
 10
6944.0057286780684
 20
3460.1857563839276
 40
167.37639968459672
 50
245.80310058593753
 51
298.39506530761724
  0
ARC
  8
_0-2_
  6
CONTINUOUS
 62
    7
 10
6943.2634092101653
 20
3463.3218086960051
 40
155.49068966427365
 50
242.89472961425778
 51
295.79264831542969
  0
ARC
  8
_0-2_
  6
CONTINUOUS
 62
    7
 10
3960.1298972802651
 20
3404.9844063522551
 40
72.894488154230885
 50
13.791900634765625
 51
161.69851684570312
  0
ARC
  8
_0-2_
  6
CONTINUOUS
 62
    7
 10
3960.1298972802651
 20
3404.9844063522551
 40
57.894485061233112
 50
25.205398559570313
 51
167.5159912109375
  0
ARC
  8
_0-2_
  6
CONTINUOUS
 62
    7
 10
4480.1286435851644
 20
3404.9839114726096
 40
72.894488154230885
 50
13.791900634765625
 51
161.69851684570312
  0
ARC
  8
_0-2_
  6
CONTINUOUS
 62
    7
 10
4480.1286435851644
 20
3404.9839114726096
 40
57.894485061233112
 50
25.205398559570313
 51
167.5159912109375
  0
ARC
  8
_0-2_
  6
CONTINUOUS
 62
    7
 10
4740.1285116172594
 20
3404.9834165929642
 40
72.894488154230885
 50
13.791900634765625
 51
161.69851684570312
  0
ARC
  8
_0-2_
  6
CONTINUOUS
 62
    7
 10
4740.1285116172594
 20
3404.9834165929642
 40
57.894485061233112
 50
25.205398559570313
 51
167.5159912109375
  0
ARC
  8
_0-2_
  6
CONTINUOUS
 62
    7
 10
5000.1283796493526
 20
3404.9829217133197
 40
72.894488154230885
 50
13.791900634765625
 51
161.69851684570312
  0
ARC
  8
_0-2_
  6
CONTINUOUS
 62
    7
 10
5000.1283796493526
 20
3404.9829217133197
 40
57.894485061233112
 50
25.205398559570313
 51
167.5159912109375
  0
ARC
  8
_0-2_
  6
CONTINUOUS
 62
    7
 10
5260.1282476814486
 20
3404.9829217133197
 40
72.894488154230885
 50
13.791900634765625
 51
161.69851684570312
  0
ARC
  8
_0-2_
  6
CONTINUOUS
 62
    7
 10
5260.1282476814486
 20
3404.9829217133197
 40
57.894485061233112
 50
25.205398559570313
 51
167.5159912109375
  0
ARC
  8
_0-2_
  6
CONTINUOUS
 62
    7
 10
5520.1266310746068
 20
3404.9829217133197
 40
72.894488154230885
 50
13.791900634765625
 51
161.69851684570312
  0
ARC
  8
_0-2_
  6
CONTINUOUS
 62
    7
 10
5520.1266310746068
 20
3404.9829217133197
 40
57.894485061233112
 50
25.205398559570313
 51
167.5159912109375
  0
ARC
  8
_0-2_
  6
CONTINUOUS
 62
    7
 10
5780.1264991067019
 20
3404.9824268336738
 40
72.894488154230885
 50
13.791900634765625
 51
161.69851684570312
  0
ARC
  8
_0-2_
  6
CONTINUOUS
 62
    7
 10
5780.1264991067019
 20
3404.9824268336738
 40
57.894485061233112
 50
25.205398559570313
 51
167.5159912109375
  0
ARC
  8
_0-2_
  6
CONTINUOUS
 62
    7
 10
6040.126367138796
 20
3404.9824268336738
 40
72.894488154230885
 50
13.791900634765625
 51
161.69851684570312
  0
ARC
  8
_0-2_
  6
CONTINUOUS
 62
    7
 10
6040.126367138796
 20
3404.9824268336738
 40
57.894485061233112
 50
25.205398559570313
 51
167.5159912109375
  0
ARC
  8
_0-2_
  6
CONTINUOUS
 62
    7
 10
6300.1267300505351
 20
3404.9819319540293
 40
72.894488154230885
 50
13.791900634765625
 51
161.69851684570312
  0
ARC
  8
_0-2_
  6
CONTINUOUS
 62
    7
 10
6300.1267300505351
 20
3404.9819319540293
 40
57.894485061233112
 50
25.205398559570313
 51
167.5159912109375
  0
ARC
  8
_0-2_
  6
CONTINUOUS
 62
    7
 10
6560.1270929622751
 20
3404.9814370743834
 40
72.894488154230885
 50
13.791900634765625
 51
161.69851684570312
  0
ARC
  8
_0-2_
  6
CONTINUOUS
 62
    7
 10
6560.1270929622751
 20
3404.9814370743834
 40
57.894485061233112
 50
25.205398559570313
 51
167.5159912109375
  0
ARC
  8
_0-2_
  6
CONTINUOUS
 62
    7
 10
7080.1273239061102
 20
3404.980447315093
 40
72.894488154230885
 50
13.791900634765625
 51
161.69851684570312
  0
ARC
  8
_0-2_
  6
CONTINUOUS
 62
    7
 10
7080.1273239061102
 20
3404.980447315093
 40
57.894485061233112
 50
25.205398559570313
 51
167.5159912109375
  0
ARC
  8
_0-2_
  6
CONTINUOUS
 62
    7
 10
3824.0083020522247
 20
3564.7384841605322
 40
167.37639968459672
 50
245.11134338378906
 51
298.39506530761719
  0
ARC
  8
_0-2_
  6
CONTINUOUS
 62
    7
 10
3823.2659825843193
 20
3567.8745364726096
 40
155.49068966427365
 50
242.0476989746094
 51
295.79264831542969
  0
ARC
  8
_0-2_
  6
CONTINUOUS
 62
    7
 10
7210.9200551138792
 20
3674.8583605066051
 40
277.50014227789802
 50
254.36529541015625
 51
285.99972534179687
  0
ARC
  8
_0-2_
  6
CONTINUOUS
 62
    7
 10
7210.9200551138792
 20
3791.0407599470609
 40
373.68275410420188
 50
257.99339294433594
 51
282.31724548339844
  0
ARC
  8
_0-2_
  6
CONTINUOUS
 62
    7
 10
4344.0070483571235
 20
3564.7379892808867
 40
167.37639968459672
 50
245.80317687988281
 51
298.39506530761719
  0
ARC
  8
_0-2_
  6
CONTINUOUS
 62
    7
 10
4343.2647288892176
 20
3567.8740415929642
 40
155.49068966427365
 50
242.89494323730469
 51
295.79264831542969
  0
ARC
  8
_0-2_
  6
CONTINUOUS
 62
    7
 10
4604.0069163892185
 20
3564.7374944012417
 40
167.37639968459672
 50
245.80317687988281
 51
298.39506530761719
  0
ARC
  8
_0-2_
  6
CONTINUOUS
 62
    7
 10
4603.2645969213117
 20
3567.8735467133192
 40
155.49068966427365
 50
242.8948669433594
 51
295.79264831542969
  0
ARC
  8
_0-2_
  6
CONTINUOUS
 62
    7
 10
4864.0067844213136
 20
3564.7369995215963
 40
167.37639968459672
 50
245.80317687988281
 51
298.39506530761719
  0
ARC
  8
_0-2_
  6
CONTINUOUS
 62
    7
 10
4863.2644649534068
 20
3567.8730518336738
 40
155.49068966427365
 50
242.8948974609375
 51
295.79264831542969
  0
ARC
  8
_0-2_
  6
CONTINUOUS
 62
    7
 10
5124.0066524534068
 20
3564.7369995215963
 40
167.37639968459672
 50
245.80310058593753
 51
298.39506530761724
  0
ARC
  8
_0-2_
  6
CONTINUOUS
 62
    7
 10
5123.2643329855018
 20
3567.8730518336738
 40
155.49068966427365
 50
242.8948974609375
 51
295.79264831542969
  0
ARC
  8
_0-2_
  6
CONTINUOUS
 62
    7
 10
5384.0050358465669
 20
3564.7369995215963
 40
167.37639968459672
 50
245.80366516113281
 51
298.39506530761719
  0
ARC
  8
_0-2_
  6
CONTINUOUS
 62
    7
 10
5383.2627163786601
 20
3567.8730518336738
 40
155.49068966427365
 50
242.89543151855472
 51
295.79264831542969
  0
ARC
  8
_0-2_
  6
CONTINUOUS
 62
    7
 10
5644.0049038786601
 20
3564.7365046419509
 40
167.37639968459672
 50
245.80310058593753
 51
298.39506530761724
  0
ARC
  8
_0-2_
  6
CONTINUOUS
 62
    7
 10
5643.2625844107542
 20
3567.8725569540293
 40
155.49068966427365
 50
242.8948669433594
 51
295.79264831542969
  0
ARC
  8
_0-2_
  6
CONTINUOUS
 62
    7
 10
5904.0047719107542
 20
3564.7365046419509
 40
167.37639968459672
 50
245.80310058593753
 51
298.39506530761724
  0
ARC
  8
_0-2_
  6
CONTINUOUS
 62
    7
 10
5903.2624524428502
 20
3567.8725569540293
 40
155.49068966427365
 50
242.94950866699224
 51
295.79264831542974
  0
ARC
  8
_0-2_
  6
CONTINUOUS
 62
    7
 10
6164.0051348224961
 20
3564.7360097623055
 40
167.37639968459672
 50
245.80291748046872
 51
298.39506530761719
  0
ARC
  8
_0-2_
  6
CONTINUOUS
 62
    7
 10
6163.2628153545902
 20
3567.8720620743838
 40
155.49068966427365
 50
242.89469909667969
 51
295.79264831542969
  0
ARC
  8
_0-2_
  6
CONTINUOUS
 62
    7
 10
6424.0054977342352
 20
3564.7355148826609
 40
167.37639968459672
 50
245.80291748046872
 51
298.39506530761719
  0
ARC
  8
_0-2_
  6
CONTINUOUS
 62
    7
 10
6423.2631782663293
 20
3567.8715671947384
 40
155.49068966427365
 50
242.94931030273437
 51
295.79264831542969
  0
ARC
  8
_0-2_
  6
CONTINUOUS
 62
    7
 10
6944.0057286780684
 20
3564.7345251233701
 40
167.37639968459672
 50
245.80310058593753
 51
298.39506530761724
  0
ARC
  8
_0-2_
  6
CONTINUOUS
 62
    7
 10
6943.2634092101653
 20
3567.8705774354476
 40
155.49068966427365
 50
242.89472961425778
 51
295.79264831542969
  0
ARC
  8
_0-2_
  6
CONTINUOUS
 62
    7
 10
3960.1298972802651
 20
3509.5339174111655
 40
72.894488154230885
 50
13.791900634765625
 51
161.69851684570312
  0
ARC
  8
_0-2_
  6
CONTINUOUS
 62
    7
 10
3960.1298972802651
 20
3509.5339174111655
 40
57.894485061233112
 50
25.205398559570313
 51
167.5159912109375
  0
ARC
  8
_0-2_
  6
CONTINUOUS
 62
    7
 10
4480.1286435851644
 20
3509.53342253152
 40
72.894488154230885
 50
13.791900634765625
 51
161.69851684570312
  0
ARC
  8
_0-2_
  6
CONTINUOUS
 62
    7
 10
4480.1286435851644
 20
3509.53342253152
 40
57.894485061233112
 50
25.205398559570313
 51
167.5159912109375
  0
ARC
  8
_0-2_
  6
CONTINUOUS
 62
    7
 10
4740.1285116172594
 20
3509.5329276518751
 40
72.894488154230885
 50
13.791900634765625
 51
161.69851684570312
  0
ARC
  8
_0-2_
  6
CONTINUOUS
 62
    7
 10
4740.1285116172594
 20
3509.5329276518751
 40
57.894485061233112
 50
25.205398559570313
 51
167.5159912109375
  0
ARC
  8
_0-2_
  6
CONTINUOUS
 62
    7
 10
5000.1283796493526
 20
3509.5324327722301
 40
72.894488154230885
 50
13.791900634765625
 51
161.69851684570312
  0
ARC
  8
_0-2_
  6
CONTINUOUS
 62
    7
 10
5000.1283796493526
 20
3509.5324327722301
 40
57.894485061233112
 50
25.205398559570313
 51
167.5159912109375
  0
ARC
  8
_0-2_
  6
CONTINUOUS
 62
    7
 10
5260.1282476814486
 20
3509.5324327722301
 40
72.894488154230885
 50
13.791900634765625
 51
161.69851684570312
  0
ARC
  8
_0-2_
  6
CONTINUOUS
 62
    7
 10
5260.1282476814486
 20
3509.5324327722301
 40
57.894485061233112
 50
25.205398559570313
 51
167.5159912109375
  0
ARC
  8
_0-2_
  6
CONTINUOUS
 62
    7
 10
5520.1266310746068
 20
3509.5324327722301
 40
72.894488154230885
 50
13.791900634765625
 51
161.69851684570312
  0
ARC
  8
_0-2_
  6
CONTINUOUS
 62
    7
 10
5520.1266310746068
 20
3509.5324327722301
 40
57.894485061233112
 50
25.205398559570313
 51
167.5159912109375
  0
ARC
  8
_0-2_
  6
CONTINUOUS
 62
    7
 10
5780.1264991067019
 20
3509.5319378925847
 40
72.894488154230885
 50
13.791900634765625
 51
161.69851684570312
  0
ARC
  8
_0-2_
  6
CONTINUOUS
 62
    7
 10
5780.1264991067019
 20
3509.5319378925847
 40
57.894485061233112
 50
25.205398559570313
 51
167.5159912109375
  0
ARC
  8
_0-2_
  6
CONTINUOUS
 62
    7
 10
6040.126367138796
 20
3509.5319378925847
 40
72.894488154230885
 50
13.791900634765625
 51
161.69851684570312
  0
ARC
  8
_0-2_
  6
CONTINUOUS
 62
    7
 10
6040.126367138796
 20
3509.5319378925847
 40
57.894485061233112
 50
25.205398559570313
 51
167.5159912109375
  0
ARC
  8
_0-2_
  6
CONTINUOUS
 62
    7
 10
6300.1267300505351
 20
3509.5314430129392
 40
72.894488154230885
 50
13.791900634765625
 51
161.69851684570312
  0
ARC
  8
_0-2_
  6
CONTINUOUS
 62
    7
 10
6300.1267300505351
 20
3509.5314430129392
 40
57.894485061233112
 50
25.205398559570313
 51
167.5159912109375
  0
ARC
  8
_0-2_
  6
CONTINUOUS
 62
    7
 10
6560.1270929622751
 20
3509.5309481332943
 40
72.894488154230885
 50
13.791900634765625
 51
161.69851684570312
  0
ARC
  8
_0-2_
  6
CONTINUOUS
 62
    7
 10
6560.1270929622751
 20
3509.5309481332943
 40
57.894485061233112
 50
25.205398559570313
 51
167.5159912109375
  0
ARC
  8
_0-2_
  6
CONTINUOUS
 62
    7
 10
7080.1273239061102
 20
3509.5299583740034
 40
72.894488154230885
 50
13.791900634765625
 51
161.69851684570312
  0
ARC
  8
_0-2_
  6
CONTINUOUS
 62
    7
 10
7080.1273239061102
 20
3509.5299583740034
 40
57.894485061233112
 50
25.205398559570313
 51
167.5159912109375
  0
ARC
  8
_0-2_
  6
CONTINUOUS
 62
    7
 10
3824.0083020522247
 20
3669.2879952194426
 40
167.37639968459672
 50
245.11134338378906
 51
298.39506530761719
  0
ARC
  8
_0-2_
  6
CONTINUOUS
 62
    7
 10
3823.2659825843193
 20
3672.42404753152
 40
155.49068966427365
 50
242.0476989746094
 51
295.79264831542969
  0
ARC
  8
_0-2_
  6
CONTINUOUS
 62
    7
 10
7210.9200551138792
 20
3779.4078715655155
 40
277.50014227789802
 50
254.36529541015625
 51
285.99972534179687
  0
ARC
  8
_0-2_
  6
CONTINUOUS
 62
    7
 10
7210.9200551138792
 20
3895.5902710059713
 40
373.68275410420188
 50
257.99339294433594
 51
282.31724548339844
  0
ARC
  8
_0-2_
  6
CONTINUOUS
 62
    7
 10
4344.0070483571235
 20
3669.2875003397971
 40
167.37639968459672
 50
245.80317687988281
 51
298.39506530761719
  0
ARC
  8
_0-2_
  6
CONTINUOUS
 62
    7
 10
4343.2647288892176
 20
3672.4235526518751
 40
155.49068966427365
 50
242.89494323730469
 51
295.79264831542969
  0
ARC
  8
_0-2_
  6
CONTINUOUS
 62
    7
 10
4604.0069163892185
 20
3669.2870054601517
 40
167.37639968459672
 50
245.80317687988281
 51
298.39506530761719
  0
ARC
  8
_0-2_
  6
CONTINUOUS
 62
    7
 10
4603.2645969213117
 20
3672.4230577722301
 40
155.49068966427365
 50
242.8948669433594
 51
295.79264831542969
  0
ARC
  8
_0-2_
  6
CONTINUOUS
 62
    7
 10
4864.0067844213136
 20
3669.2865105805067
 40
167.37639968459672
 50
245.80317687988281
 51
298.39506530761719
  0
ARC
  8
_0-2_
  6
CONTINUOUS
 62
    7
 10
4863.2644649534068
 20
3672.4225628925847
 40
155.49068966427365
 50
242.8948974609375
 51
295.79264831542969
  0
ARC
  8
_0-2_
  6
CONTINUOUS
 62
    7
 10
5124.0066524534068
 20
3669.2865105805067
 40
167.37639968459672
 50
245.80310058593753
 51
298.39506530761724
  0
ARC
  8
_0-2_
  6
CONTINUOUS
 62
    7
 10
5123.2643329855018
 20
3672.4225628925847
 40
155.49068966427365
 50
242.8948974609375
 51
295.79264831542969
  0
ARC
  8
_0-2_
  6
CONTINUOUS
 62
    7
 10
5384.0050358465669
 20
3669.2865105805067
 40
167.37639968459672
 50
245.80366516113281
 51
298.39506530761719
  0
ARC
  8
_0-2_
  6
CONTINUOUS
 62
    7
 10
5383.2627163786601
 20
3672.4225628925847
 40
155.49068966427365
 50
242.89543151855472
 51
295.79264831542969
  0
ARC
  8
_0-2_
  6
CONTINUOUS
 62
    7
 10
5644.0049038786601
 20
3669.2860157008613
 40
167.37639968459672
 50
245.80310058593753
 51
298.39506530761724
  0
ARC
  8
_0-2_
  6
CONTINUOUS
 62
    7
 10
5643.2625844107542
 20
3672.4220680129392
 40
155.49068966427365
 50
242.8948669433594
 51
295.79264831542969
  0
ARC
  8
_0-2_
  6
CONTINUOUS
 62
    7
 10
5904.0047719107542
 20
3669.2860157008613
 40
167.37639968459672
 50
245.80310058593753
 51
298.39506530761724
  0
ARC
  8
_0-2_
  6
CONTINUOUS
 62
    7
 10
5903.2624524428502
 20
3672.4220680129392
 40
155.49068966427365
 50
242.94950866699224
 51
295.79264831542974
  0
ARC
  8
_0-2_
  6
CONTINUOUS
 62
    7
 10
6164.0051348224961
 20
3669.2855208212168
 40
167.37639968459672
 50
245.80291748046872
 51
298.39506530761719
  0
ARC
  8
_0-2_
  6
CONTINUOUS
 62
    7
 10
6163.2628153545902
 20
3672.4215731332943
 40
155.49068966427365
 50
242.89469909667969
 51
295.79264831542969
  0
ARC
  8
_0-2_
  6
CONTINUOUS
 62
    7
 10
6424.0054977342352
 20
3669.2850259415713
 40
167.37639968459672
 50
245.80291748046872
 51
298.39506530761719
  0
ARC
  8
_0-2_
  6
CONTINUOUS
 62
    7
 10
6423.2631782663293
 20
3672.4210782536488
 40
155.49068966427365
 50
242.94931030273437
 51
295.79264831542969
  0
ARC
  8
_0-2_
  6
CONTINUOUS
 62
    7
 10
6944.0057286780684
 20
3669.2840361822805
 40
167.37639968459672
 50
245.80310058593753
 51
298.39506530761724
  0
ARC
  8
_0-2_
  6
CONTINUOUS
 62
    7
 10
6943.2634092101653
 20
3672.4200884943584
 40
155.49068966427365
 50
242.89472961425778
 51
295.79264831542969
  0
ARC
  8
_0-2_
  6
CONTINUOUS
 62
    7
 10
3960.1298972802651
 20
3614.0829335904305
 40
72.894488154230885
 50
13.791900634765625
 51
161.69851684570312
  0
ARC
  8
_0-2_
  6
CONTINUOUS
 62
    7
 10
3960.1298972802651
 20
3614.0829335904305
 40
57.894485061233112
 50
25.205398559570313
 51
167.5159912109375
  0
ARC
  8
_0-2_
  6
CONTINUOUS
 62
    7
 10
4480.1286435851644
 20
3614.0824387107859
 40
72.894488154230885
 50
13.791900634765625
 51
161.69851684570312
  0
ARC
  8
_0-2_
  6
CONTINUOUS
 62
    7
 10
4480.1286435851644
 20
3614.0824387107859
 40
57.894485061233112
 50
25.205398559570313
 51
167.5159912109375
  0
ARC
  8
_0-2_
  6
CONTINUOUS
 62
    7
 10
4740.1285116172594
 20
3614.0819438311405
 40
72.894488154230885
 50
13.791900634765625
 51
161.69851684570312
  0
ARC
  8
_0-2_
  6
CONTINUOUS
 62
    7
 10
4740.1285116172594
 20
3614.0819438311405
 40
57.894485061233112
 50
25.205398559570313
 51
167.5159912109375
  0
ARC
  8
_0-2_
  6
CONTINUOUS
 62
    7
 10
5000.1283796493526
 20
3614.0814489514951
 40
72.894488154230885
 50
13.791900634765625
 51
161.69851684570312
  0
ARC
  8
_0-2_
  6
CONTINUOUS
 62
    7
 10
5000.1283796493526
 20
3614.0814489514951
 40
57.894485061233112
 50
25.205398559570313
 51
167.5159912109375
  0
ARC
  8
_0-2_
  6
CONTINUOUS
 62
    7
 10
5260.1282476814486
 20
3614.0814489514951
 40
72.894488154230885
 50
13.791900634765625
 51
161.69851684570312
  0
ARC
  8
_0-2_
  6
CONTINUOUS
 62
    7
 10
5260.1282476814486
 20
3614.0814489514951
 40
57.894485061233112
 50
25.205398559570313
 51
167.5159912109375
  0
ARC
  8
_0-2_
  6
CONTINUOUS
 62
    7
 10
5520.1266310746068
 20
3614.0814489514951
 40
72.894488154230885
 50
13.791900634765625
 51
161.69851684570312
  0
ARC
  8
_0-2_
  6
CONTINUOUS
 62
    7
 10
5520.1266310746068
 20
3614.0814489514951
 40
57.894485061233112
 50
25.205398559570313
 51
167.5159912109375
  0
ARC
  8
_0-2_
  6
CONTINUOUS
 62
    7
 10
5780.1264991067019
 20
3614.0809540718501
 40
72.894488154230885
 50
13.791900634765625
 51
161.69851684570312
  0
ARC
  8
_0-2_
  6
CONTINUOUS
 62
    7
 10
5780.1264991067019
 20
3614.0809540718501
 40
57.894485061233112
 50
25.205398559570313
 51
167.5159912109375
  0
ARC
  8
_0-2_
  6
CONTINUOUS
 62
    7
 10
6040.126367138796
 20
3614.0809540718501
 40
72.894488154230885
 50
13.791900634765625
 51
161.69851684570312
  0
ARC
  8
_0-2_
  6
CONTINUOUS
 62
    7
 10
6040.126367138796
 20
3614.0809540718501
 40
57.894485061233112
 50
25.205398559570313
 51
167.5159912109375
  0
ARC
  8
_0-2_
  6
CONTINUOUS
 62
    7
 10
6300.1267300505351
 20
3614.0804591922047
 40
72.894488154230885
 50
13.791900634765625
 51
161.69851684570312
  0
ARC
  8
_0-2_
  6
CONTINUOUS
 62
    7
 10
6300.1267300505351
 20
3614.0804591922047
 40
57.894485061233112
 50
25.205398559570313
 51
167.5159912109375
  0
ARC
  8
_0-2_
  6
CONTINUOUS
 62
    7
 10
6560.1270929622751
 20
3614.0799643125592
 40
72.894488154230885
 50
13.791900634765625
 51
161.69851684570312
  0
ARC
  8
_0-2_
  6
CONTINUOUS
 62
    7
 10
6560.1270929622751
 20
3614.0799643125592
 40
57.894485061233112
 50
25.205398559570313
 51
167.5159912109375
  0
ARC
  8
_0-2_
  6
CONTINUOUS
 62
    7
 10
7080.1273239061102
 20
3614.0789745532684
 40
72.894488154230885
 50
13.791900634765625
 51
161.69851684570312
  0
ARC
  8
_0-2_
  6
CONTINUOUS
 62
    7
 10
7080.1273239061102
 20
3614.0789745532684
 40
57.894485061233112
 50
25.205398559570313
 51
167.5159912109375
  0
ARC
  8
_0-2_
  6
CONTINUOUS
 62
    7
 10
3824.0083020522247
 20
3773.8370113987075
 40
167.37639968459672
 50
245.11134338378906
 51
298.39506530761719
  0
ARC
  8
_0-2_
  6
CONTINUOUS
 62
    7
 10
3823.2659825843193
 20
3776.9730637107859
 40
155.49068966427365
 50
242.0476989746094
 51
295.79264831542969
  0
ARC
  8
_0-2_
  6
CONTINUOUS
 62
    7
 10
7210.9200551138792
 20
3883.9568877447805
 40
277.50014227789802
 50
254.36529541015625
 51
285.99972534179687
  0
ARC
  8
_0-2_
  6
CONTINUOUS
 62
    7
 10
7210.9200551138792
 20
4000.1392871852368
 40
373.68275410420188
 50
257.99339294433594
 51
282.31724548339844
  0
ARC
  8
_0-2_
  6
CONTINUOUS
 62
    7
 10
4344.0070483571235
 20
3773.8365165190626
 40
167.37639968459672
 50
245.80317687988281
 51
298.39506530761719
  0
ARC
  8
_0-2_
  6
CONTINUOUS
 62
    7
 10
4343.2647288892176
 20
3776.9725688311405
 40
155.49068966427365
 50
242.89494323730469
 51
295.79264831542969
  0
ARC
  8
_0-2_
  6
CONTINUOUS
 62
    7
 10
4604.0069163892185
 20
3773.8360216394176
 40
167.37639968459672
 50
245.80317687988281
 51
298.39506530761719
  0
ARC
  8
_0-2_
  6
CONTINUOUS
 62
    7
 10
4603.2645969213117
 20
3776.9720739514951
 40
155.49068966427365
 50
242.8948669433594
 51
295.79264831542969
  0
ARC
  8
_0-2_
  6
CONTINUOUS
 62
    7
 10
4864.0067844213136
 20
3773.8355267597722
 40
167.37639968459672
 50
245.80317687988281
 51
298.39506530761719
  0
ARC
  8
_0-2_
  6
CONTINUOUS
 62
    7
 10
4863.2644649534068
 20
3776.9715790718501
 40
155.49068966427365
 50
242.8948974609375
 51
295.79264831542969
  0
ARC
  8
_0-2_
  6
CONTINUOUS
 62
    7
 10
5124.0066524534068
 20
3773.8355267597722
 40
167.37639968459672
 50
245.80310058593753
 51
298.39506530761724
  0
ARC
  8
_0-2_
  6
CONTINUOUS
 62
    7
 10
5123.2643329855018
 20
3776.9715790718501
 40
155.49068966427365
 50
242.8948974609375
 51
295.79264831542969
  0
ARC
  8
_0-2_
  6
CONTINUOUS
 62
    7
 10
5384.0050358465669
 20
3773.8355267597722
 40
167.37639968459672
 50
245.80366516113281
 51
298.39506530761719
  0
ARC
  8
_0-2_
  6
CONTINUOUS
 62
    7
 10
5383.2627163786601
 20
3776.9715790718501
 40
155.49068966427365
 50
242.89543151855472
 51
295.79264831542969
  0
ARC
  8
_0-2_
  6
CONTINUOUS
 62
    7
 10
5644.0049038786601
 20
3773.8350318801267
 40
167.37639968459672
 50
245.80310058593753
 51
298.39506530761724
  0
ARC
  8
_0-2_
  6
CONTINUOUS
 62
    7
 10
5643.2625844107542
 20
3776.9710841922047
 40
155.49068966427365
 50
242.8948669433594
 51
295.79264831542969
  0
ARC
  8
_0-2_
  6
CONTINUOUS
 62
    7
 10
5904.0047719107542
 20
3773.8350318801267
 40
167.37639968459672
 50
245.80310058593753
 51
298.39506530761724
  0
ARC
  8
_0-2_
  6
CONTINUOUS
 62
    7
 10
5903.2624524428502
 20
3776.9710841922047
 40
155.49068966427365
 50
242.94950866699224
 51
295.79264831542974
  0
ARC
  8
_0-2_
  6
CONTINUOUS
 62
    7
 10
6164.0051348224961
 20
3773.8345370004818
 40
167.37639968459672
 50
245.80291748046872
 51
298.39506530761719
  0
ARC
  8
_0-2_
  6
CONTINUOUS
 62
    7
 10
6163.2628153545902
 20
3776.9705893125592
 40
155.49068966427365
 50
242.89469909667969
 51
295.79264831542969
  0
ARC
  8
_0-2_
  6
CONTINUOUS
 62
    7
 10
6424.0054977342352
 20
3773.8340421208363
 40
167.37639968459672
 50
245.80291748046872
 51
298.39506530761719
  0
ARC
  8
_0-2_
  6
CONTINUOUS
 62
    7
 10
6423.2631782663293
 20
3776.9700944329138
 40
155.49068966427365
 50
242.94931030273437
 51
295.79264831542969
  0
ARC
  8
_0-2_
  6
CONTINUOUS
 62
    7
 10
6944.0057286780684
 20
3773.8330523615459
 40
167.37639968459672
 50
245.80310058593753
 51
298.39506530761724
  0
ARC
  8
_0-2_
  6
CONTINUOUS
 62
    7
 10
6943.2634092101653
 20
3776.9691046736234
 40
155.49068966427365
 50
242.89472961425778
 51
295.79264831542969
  0
ARC
  8
_0-2_
  6
CONTINUOUS
 62
    7
 10
3960.1298972802651
 20
3718.6314548900509
 40
72.894488154230885
 50
13.791900634765625
 51
161.69851684570312
  0
ARC
  8
_0-2_
  6
CONTINUOUS
 62
    7
 10
3960.1298972802651
 20
3718.6314548900509
 40
57.894485061233112
 50
25.205398559570313
 51
167.5159912109375
  0
ARC
  8
_0-2_
  6
CONTINUOUS
 62
    7
 10
4480.1286435851644
 20
3718.6309600104055
 40
72.894488154230885
 50
13.791900634765625
 51
161.69851684570312
  0
ARC
  8
_0-2_
  6
CONTINUOUS
 62
    7
 10
4480.1286435851644
 20
3718.6309600104055
 40
57.894485061233112
 50
25.205398559570313
 51
167.5159912109375
  0
ARC
  8
_0-2_
  6
CONTINUOUS
 62
    7
 10
4740.1285116172594
 20
3718.6304651307601
 40
72.894488154230885
 50
13.791900634765625
 51
161.69851684570312
  0
ARC
  8
_0-2_
  6
CONTINUOUS
 62
    7
 10
4740.1285116172594
 20
3718.6304651307601
 40
57.894485061233112
 50
25.205398559570313
 51
167.5159912109375
  0
ARC
  8
_0-2_
  6
CONTINUOUS
 62
    7
 10
5000.1283796493526
 20
3718.6299702511151
 40
72.894488154230885
 50
13.791900634765625
 51
161.69851684570312
  0
ARC
  8
_0-2_
  6
CONTINUOUS
 62
    7
 10
5000.1283796493526
 20
3718.6299702511151
 40
57.894485061233112
 50
25.205398559570313
 51
167.5159912109375
  0
ARC
  8
_0-2_
  6
CONTINUOUS
 62
    7
 10
5260.1282476814486
 20
3718.6299702511151
 40
72.894488154230885
 50
13.791900634765625
 51
161.69851684570312
  0
ARC
  8
_0-2_
  6
CONTINUOUS
 62
    7
 10
5260.1282476814486
 20
3718.6299702511151
 40
57.894485061233112
 50
25.205398559570313
 51
167.5159912109375
  0
ARC
  8
_0-2_
  6
CONTINUOUS
 62
    7
 10
5520.1266310746068
 20
3718.6299702511151
 40
72.894488154230885
 50
13.791900634765625
 51
161.69851684570312
  0
ARC
  8
_0-2_
  6
CONTINUOUS
 62
    7
 10
5520.1266310746068
 20
3718.6299702511151
 40
57.894485061233112
 50
25.205398559570313
 51
167.5159912109375
  0
ARC
  8
_0-2_
  6
CONTINUOUS
 62
    7
 10
5780.1264991067019
 20
3718.6294753714697
 40
72.894488154230885
 50
13.791900634765625
 51
161.69851684570312
  0
ARC
  8
_0-2_
  6
CONTINUOUS
 62
    7
 10
5780.1264991067019
 20
3718.6294753714697
 40
57.894485061233112
 50
25.205398559570313
 51
167.5159912109375
  0
ARC
  8
_0-2_
  6
CONTINUOUS
 62
    7
 10
6040.126367138796
 20
3718.6294753714697
 40
72.894488154230885
 50
13.791900634765625
 51
161.69851684570312
  0
ARC
  8
_0-2_
  6
CONTINUOUS
 62
    7
 10
6040.126367138796
 20
3718.6294753714697
 40
57.894485061233112
 50
25.205398559570313
 51
167.5159912109375
  0
ARC
  8
_0-2_
  6
CONTINUOUS
 62
    7
 10
6300.1267300505351
 20
3718.6289804918242
 40
72.894488154230885
 50
13.791900634765625
 51
161.69851684570312
  0
ARC
  8
_0-2_
  6
CONTINUOUS
 62
    7
 10
6300.1267300505351
 20
3718.6289804918242
 40
57.894485061233112
 50
25.205398559570313
 51
167.5159912109375
  0
ARC
  8
_0-2_
  6
CONTINUOUS
 62
    7
 10
6560.1270929622751
 20
3718.6284856121792
 40
72.894488154230885
 50
13.791900634765625
 51
161.69851684570312
  0
ARC
  8
_0-2_
  6
CONTINUOUS
 62
    7
 10
6560.1270929622751
 20
3718.6284856121792
 40
57.894485061233112
 50
25.205398559570313
 51
167.5159912109375
  0
ARC
  8
_0-2_
  6
CONTINUOUS
 62
    7
 10
7080.1273239061102
 20
3718.6274958528884
 40
72.894488154230885
 50
13.791900634765625
 51
161.69851684570312
  0
ARC
  8
_0-2_
  6
CONTINUOUS
 62
    7
 10
7080.1273239061102
 20
3718.6274958528884
 40
57.894485061233112
 50
25.205398559570313
 51
167.5159912109375
  0
ARC
  8
_0-2_
  6
CONTINUOUS
 62
    7
 10
3824.0083020522247
 20
3878.385532698328
 40
167.37639968459672
 50
245.11134338378906
 51
298.39506530761719
  0
ARC
  8
_0-2_
  6
CONTINUOUS
 62
    7
 10
3823.2659825843193
 20
3881.5215850104055
 40
155.49068966427365
 50
242.0476989746094
 51
295.79264831542969
  0
ARC
  8
_0-2_
  6
CONTINUOUS
 62
    7
 10
7210.9200551138792
 20
3988.5054090444005
 40
277.50014227789802
 50
254.36529541015625
 51
285.99972534179687
  0
ARC
  8
_0-2_
  6
CONTINUOUS
 62
    7
 10
7210.9200551138792
 20
4104.6878084848568
 40
373.68275410420188
 50
257.99339294433594
 51
282.31724548339844
  0
ARC
  8
_0-2_
  6
CONTINUOUS
 62
    7
 10
4344.0070483571235
 20
3878.3850378186826
 40
167.37639968459672
 50
245.80317687988281
 51
298.39506530761719
  0
ARC
  8
_0-2_
  6
CONTINUOUS
 62
    7
 10
4343.2647288892176
 20
3881.5210901307601
 40
155.49068966427365
 50
242.89494323730469
 51
295.79264831542969
  0
ARC
  8
_0-2_
  6
CONTINUOUS
 62
    7
 10
4604.0069163892185
 20
3878.3845429390376
 40
167.37639968459672
 50
245.80317687988281
 51
298.39506530761719
  0
ARC
  8
_0-2_
  6
CONTINUOUS
 62
    7
 10
4603.2645969213117
 20
3881.5205952511151
 40
155.49068966427365
 50
242.8948669433594
 51
295.79264831542969
  0
ARC
  8
_0-2_
  6
CONTINUOUS
 62
    7
 10
4864.0067844213136
 20
3878.3840480593922
 40
167.37639968459672
 50
245.80317687988281
 51
298.39506530761719
  0
ARC
  8
_0-2_
  6
CONTINUOUS
 62
    7
 10
4863.2644649534068
 20
3881.5201003714697
 40
155.49068966427365
 50
242.8948974609375
 51
295.79264831542969
  0
ARC
  8
_0-2_
  6
CONTINUOUS
 62
    7
 10
5124.0066524534068
 20
3878.3840480593922
 40
167.37639968459672
 50
245.80310058593753
 51
298.39506530761724
  0
ARC
  8
_0-2_
  6
CONTINUOUS
 62
    7
 10
5123.2643329855018
 20
3881.5201003714697
 40
155.49068966427365
 50
242.8948974609375
 51
295.79264831542969
  0
ARC
  8
_0-2_
  6
CONTINUOUS
 62
    7
 10
5384.0050358465669
 20
3878.3840480593922
 40
167.37639968459672
 50
245.80366516113281
 51
298.39506530761719
  0
ARC
  8
_0-2_
  6
CONTINUOUS
 62
    7
 10
5383.2627163786601
 20
3881.5201003714697
 40
155.49068966427365
 50
242.89543151855472
 51
295.79264831542969
  0
ARC
  8
_0-2_
  6
CONTINUOUS
 62
    7
 10
5644.0049038786601
 20
3878.3835531797467
 40
167.37639968459672
 50
245.80310058593753
 51
298.39506530761724
  0
ARC
  8
_0-2_
  6
CONTINUOUS
 62
    7
 10
5643.2625844107542
 20
3881.5196054918242
 40
155.49068966427365
 50
242.8948669433594
 51
295.79264831542969
  0
ARC
  8
_0-2_
  6
CONTINUOUS
 62
    7
 10
5904.0047719107542
 20
3878.3835531797467
 40
167.37639968459672
 50
245.80310058593753
 51
298.39506530761724
  0
ARC
  8
_0-2_
  6
CONTINUOUS
 62
    7
 10
5903.2624524428502
 20
3881.5196054918242
 40
155.49068966427365
 50
242.94950866699224
 51
295.79264831542974
  0
ARC
  8
_0-2_
  6
CONTINUOUS
 62
    7
 10
6164.0051348224961
 20
3878.3830583001013
 40
167.37639968459672
 50
245.80291748046872
 51
298.39506530761719
  0
ARC
  8
_0-2_
  6
CONTINUOUS
 62
    7
 10
6163.2628153545902
 20
3881.5191106121792
 40
155.49068966427365
 50
242.89469909667969
 51
295.79264831542969
  0
ARC
  8
_0-2_
  6
CONTINUOUS
 62
    7
 10
6424.0054977342352
 20
3878.3825634204559
 40
167.37639968459672
 50
245.80291748046872
 51
298.39506530761719
  0
ARC
  8
_0-2_
  6
CONTINUOUS
 62
    7
 10
6423.2631782663293
 20
3881.5186157325338
 40
155.49068966427365
 50
242.94931030273437
 51
295.79264831542969
  0
ARC
  8
_0-2_
  6
CONTINUOUS
 62
    7
 10
6944.0057286780684
 20
3878.3815736611655
 40
167.37639968459672
 50
245.80310058593753
 51
298.39506530761724
  0
ARC
  8
_0-2_
  6
CONTINUOUS
 62
    7
 10
6943.2634092101653
 20
3881.517625973243
 40
155.49068966427365
 50
242.89472961425778
 51
295.79264831542969
  0
ARC
  8
_0-2_
  6
CONTINUOUS
 62
    7
 10
3960.1298972802651
 20
3823.1812133887838
 40
72.894488154230885
 50
13.791900634765625
 51
161.69851684570312
  0
ARC
  8
_0-2_
  6
CONTINUOUS
 62
    7
 10
3960.1298972802651
 20
3823.1812133887838
 40
57.894485061233112
 50
25.205398559570313
 51
167.5159912109375
  0
ARC
  8
_0-2_
  6
CONTINUOUS
 62
    7
 10
4480.1286435851644
 20
3823.1807185091384
 40
72.894488154230885
 50
13.791900634765625
 51
161.69851684570312
  0
ARC
  8
_0-2_
  6
CONTINUOUS
 62
    7
 10
4480.1286435851644
 20
3823.1807185091384
 40
57.894485061233112
 50
25.205398559570313
 51
167.5159912109375
  0
ARC
  8
_0-2_
  6
CONTINUOUS
 62
    7
 10
4740.1285116172594
 20
3823.180223629493
 40
72.894488154230885
 50
13.791900634765625
 51
161.69851684570312
  0
ARC
  8
_0-2_
  6
CONTINUOUS
 62
    7
 10
4740.1285116172594
 20
3823.180223629493
 40
57.894485061233112
 50
25.205398559570313
 51
167.5159912109375
  0
ARC
  8
_0-2_
  6
CONTINUOUS
 62
    7
 10
5000.1283796493526
 20
3823.1797287498484
 40
72.894488154230885
 50
13.791900634765625
 51
161.69851684570312
  0
ARC
  8
_0-2_
  6
CONTINUOUS
 62
    7
 10
5000.1283796493526
 20
3823.1797287498484
 40
57.894485061233112
 50
25.205398559570313
 51
167.5159912109375
  0
ARC
  8
_0-2_
  6
CONTINUOUS
 62
    7
 10
5260.1282476814486
 20
3823.1797287498484
 40
72.894488154230885
 50
13.791900634765625
 51
161.69851684570312
  0
ARC
  8
_0-2_
  6
CONTINUOUS
 62
    7
 10
5260.1282476814486
 20
3823.1797287498484
 40
57.894485061233112
 50
25.205398559570313
 51
167.5159912109375
  0
ARC
  8
_0-2_
  6
CONTINUOUS
 62
    7
 10
5520.1266310746068
 20
3823.1797287498484
 40
72.894488154230885
 50
13.791900634765625
 51
161.69851684570312
  0
ARC
  8
_0-2_
  6
CONTINUOUS
 62
    7
 10
5520.1266310746068
 20
3823.1797287498484
 40
57.894485061233112
 50
25.205398559570313
 51
167.5159912109375
  0
ARC
  8
_0-2_
  6
CONTINUOUS
 62
    7
 10
5780.1264991067019
 20
3823.179233870203
 40
72.894488154230885
 50
13.791900634765625
 51
161.69851684570312
  0
ARC
  8
_0-2_
  6
CONTINUOUS
 62
    7
 10
5780.1264991067019
 20
3823.179233870203
 40
57.894485061233112
 50
25.205398559570313
 51
167.5159912109375
  0
ARC
  8
_0-2_
  6
CONTINUOUS
 62
    7
 10
6040.126367138796
 20
3823.179233870203
 40
72.894488154230885
 50
13.791900634765625
 51
161.69851684570312
  0
ARC
  8
_0-2_
  6
CONTINUOUS
 62
    7
 10
6040.126367138796
 20
3823.179233870203
 40
57.894485061233112
 50
25.205398559570313
 51
167.5159912109375
  0
ARC
  8
_0-2_
  6
CONTINUOUS
 62
    7
 10
6300.1267300505351
 20
3823.1787389905576
 40
72.894488154230885
 50
13.791900634765625
 51
161.69851684570312
  0
ARC
  8
_0-2_
  6
CONTINUOUS
 62
    7
 10
6300.1267300505351
 20
3823.1787389905576
 40
57.894485061233112
 50
25.205398559570313
 51
167.5159912109375
  0
ARC
  8
_0-2_
  6
CONTINUOUS
 62
    7
 10
6560.1270929622751
 20
3823.1782441109126
 40
72.894488154230885
 50
13.791900634765625
 51
161.69851684570312
  0
ARC
  8
_0-2_
  6
CONTINUOUS
 62
    7
 10
6560.1270929622751
 20
3823.1782441109126
 40
57.894485061233112
 50
25.205398559570313
 51
167.5159912109375
  0
ARC
  8
_0-2_
  6
CONTINUOUS
 62
    7
 10
7080.1273239061102
 20
3823.1772543516217
 40
72.894488154230885
 50
13.791900634765625
 51
161.69851684570312
  0
ARC
  8
_0-2_
  6
CONTINUOUS
 62
    7
 10
7080.1273239061102
 20
3823.1772543516217
 40
57.894485061233112
 50
25.205398559570313
 51
167.5159912109375
  0
ARC
  8
_0-2_
  6
CONTINUOUS
 62
    7
 10
3824.0083020522247
 20
3982.9352911970609
 40
167.37639968459672
 50
245.11134338378906
 51
298.39506530761719
  0
ARC
  8
_0-2_
  6
CONTINUOUS
 62
    7
 10
3823.2659825843193
 20
3986.0713435091384
 40
155.49068966427365
 50
242.0476989746094
 51
295.79264831542969
  0
ARC
  8
_0-2_
  6
CONTINUOUS
 62
    7
 10
7210.9200551138792
 20
4093.0551675431338
 40
277.50014227789802
 50
254.36529541015625
 51
285.99972534179687
  0
ARC
  8
_0-2_
  6
CONTINUOUS
 62
    7
 10
7210.9200551138792
 20
4209.2375669835892
 40
373.68275410420188
 50
257.99339294433594
 51
282.31724548339844
  0
ARC
  8
_0-2_
  6
CONTINUOUS
 62
    7
 10
4344.0070483571235
 20
3982.9347963174155
 40
167.37639968459672
 50
245.80317687988281
 51
298.39506530761719
  0
ARC
  8
_0-2_
  6
CONTINUOUS
 62
    7
 10
4343.2647288892176
 20
3986.070848629493
 40
155.49068966427365
 50
242.89494323730469
 51
295.79264831542969
  0
ARC
  8
_0-2_
  6
CONTINUOUS
 62
    7
 10
4604.0069163892185
 20
3982.93430143777
 40
167.37639968459672
 50
245.80317687988281
 51
298.39506530761719
  0
ARC
  8
_0-2_
  6
CONTINUOUS
 62
    7
 10
4603.2645969213117
 20
3986.0703537498484
 40
155.49068966427365
 50
242.8948669433594
 51
295.79264831542969
  0
ARC
  8
_0-2_
  6
CONTINUOUS
 62
    7
 10
4864.0067844213136
 20
3982.9338065581251
 40
167.37639968459672
 50
245.80317687988281
 51
298.39506530761719
  0
ARC
  8
_0-2_
  6
CONTINUOUS
 62
    7
 10
4863.2644649534068
 20
3986.069858870203
 40
155.49068966427365
 50
242.8948974609375
 51
295.79264831542969
  0
ARC
  8
_0-2_
  6
CONTINUOUS
 62
    7
 10
5124.0066524534068
 20
3982.9338065581251
 40
167.37639968459672
 50
245.80310058593753
 51
298.39506530761724
  0
ARC
  8
_0-2_
  6
CONTINUOUS
 62
    7
 10
5123.2643329855018
 20
3986.069858870203
 40
155.49068966427365
 50
242.8948974609375
 51
295.79264831542969
  0
ARC
  8
_0-2_
  6
CONTINUOUS
 62
    7
 10
5384.0050358465669
 20
3982.9338065581251
 40
167.37639968459672
 50
245.80366516113281
 51
298.39506530761719
  0
ARC
  8
_0-2_
  6
CONTINUOUS
 62
    7
 10
5383.2627163786601
 20
3986.069858870203
 40
155.49068966427365
 50
242.89543151855472
 51
295.79264831542969
  0
ARC
  8
_0-2_
  6
CONTINUOUS
 62
    7
 10
5644.0049038786601
 20
3982.9333116784801
 40
167.37639968459672
 50
245.80310058593753
 51
298.39506530761724
  0
ARC
  8
_0-2_
  6
CONTINUOUS
 62
    7
 10
5643.2625844107542
 20
3986.0693639905576
 40
155.49068966427365
 50
242.8948669433594
 51
295.79264831542969
  0
ARC
  8
_0-2_
  6
CONTINUOUS
 62
    7
 10
5904.0047719107542
 20
3982.9333116784801
 40
167.37639968459672
 50
245.80310058593753
 51
298.39506530761724
  0
ARC
  8
_0-2_
  6
CONTINUOUS
 62
    7
 10
5903.2624524428502
 20
3986.0693639905576
 40
155.49068966427365
 50
242.94950866699224
 51
295.79264831542974
  0
ARC
  8
_0-2_
  6
CONTINUOUS
 62
    7
 10
6164.0051348224961
 20
3982.9328167988347
 40
167.37639968459672
 50
245.80291748046872
 51
298.39506530761719
  0
ARC
  8
_0-2_
  6
CONTINUOUS
 62
    7
 10
6163.2628153545902
 20
3986.0688691109126
 40
155.49068966427365
 50
242.89469909667969
 51
295.79264831542969
  0
ARC
  8
_0-2_
  6
CONTINUOUS
 62
    7
 10
6424.0054977342352
 20
3982.9323219191892
 40
167.37639968459672
 50
245.80291748046872
 51
298.39506530761719
  0
ARC
  8
_0-2_
  6
CONTINUOUS
 62
    7
 10
6423.2631782663293
 20
3986.0683742312672
 40
155.49068966427365
 50
242.94931030273437
 51
295.79264831542969
  0
ARC
  8
_0-2_
  6
CONTINUOUS
 62
    7
 10
6944.0057286780684
 20
3982.9313321598988
 40
167.37639968459672
 50
245.80310058593753
 51
298.39506530761724
  0
ARC
  8
_0-2_
  6
CONTINUOUS
 62
    7
 10
6943.2634092101653
 20
3986.0673844719763
 40
155.49068966427365
 50
242.89472961425778
 51
295.79264831542969
  0
ARC
  8
_0-2_
  6
CONTINUOUS
 62
    7
 10
3960.1298972802651
 20
3927.7294872485809
 40
72.894488154230885
 50
13.791900634765625
 51
161.69851684570312
  0
ARC
  8
_0-2_
  6
CONTINUOUS
 62
    7
 10
3960.1298972802651
 20
3927.7294872485809
 40
57.894485061233112
 50
25.205398559570313
 51
167.5159912109375
  0
ARC
  8
_0-2_
  6
CONTINUOUS
 62
    7
 10
4480.1286435851644
 20
3927.7289923689359
 40
72.894488154230885
 50
13.791900634765625
 51
161.69851684570312
  0
ARC
  8
_0-2_
  6
CONTINUOUS
 62
    7
 10
4480.1286435851644
 20
3927.7289923689359
 40
57.894485061233112
 50
25.205398559570313
 51
167.5159912109375
  0
ARC
  8
_0-2_
  6
CONTINUOUS
 62
    7
 10
4740.1285116172594
 20
3927.7284974892905
 40
72.894488154230885
 50
13.791900634765625
 51
161.69851684570312
  0
ARC
  8
_0-2_
  6
CONTINUOUS
 62
    7
 10
4740.1285116172594
 20
3927.7284974892905
 40
57.894485061233112
 50
25.205398559570313
 51
167.5159912109375
  0
ARC
  8
_0-2_
  6
CONTINUOUS
 62
    7
 10
5000.1283796493526
 20
3927.728002609645
 40
72.894488154230885
 50
13.791900634765625
 51
161.69851684570312
  0
ARC
  8
_0-2_
  6
CONTINUOUS
 62
    7
 10
5000.1283796493526
 20
3927.728002609645
 40
57.894485061233112
 50
25.205398559570313
 51
167.5159912109375
  0
ARC
  8
_0-2_
  6
CONTINUOUS
 62
    7
 10
5260.1282476814486
 20
3927.728002609645
 40
72.894488154230885
 50
13.791900634765625
 51
161.69851684570312
  0
ARC
  8
_0-2_
  6
CONTINUOUS
 62
    7
 10
5260.1282476814486
 20
3927.728002609645
 40
57.894485061233112
 50
25.205398559570313
 51
167.5159912109375
  0
ARC
  8
_0-2_
  6
CONTINUOUS
 62
    7
 10
5520.1266310746068
 20
3927.728002609645
 40
72.894488154230885
 50
13.791900634765625
 51
161.69851684570312
  0
ARC
  8
_0-2_
  6
CONTINUOUS
 62
    7
 10
5520.1266310746068
 20
3927.728002609645
 40
57.894485061233112
 50
25.205398559570313
 51
167.5159912109375
  0
ARC
  8
_0-2_
  6
CONTINUOUS
 62
    7
 10
5780.1264991067019
 20
3927.7275077300001
 40
72.894488154230885
 50
13.791900634765625
 51
161.69851684570312
  0
ARC
  8
_0-2_
  6
CONTINUOUS
 62
    7
 10
5780.1264991067019
 20
3927.7275077300001
 40
57.894485061233112
 50
25.205398559570313
 51
167.5159912109375
  0
ARC
  8
_0-2_
  6
CONTINUOUS
 62
    7
 10
6040.126367138796
 20
3927.7275077300001
 40
72.894488154230885
 50
13.791900634765625
 51
161.69851684570312
  0
ARC
  8
_0-2_
  6
CONTINUOUS
 62
    7
 10
6040.126367138796
 20
3927.7275077300001
 40
57.894485061233112
 50
25.205398559570313
 51
167.5159912109375
  0
ARC
  8
_0-2_
  6
CONTINUOUS
 62
    7
 10
6300.1267300505351
 20
3927.7270128503551
 40
72.894488154230885
 50
13.791900634765625
 51
161.69851684570312
  0
ARC
  8
_0-2_
  6
CONTINUOUS
 62
    7
 10
6300.1267300505351
 20
3927.7270128503551
 40
57.894485061233112
 50
25.205398559570313
 51
167.5159912109375
  0
ARC
  8
_0-2_
  6
CONTINUOUS
 62
    7
 10
6560.1270929622751
 20
3927.7265179707097
 40
72.894488154230885
 50
13.791900634765625
 51
161.69851684570312
  0
ARC
  8
_0-2_
  6
CONTINUOUS
 62
    7
 10
6560.1270929622751
 20
3927.7265179707097
 40
57.894485061233112
 50
25.205398559570313
 51
167.5159912109375
  0
ARC
  8
_0-2_
  6
CONTINUOUS
 62
    7
 10
7080.1273239061102
 20
3927.7255282114193
 40
72.894488154230885
 50
13.791900634765625
 51
161.69851684570312
  0
ARC
  8
_0-2_
  6
CONTINUOUS
 62
    7
 10
7080.1273239061102
 20
3927.7255282114193
 40
57.894485061233112
 50
25.205398559570313
 51
167.5159912109375
  0
ARC
  8
_0-2_
  6
CONTINUOUS
 62
    7
 10
3824.0083020522247
 20
4087.4835650568584
 40
167.37639968459672
 50
245.11134338378906
 51
298.39506530761719
  0
ARC
  8
_0-2_
  6
CONTINUOUS
 62
    7
 10
3823.2659825843193
 20
4090.6196173689359
 40
155.49068966427365
 50
242.0476989746094
 51
295.79264831542969
  0
ARC
  8
_0-2_
  6
CONTINUOUS
 62
    7
 10
7210.9200551138792
 20
4197.6034414029309
 40
277.50014227789802
 50
254.36529541015625
 51
285.99972534179687
  0
ARC
  8
_0-2_
  6
CONTINUOUS
 62
    7
 10
7210.9200551138792
 20
4313.7858408433867
 40
373.68275410420188
 50
257.99339294433594
 51
282.31724548339844
  0
ARC
  8
_0-2_
  6
CONTINUOUS
 62
    7
 10
4344.0070483571235
 20
4087.483070177213
 40
167.37639968459672
 50
245.80317687988281
 51
298.39506530761719
  0
ARC
  8
_0-2_
  6
CONTINUOUS
 62
    7
 10
4343.2647288892176
 20
4090.6191224892905
 40
155.49068966427365
 50
242.89494323730469
 51
295.79264831542969
  0
ARC
  8
_0-2_
  6
CONTINUOUS
 62
    7
 10
4604.0069163892185
 20
4087.4825752975676
 40
167.37639968459672
 50
245.80317687988281
 51
298.39506530761719
  0
ARC
  8
_0-2_
  6
CONTINUOUS
 62
    7
 10
4603.2645969213117
 20
4090.618627609645
 40
155.49068966427365
 50
242.8948669433594
 51
295.79264831542969
  0
ARC
  8
_0-2_
  6
CONTINUOUS
 62
    7
 10
4864.0067844213136
 20
4087.4820804179221
 40
167.37639968459672
 50
245.80317687988281
 51
298.39506530761719
  0
ARC
  8
_0-2_
  6
CONTINUOUS
 62
    7
 10
4863.2644649534068
 20
4090.6181327300001
 40
155.49068966427365
 50
242.8948974609375
 51
295.79264831542969
  0
ARC
  8
_0-2_
  6
CONTINUOUS
 62
    7
 10
5124.0066524534068
 20
4087.4820804179221
 40
167.37639968459672
 50
245.80310058593753
 51
298.39506530761724
  0
ARC
  8
_0-2_
  6
CONTINUOUS
 62
    7
 10
5123.2643329855018
 20
4090.6181327300001
 40
155.49068966427365
 50
242.8948974609375
 51
295.79264831542969
  0
ARC
  8
_0-2_
  6
CONTINUOUS
 62
    7
 10
5384.0050358465669
 20
4087.4820804179221
 40
167.37639968459672
 50
245.80366516113281
 51
298.39506530761719
  0
ARC
  8
_0-2_
  6
CONTINUOUS
 62
    7
 10
5383.2627163786601
 20
4090.6181327300001
 40
155.49068966427365
 50
242.89543151855472
 51
295.79264831542969
  0
ARC
  8
_0-2_
  6
CONTINUOUS
 62
    7
 10
5644.0049038786601
 20
4087.4815855382767
 40
167.37639968459672
 50
245.80310058593753
 51
298.39506530761724
  0
ARC
  8
_0-2_
  6
CONTINUOUS
 62
    7
 10
5643.2625844107542
 20
4090.6176378503551
 40
155.49068966427365
 50
242.8948669433594
 51
295.79264831542969
  0
ARC
  8
_0-2_
  6
CONTINUOUS
 62
    7
 10
5904.0047719107542
 20
4087.4815855382767
 40
167.37639968459672
 50
245.80310058593753
 51
298.39506530761724
  0
ARC
  8
_0-2_
  6
CONTINUOUS
 62
    7
 10
5903.2624524428502
 20
4090.6176378503551
 40
155.49068966427365
 50
242.94950866699224
 51
295.79264831542974
  0
ARC
  8
_0-2_
  6
CONTINUOUS
 62
    7
 10
6164.0051348224961
 20
4087.4810906586317
 40
167.37639968459672
 50
245.80291748046872
 51
298.39506530761719
  0
ARC
  8
_0-2_
  6
CONTINUOUS
 62
    7
 10
6163.2628153545902
 20
4090.6171429707097
 40
155.49068966427365
 50
242.89469909667969
 51
295.79264831542969
  0
ARC
  8
_0-2_
  6
CONTINUOUS
 62
    7
 10
6424.0054977342352
 20
4087.4805957789868
 40
167.37639968459672
 50
245.80291748046872
 51
298.39506530761719
  0
ARC
  8
_0-2_
  6
CONTINUOUS
 62
    7
 10
6423.2631782663293
 20
4090.6166480910642
 40
155.49068966427365
 50
242.94931030273437
 51
295.79264831542969
  0
ARC
  8
_0-2_
  6
CONTINUOUS
 62
    7
 10
6944.0057286780684
 20
4087.4796060196963
 40
167.37639968459672
 50
245.80310058593753
 51
298.39506530761724
  0
ARC
  8
_0-2_
  6
CONTINUOUS
 62
    7
 10
6943.2634092101653
 20
4090.6156583317738
 40
155.49068966427365
 50
242.89472961425778
 51
295.79264831542969
  0
ARC
  8
_0-2_
  6
CONTINUOUS
 62
    7
 10
3960.1298972802651
 20
4032.2787508676693
 40
72.894488154230885
 50
13.791900634765625
 51
161.69851684570312
  0
ARC
  8
_0-2_
  6
CONTINUOUS
 62
    7
 10
3960.1298972802651
 20
4032.2787508676693
 40
57.894485061233112
 50
25.205398559570313
 51
167.5159912109375
  0
ARC
  8
_0-2_
  6
CONTINUOUS
 62
    7
 10
4480.1286435851644
 20
4032.2782559880238
 40
72.894488154230885
 50
13.791900634765625
 51
161.69851684570312
  0
ARC
  8
_0-2_
  6
CONTINUOUS
 62
    7
 10
4480.1286435851644
 20
4032.2782559880238
 40
57.894485061233112
 50
25.205398559570313
 51
167.5159912109375
  0
ARC
  8
_0-2_
  6
CONTINUOUS
 62
    7
 10
4740.1285116172594
 20
4032.2777611083784
 40
72.894488154230885
 50
13.791900634765625
 51
161.69851684570312
  0
ARC
  8
_0-2_
  6
CONTINUOUS
 62
    7
 10
4740.1285116172594
 20
4032.2777611083784
 40
57.894485061233112
 50
25.205398559570313
 51
167.5159912109375
  0
ARC
  8
_0-2_
  6
CONTINUOUS
 62
    7
 10
5000.1283796493526
 20
4032.2772662287334
 40
72.894488154230885
 50
13.791900634765625
 51
161.69851684570312
  0
ARC
  8
_0-2_
  6
CONTINUOUS
 62
    7
 10
5000.1283796493526
 20
4032.2772662287334
 40
57.894485061233112
 50
25.205398559570313
 51
167.5159912109375
  0
ARC
  8
_0-2_
  6
CONTINUOUS
 62
    7
 10
5260.1282476814486
 20
4032.2772662287334
 40
72.894488154230885
 50
13.791900634765625
 51
161.69851684570312
  0
ARC
  8
_0-2_
  6
CONTINUOUS
 62
    7
 10
5260.1282476814486
 20
4032.2772662287334
 40
57.894485061233112
 50
25.205398559570313
 51
167.5159912109375
  0
ARC
  8
_0-2_
  6
CONTINUOUS
 62
    7
 10
5520.1266310746068
 20
4032.2772662287334
 40
72.894488154230885
 50
13.791900634765625
 51
161.69851684570312
  0
ARC
  8
_0-2_
  6
CONTINUOUS
 62
    7
 10
5520.1266310746068
 20
4032.2772662287334
 40
57.894485061233112
 50
25.205398559570313
 51
167.5159912109375
  0
ARC
  8
_0-2_
  6
CONTINUOUS
 62
    7
 10
5780.1264991067019
 20
4032.276771349088
 40
72.894488154230885
 50
13.791900634765625
 51
161.69851684570312
  0
ARC
  8
_0-2_
  6
CONTINUOUS
 62
    7
 10
5780.1264991067019
 20
4032.276771349088
 40
57.894485061233112
 50
25.205398559570313
 51
167.5159912109375
  0
ARC
  8
_0-2_
  6
CONTINUOUS
 62
    7
 10
6040.126367138796
 20
4032.276771349088
 40
72.894488154230885
 50
13.791900634765625
 51
161.69851684570312
  0
ARC
  8
_0-2_
  6
CONTINUOUS
 62
    7
 10
6040.126367138796
 20
4032.276771349088
 40
57.894485061233112
 50
25.205398559570313
 51
167.5159912109375
  0
ARC
  8
_0-2_
  6
CONTINUOUS
 62
    7
 10
6300.1267300505351
 20
4032.2762764694426
 40
72.894488154230885
 50
13.791900634765625
 51
161.69851684570312
  0
ARC
  8
_0-2_
  6
CONTINUOUS
 62
    7
 10
6300.1267300505351
 20
4032.2762764694426
 40
57.894485061233112
 50
25.205398559570313
 51
167.5159912109375
  0
ARC
  8
_0-2_
  6
CONTINUOUS
 62
    7
 10
6560.1270929622751
 20
4032.2757815897971
 40
72.894488154230885
 50
13.791900634765625
 51
161.69851684570312
  0
ARC
  8
_0-2_
  6
CONTINUOUS
 62
    7
 10
6560.1270929622751
 20
4032.2757815897971
 40
57.894485061233112
 50
25.205398559570313
 51
167.5159912109375
  0
ARC
  8
_0-2_
  6
CONTINUOUS
 62
    7
 10
7080.1273239061102
 20
4032.2747918305067
 40
72.894488154230885
 50
13.791900634765625
 51
161.69851684570312
  0
ARC
  8
_0-2_
  6
CONTINUOUS
 62
    7
 10
7080.1273239061102
 20
4032.2747918305067
 40
57.894485061233112
 50
25.205398559570313
 51
167.5159912109375
  0
ARC
  8
_0-2_
  6
CONTINUOUS
 62
    7
 10
3824.0083020522247
 20
4192.0328286759459
 40
167.37639968459672
 50
245.11134338378906
 51
298.39506530761719
  0
ARC
  8
_0-2_
  6
CONTINUOUS
 62
    7
 10
3823.2659825843193
 20
4195.1688809880234
 40
155.49068966427365
 50
242.0476989746094
 51
295.79264831542969
  0
ARC
  8
_0-2_
  6
CONTINUOUS
 62
    7
 10
7210.9200551138792
 20
4302.1527050220184
 40
277.50014227789802
 50
254.36529541015625
 51
285.99972534179687
  0
ARC
  8
_0-2_
  6
CONTINUOUS
 62
    7
 10
7210.9200551138792
 20
4418.3351044624751
 40
373.68275410420188
 50
257.99339294433594
 51
282.31724548339844
  0
ARC
  8
_0-2_
  6
CONTINUOUS
 62
    7
 10
4344.0070483571235
 20
4192.0323337963009
 40
167.37639968459672
 50
245.80317687988281
 51
298.39506530761719
  0
ARC
  8
_0-2_
  6
CONTINUOUS
 62
    7
 10
4343.2647288892176
 20
4195.1683861083784
 40
155.49068966427365
 50
242.89494323730469
 51
295.79264831542969
  0
ARC
  8
_0-2_
  6
CONTINUOUS
 62
    7
 10
4604.0069163892185
 20
4192.0318389166559
 40
167.37639968459672
 50
245.80317687988281
 51
298.39506530761719
  0
ARC
  8
_0-2_
  6
CONTINUOUS
 62
    7
 10
4603.2645969213117
 20
4195.1678912287334
 40
155.49068966427365
 50
242.8948669433594
 51
295.79264831542969
  0
ARC
  8
_0-2_
  6
CONTINUOUS
 62
    7
 10
4864.0067844213136
 20
4192.0313440370101
 40
167.37639968459672
 50
245.80317687988281
 51
298.39506530761719
  0
ARC
  8
_0-2_
  6
CONTINUOUS
 62
    7
 10
4863.2644649534068
 20
4195.1673963490875
 40
155.49068966427365
 50
242.8948974609375
 51
295.79264831542969
  0
ARC
  8
_0-2_
  6
CONTINUOUS
 62
    7
 10
5124.0066524534068
 20
4192.0313440370101
 40
167.37639968459672
 50
245.80310058593753
 51
298.39506530761724
  0
ARC
  8
_0-2_
  6
CONTINUOUS
 62
    7
 10
5123.2643329855018
 20
4195.1673963490875
 40
155.49068966427365
 50
242.8948974609375
 51
295.79264831542969
  0
ARC
  8
_0-2_
  6
CONTINUOUS
 62
    7
 10
5384.0050358465669
 20
4192.0313440370101
 40
167.37639968459672
 50
245.80366516113281
 51
298.39506530761719
  0
ARC
  8
_0-2_
  6
CONTINUOUS
 62
    7
 10
5383.2627163786601
 20
4195.1673963490875
 40
155.49068966427365
 50
242.89543151855472
 51
295.79264831542969
  0
ARC
  8
_0-2_
  6
CONTINUOUS
 62
    7
 10
5644.0049038786601
 20
4192.0308491573651
 40
167.37639968459672
 50
245.80310058593753
 51
298.39506530761724
  0
ARC
  8
_0-2_
  6
CONTINUOUS
 62
    7
 10
5643.2625844107542
 20
4195.1669014694426
 40
155.49068966427365
 50
242.8948669433594
 51
295.79264831542969
  0
ARC
  8
_0-2_
  6
CONTINUOUS
 62
    7
 10
5904.0047719107542
 20
4192.0308491573651
 40
167.37639968459672
 50
245.80310058593753
 51
298.39506530761724
  0
ARC
  8
_0-2_
  6
CONTINUOUS
 62
    7
 10
5903.2624524428502
 20
4195.1669014694426
 40
155.49068966427365
 50
242.94950866699224
 51
295.79264831542974
  0
ARC
  8
_0-2_
  6
CONTINUOUS
 62
    7
 10
6164.0051348224961
 20
4192.0303542777201
 40
167.37639968459672
 50
245.80291748046872
 51
298.39506530761719
  0
ARC
  8
_0-2_
  6
CONTINUOUS
 62
    7
 10
6163.2628153545902
 20
4195.1664065897976
 40
155.49068966427365
 50
242.89469909667969
 51
295.79264831542969
  0
ARC
  8
_0-2_
  6
CONTINUOUS
 62
    7
 10
6424.0054977342352
 20
4192.0298593980742
 40
167.37639968459672
 50
245.80291748046872
 51
298.39506530761719
  0
ARC
  8
_0-2_
  6
CONTINUOUS
 62
    7
 10
6423.2631782663293
 20
4195.1659117101517
 40
155.49068966427365
 50
242.94931030273437
 51
295.79264831542969
  0
ARC
  8
_0-2_
  6
CONTINUOUS
 62
    7
 10
6944.0057286780684
 20
4192.0288696387834
 40
167.37639968459672
 50
245.80310058593753
 51
298.39506530761724
  0
ARC
  8
_0-2_
  6
CONTINUOUS
 62
    7
 10
6943.2634092101653
 20
4195.1649219508618
 40
155.49068966427365
 50
242.89472961425778
 51
295.79264831542969
  0
CIRCLE
  8
ADD_LINE
  6
DOT
 62
    3
 10
3626.8264766721577
 20
3057.8119836854476
 40
2.9999997970220207
  0
LINE
  8
ADD_LINE
  6
DOT
 62
    4
 10
3609.3789998985085
 20
4207.8519039768325
 11
3609.3789998985085
 21
4809.5802347200242
  0
LINE
  8
_0-0_
  6
CONTINUOUS
 62
    7
 10
3845.8504785307705
 20
4797.7042039132248
 11
3845.8504785307705
 21
4719.7042344308029
  0
LINE
  8
_0-0_
  6
CONTINUOUS
 62
    7
 10
3893.8504785307709
 20
4797.7042039132248
 11
3893.8504785307709
 21
4719.7042344308029
  0
LINE
  8
_0-0_
  6
CONTINUOUS
 62
    7
 10
3845.8504785307705
 20
4719.7042344308029
 11
3605.8505090483486
 21
4719.7042344308029
  0
LINE
  8
_0-0_
  6
CONTINUOUS
 62
    7
 10
3605.8505090483486
 20
4624.7041733956466
 11
3589.8504480131924
 21
4624.7041733956466
  0
LINE
  8
_0-0_
  6
CONTINUOUS
 62
    7
 10
3589.8504480131924
 20
4804.7041428780685
 11
3589.8504480131924
 21
4624.7042954659591
  0
LINE
  8
_0-0_
  6
CONTINUOUS
 62
    7
 10
3845.8504785307705
 20
4797.7042039132248
 11
3605.8505090483486
 21
4797.7042039132248
  0
LINE
  8
_0-0_
  6
CONTINUOUS
 62
    7
 10
3605.8505090483486
 20
4719.7042344308029
 11
3605.8505090483486
 21
4624.7041733956466
  0
ARC
  8
_0-0_
  6
CONTINUOUS
 62
    7
 10
3869.8504785307705
 20
4797.7251084542404
 40
24.000003814697269
 50
359.95008850097656
 51
180.04991149902344
  0
ARC
  8
_0-0_
  6
CONTINUOUS
 62
    7
 10
3869.8504785307705
 20
4751.6417954659591
 40
39.950084686279297
 50
233.07637023925781
 51
306.92362976074219
  0
ARC
  8
_0-0_
  6
CONTINUOUS
 62
    7
 10
3782.3503564604584
 20
4714.7042344308029
 40
212.49990844726565
 50
154.94239807128909
 51
205.05763244628912
  0
ARC
  8
_0-0_
  6
CONTINUOUS
 62
    7
 10
3607.3718713530366
 20
4822.9675706124435
 40
25.30909538269043
 50
226.18788146972656
 51
266.55375671386719
  0
LINE
  8
_0-0_
  6
CONTINUOUS
 62
    7
 10
4157.8505090483486
 20
4798.6925535201726
 11
4157.8505090483486
 21
4720.6925840377507
  0
LINE
  8
_0-0_
  6
CONTINUOUS
 62
    7
 10
4109.8504480131924
 20
4798.6925535201726
 11
4109.8504480131924
 21
4720.6925840377507
  0
ARC
  8
_0-0_
  6
CONTINUOUS
 62
    7
 10
4133.8504480131924
 20
4798.7134580611882
 40
24.000034332275391
 50
359.95008850097656
 51
180.04991149902344
  0
ARC
  8
_0-0_
  6
CONTINUOUS
 62
    7
 10
4133.8504480131924
 20
4752.6302671432204
 40
39.950183868408203
 50
233.07647705078125
 51
306.923583984375
  0
LINE
  8
_0-0_
  6
CONTINUOUS
 62
    7
 10
4421.8505090483486
 20
4798.6925535201726
 11
4421.8505090483486
 21
4720.6925840377507
  0
LINE
  8
_0-0_
  6
CONTINUOUS
 62
    7
 10
4373.8504480131924
 20
4798.6925535201726
 11
4373.8504480131924
 21
4720.6925840377507
  0
ARC
  8
_0-0_
  6
CONTINUOUS
 62
    7
 10
4397.8504480131924
 20
4798.7134580611882
 40
24.000034332275391
 50
359.95008850097656
 51
180.04991149902344
  0
ARC
  8
_0-0_
  6
CONTINUOUS
 62
    7
 10
4397.8504480131924
 20
4752.6302671432204
 40
39.950183868408203
 50
233.07647705078125
 51
306.923583984375
  0
LINE
  8
_0-0_
  6
CONTINUOUS
 62
    7
 10
4685.8505090483495
 20
4798.6925535201726
 11
4685.8505090483495
 21
4720.6925840377507
  0
LINE
  8
_0-0_
  6
CONTINUOUS
 62
    7
 10
4637.8504480131924
 20
4798.6925535201726
 11
4637.8504480131924
 21
4720.6925840377507
  0
ARC
  8
_0-0_
  6
CONTINUOUS
 62
    7
 10
4661.8504480131933
 20
4798.7134580611882
 40
24.000034332275391
 50
359.95008850097656
 51
180.04991149902344
  0
ARC
  8
_0-0_
  6
CONTINUOUS
 62
    7
 10
4661.8504480131933
 20
4752.6302671432204
 40
39.950183868408203
 50
233.07647705078125
 51
306.923583984375
  0
LINE
  8
_0-0_
  6
CONTINUOUS
 62
    7
 10
4949.8505090483486
 20
4798.6925535201726
 11
4949.8505090483486
 21
4720.6925840377507
  0
LINE
  8
_0-0_
  6
CONTINUOUS
 62
    7
 10
4901.8504480131933
 20
4798.6925535201726
 11
4901.8504480131933
 21
4720.6925840377507
  0
ARC
  8
_0-0_
  6
CONTINUOUS
 62
    7
 10
4925.8504480131933
 20
4798.7134580611882
 40
24.000034332275391
 50
359.95008850097656
 51
180.04991149902344
  0
ARC
  8
_0-0_
  6
CONTINUOUS
 62
    7
 10
4925.8504480131933
 20
4752.6302671432204
 40
39.950183868408203
 50
233.07647705078125
 51
306.923583984375
  0
LINE
  8
_0-0_
  6
CONTINUOUS
 62
    7
 10
5213.8505090483486
 20
4798.6925535201726
 11
5213.8505090483486
 21
4720.6925840377507
  0
LINE
  8
_0-0_
  6
CONTINUOUS
 62
    7
 10
5165.8504480131933
 20
4798.6925535201726
 11
5165.8504480131933
 21
4720.6925840377507
  0
ARC
  8
_0-0_
  6
CONTINUOUS
 62
    7
 10
5189.8504480131933
 20
4798.7134580611882
 40
24.000034332275391
 50
359.95008850097656
 51
180.04991149902344
  0
ARC
  8
_0-0_
  6
CONTINUOUS
 62
    7
 10
5189.8504480131933
 20
4752.6302671432204
 40
39.950183868408203
 50
233.07647705078125
 51
306.923583984375
  0
LINE
  8
_0-0_
  6
CONTINUOUS
 62
    7
 10
5477.8505090483486
 20
4798.6925535201726
 11
5477.8505090483486
 21
4720.6925840377507
  0
LINE
  8
_0-0_
  6
CONTINUOUS
 62
    7
 10
5429.8504480131933
 20
4798.6925535201726
 11
5429.8504480131933
 21
4720.6925840377507
  0
ARC
  8
_0-0_
  6
CONTINUOUS
 62
    7
 10
5453.8504480131924
 20
4798.7134580611882
 40
24.000034332275391
 50
359.95008850097656
 51
180.04991149902344
  0
ARC
  8
_0-0_
  6
CONTINUOUS
 62
    7
 10
5453.8504480131924
 20
4752.6302671432204
 40
39.950183868408203
 50
233.07647705078125
 51
306.923583984375
  0
LINE
  8
_0-0_
  6
CONTINUOUS
 62
    7
 10
5741.8505090483495
 20
4798.6925535201726
 11
5741.8505090483495
 21
4720.6925840377507
  0
LINE
  8
_0-0_
  6
CONTINUOUS
 62
    7
 10
5693.8504480131924
 20
4798.6925535201726
 11
5693.8504480131924
 21
4720.6925840377507
  0
ARC
  8
_0-0_
  6
CONTINUOUS
 62
    7
 10
5717.8504480131942
 20
4798.7134580611882
 40
24.000034332275391
 50
359.95008850097656
 51
180.04991149902344
  0
ARC
  8
_0-0_
  6
CONTINUOUS
 62
    7
 10
5717.8504480131942
 20
4752.6302671432204
 40
39.950183868408203
 50
233.07647705078125
 51
306.923583984375
  0
LINE
  8
_0-0_
  6
CONTINUOUS
 62
    7
 10
6005.8505090483495
 20
4798.6925535201726
 11
6005.8505090483495
 21
4720.6925840377507
  0
LINE
  8
_0-0_
  6
CONTINUOUS
 62
    7
 10
5957.8504480131942
 20
4798.6925535201726
 11
5957.8504480131942
 21
4720.6925840377507
  0
ARC
  8
_0-0_
  6
CONTINUOUS
 62
    7
 10
5981.8504480131933
 20
4798.7134580611882
 40
24.000034332275391
 50
359.95008850097656
 51
180.04991149902344
  0
ARC
  8
_0-0_
  6
CONTINUOUS
 62
    7
 10
5981.8504480131933
 20
4752.6302671432204
 40
39.950183868408203
 50
233.07647705078125
 51
306.923583984375
  0
LINE
  8
_0-0_
  6
CONTINUOUS
 62
    7
 10
6269.8505090483486
 20
4798.6925535201726
 11
6269.8505090483486
 21
4720.6925840377507
  0
LINE
  8
_0-0_
  6
CONTINUOUS
 62
    7
 10
6221.8504480131933
 20
4798.6925535201726
 11
6221.8504480131933
 21
4720.6925840377507
  0
ARC
  8
_0-0_
  6
CONTINUOUS
 62
    7
 10
6245.8504480131933
 20
4798.7134580611882
 40
24.000034332275391
 50
359.95008850097656
 51
180.04991149902344
  0
ARC
  8
_0-0_
  6
CONTINUOUS
 62
    7
 10
6245.8504480131933
 20
4752.6302671432204
 40
39.950183868408203
 50
233.07647705078125
 51
306.923583984375
  0
LINE
  8
_0-0_
  6
CONTINUOUS
 62
    7
 10
6533.8505090483504
 20
4798.6925535201726
 11
6533.8505090483504
 21
4720.6925840377507
  0
LINE
  8
_0-0_
  6
CONTINUOUS
 62
    7
 10
6485.8504480131933
 20
4798.6925535201726
 11
6485.8504480131933
 21
4720.6925840377507
  0
ARC
  8
_0-0_
  6
CONTINUOUS
 62
    7
 10
6509.8504480131942
 20
4798.7134580611882
 40
24.000034332275391
 50
359.95008850097656
 51
180.04991149902344
  0
ARC
  8
_0-0_
  6
CONTINUOUS
 62
    7
 10
6509.8504480131942
 20
4752.6302671432204
 40
39.950183868408203
 50
233.07647705078125
 51
306.923583984375
  0
LINE
  8
_0-0_
  6
CONTINUOUS
 62
    7
 10
6797.8505090483504
 20
4798.6925535201726
 11
6797.8505090483504
 21
4720.6925840377507
  0
LINE
  8
_0-0_
  6
CONTINUOUS
 62
    7
 10
6749.8504480131942
 20
4798.6925535201726
 11
6749.8504480131942
 21
4720.6925840377507
  0
ARC
  8
_0-0_
  6
CONTINUOUS
 62
    7
 10
6773.8504480131951
 20
4798.7134580611882
 40
24.000034332275391
 50
359.95008850097656
 51
180.04991149902344
  0
ARC
  8
_0-0_
  6
CONTINUOUS
 62
    7
 10
6773.8504480131951
 20
4752.6302671432204
 40
39.950183868408203
 50
233.07647705078125
 51
306.923583984375
  0
LINE
  8
_0-0_
  6
CONTINUOUS
 62
    7
 10
7061.8505090483504
 20
4798.6925535201726
 11
7061.8505090483504
 21
4720.6925840377507
  0
LINE
  8
_0-0_
  6
CONTINUOUS
 62
    7
 10
7013.8504480131951
 20
4798.6925535201726
 11
7013.8504480131951
 21
4720.6925840377507
  0
ARC
  8
_0-0_
  6
CONTINUOUS
 62
    7
 10
7037.8504480131951
 20
4798.7134580611882
 40
24.000034332275391
 50
359.95008850097656
 51
180.04991149902344
  0
ARC
  8
_0-0_
  6
CONTINUOUS
 62
    7
 10
7037.8504480131951
 20
4752.6302671432204
 40
39.950183868408203
 50
233.07647705078125
 51
306.923583984375
  0
LINE
  8
ADD_LINE
  6
DOT
 62
    4
 10
7037.8504785307723
 20
4834.6204490492491
 11
7037.8504785307723
 21
4692.8301439282777
  0
LINE
  8
_0-0_
  6
CONTINUOUS
 62
    7
 10
6797.8505090483504
 20
4798.6925535201735
 11
7013.8503869780379
 21
4798.6925535201726
  0
LINE
  8
ADD_LINE
  6
DOT
 62
    4
 10
3423.646626001856
 20
4720.6925840377517
 11
6773.8504785307723
 21
4720.6925840377517
  0
LINE
  8
ADD_LINE
  6
DOT
 62
    4
 10
6797.8505090483504
 20
4720.6925840377517
 11
7393.0309854028555
 21
4720.6925840377517
  0
LINE
  8
_0-0_
  6
CONTINUOUS
 62
    7
 10
6797.8504945728309
 20
4720.6925840377517
 11
7013.8504480131951
 21
4720.6925840377507
  0
LINE
  8
_0-0_
  6
CONTINUOUS
 62
    7
 10
6533.8504732413185
 20
4798.6925535201735
 11
6749.8503869780379
 21
4798.6925535201726
  0
LINE
  8
ADD_LINE
  6
DOT
 62
    4
 10
6509.8504785307723
 20
4834.6204490492491
 11
6509.8504785307723
 21
4798.6925535201735
  0
LINE
  8
ADD_LINE
  6
DOT
 62
    4
 10
6509.8504785307723
 20
4720.6925840377517
 11
6509.8504785307723
 21
4692.8301439282777
  0
LINE
  8
_0-0_
  6
CONTINUOUS
 62
    7
 10
6533.8504945728309
 20
4720.6925840377517
 11
6749.8504480131942
 21
4720.6925840377507
  0
LINE
  8
ADD_LINE
  6
DOT
 62
    4
 10
6245.8504785307723
 20
4834.6204490492491
 11
6245.8504785307723
 21
4798.6925535201735
  0
LINE
  8
ADD_LINE
  6
DOT
 62
    4
 10
6245.8504785307723
 20
4720.6925840377517
 11
6245.8504785307723
 21
4692.8301439282777
  0
LINE
  8
_0-0_
  6
CONTINUOUS
 62
    7
 10
6269.8504811168023
 20
4720.6925840377517
 11
6485.8504480131933
 21
4720.6925840377507
  0
LINE
  8
_0-0_
  6
CONTINUOUS
 62
    7
 10
6269.8504732392566
 20
4798.6925535201735
 11
6485.8503869780379
 21
4798.6925535201726
  0
LINE
  8
_0-0_
  6
CONTINUOUS
 62
    7
 10
6005.8505090483495
 20
4798.6925535201735
 11
6221.8503869780379
 21
4798.6925535201726
  0
LINE
  8
ADD_LINE
  6
DOT
 62
    4
 10
5981.8504785307705
 20
4834.6204490492491
 11
5981.8504785307705
 21
4798.8493444010946
  0
LINE
  8
ADD_LINE
  6
DOT
 62
    4
 10
5981.8504785307705
 20
4720.6925840377517
 11
5981.8504785307705
 21
4692.8301439282777
  0
LINE
  8
_0-0_
  6
CONTINUOUS
 62
    7
 10
6005.8504811168023
 20
4720.6925840377517
 11
6221.8504480131933
 21
4720.6925840377507
  0
LINE
  8
_0-0_
  6
CONTINUOUS
 62
    7
 10
5741.8504732392557
 20
4798.6925535201735
 11
5957.8503869780361
 21
4798.6925535201726
  0
LINE
  8
ADD_LINE
  6
DOT
 62
    4
 10
5717.8504785307714
 20
4834.6204490492491
 11
5717.8504785307714
 21
4798.6925535201735
  0
LINE
  8
ADD_LINE
  6
DOT
 62
    4
 10
5717.8504785307714
 20
4720.6925840377517
 11
5717.8504785307714
 21
4692.8301439282777
  0
LINE
  8
_0-0_
  6
CONTINUOUS
 62
    7
 10
5741.8504811168023
 20
4720.6925840377517
 11
5957.8504480131942
 21
4720.6925840377507
  0
LINE
  8
_0-0_
  6
CONTINUOUS
 62
    7
 10
5477.8504732392557
 20
4798.6925535201735
 11
5693.850386978037
 21
4798.6925535201726
  0
LINE
  8
ADD_LINE
  6
DOT
 62
    4
 10
5453.8504785307714
 20
4834.6204490492491
 11
5453.8504785307714
 21
4798.6925535201735
  0
LINE
  8
ADD_LINE
  6
DOT
 62
    4
 10
5453.8504785307714
 20
4790.9133198607415
 11
5453.8504785307714
 21
4692.8301439282777
  0
LINE
  8
_0-0_
  6
CONTINUOUS
 62
    7
 10
5477.8504811168023
 20
4720.6925840377517
 11
5693.8504480131924
 21
4720.6925840377507
  0
LINE
  8
_0-0_
  6
CONTINUOUS
 62
    7
 10
4421.8504811168013
 20
4720.6925840377517
 11
4637.8504480131924
 21
4720.6925840377507
  0
LINE
  8
_0-0_
  6
CONTINUOUS
 62
    7
 10
4421.8504732392548
 20
4798.6925535201735
 11
4637.8503869780361
 21
4798.6925535201726
  0
LINE
  8
_0-0_
  6
CONTINUOUS
 62
    7
 10
4685.8505090483495
 20
4798.6925535201735
 11
4901.8503869780361
 21
4798.6925535201726
  0
LINE
  8
_0-0_
  6
CONTINUOUS
 62
    7
 10
4685.85049457283
 20
4720.6925840377517
 11
4901.8504480131933
 21
4720.6925840377507
  0
LINE
  8
_0-0_
  6
CONTINUOUS
 62
    7
 10
4949.85049457283
 20
4720.6925840377517
 11
5165.8504480131933
 21
4720.6925840377507
  0
LINE
  8
_0-0_
  6
CONTINUOUS
 62
    7
 10
4949.8505090483486
 20
4798.6925535201735
 11
5165.8503869780361
 21
4798.6925535201726
  0
LINE
  8
_0-0_
  6
CONTINUOUS
 62
    7
 10
5213.8504732413166
 20
4798.6925535201735
 11
5429.850386978037
 21
4798.6925535201726
  0
LINE
  8
_0-0_
  6
CONTINUOUS
 62
    7
 10
5213.8505090483486
 20
4720.6925840377517
 11
5429.8504480131933
 21
4720.6925840377507
  0
LINE
  8
_0-0_
  6
CONTINUOUS
 62
    7
 10
4157.8505090483486
 20
4798.6925535201735
 11
4373.850386978037
 21
4798.6925535201726
  0
LINE
  8
_0-0_
  6
CONTINUOUS
 62
    7
 10
4157.8505090483486
 20
4720.6925840377517
 11
4373.8504480131924
 21
4720.6925840377507
  0
LINE
  8
_0-0_
  6
CONTINUOUS
 62
    7
 10
3893.8504785307709
 20
4720.6925840377517
 11
4109.8504480131924
 21
4720.6925840377507
  0
LINE
  8
_0-0_
  6
CONTINUOUS
 62
    7
 10
3893.830975463693
 20
4798.6925535201735
 11
4109.8503869780361
 21
4798.6925535201726
  0
LINE
  8
_1-0_
  6
CONTINUOUS
 62
    5
 10
202.66222961730421
 20
5833.7167718922228
 11
8305.6627178985545
 21
5833.7167718922228
  0
LINE
  8
_1-0_
  6
CONTINUOUS
 62
    5
 10
202.66222961730421
 20
139.71713810316089
 11
8305.6627178985545
 21
139.71713810316089
  0
LINE
  8
_1-0_
  6
CONTINUOUS
 62
    7
 10
8305.6627178985545
 20
475.51715641370777
 11
8305.6627178985545
 21
183.51669102064136
  0
LINE
  8
_1-0_
  6
CONTINUOUS
 62
    7
 10
4319.8619366485545
 20
475.51715641370777
 11
4319.8619366485545
 21
183.51669102064136
  0
LINE
  8
_1-0_
  6
CONTINUOUS
 62
    7
 10
202.66222961730421
 20
475.51715641370777
 11
8305.6627178985545
 21
475.51715641370777
  0
LINE
  8
_1-0_
  6
CONTINUOUS
 62
    7
 10
202.66222961730421
 20
258.6032178913689
 11
202.66222961730421
 21
183.51669102064136
  0
LINE
  8
_1-0_
  6
CONTINUOUS
 62
    7
 10
202.66222961730421
 20
475.51715641370777
 11
202.66222961730421
 21
359.05530720106128
  0
LINE
  8
_1-0_
  6
CONTINUOUS
 62
    7
 10
202.66222961730421
 20
359.05530720106128
 11
202.66222961730421
 21
351.91261082044605
  0
LINE
  8
_1-0_
  6
CONTINUOUS
 62
    7
 10
202.66222961730421
 20
359.05530720106128
 11
202.66222961730421
 21
258.6032178913689
  0
LINE
  8
_1-0_
  6
CONTINUOUS
 62
    7
 10
202.66222961730421
 20
183.51669102064136
 11
8305.6627178985545
 21
183.51669102064136
  0
LINE
  8
_1-0_
  6
CONTINUOUS
 62
    7
 10
8206.5428448516795
 20
392.60440616956714
 11
8050.8867169219911
 21
236.94738178602222
  0
LINE
  8
_1-0_
  6
CONTINUOUS
 62
    7
 10
8305.6627178985545
 20
183.51669102064136
 11
8305.6627178985545
 21
475.51715641370777
  0
LINE
  8
_1-0_
  6
CONTINUOUS
 62
    7
 10
5852.8618145782411
 20
475.51715641370777
 11
5852.8618145782411
 21
342.31307773939136
  0
LINE
  8
_1-0_
  6
CONTINUOUS
 62
    7
 10
5852.8618145782411
 20
342.31307773939136
 11
5852.8618145782411
 21
183.51669102064136
  0
LINE
  8
_1-0_
  6
CONTINUOUS
 62
    7
 10
4319.8619366485545
 20
329.51713352552417
 11
5828.0021954376161
 21
329.51713352552417
  0
LINE
  8
_1-0_
  6
CONTINUOUS
 62
    7
 10
6188.6613751251161
 20
475.51715641370777
 11
6188.6613751251161
 21
359.05530720106128
  0
LINE
  8
_1-0_
  6
CONTINUOUS
 62
    7
 10
6188.6613751251161
 20
359.05530720106128
 11
6188.6613751251161
 21
183.51669102064136
  0
LINE
  8
_1-0_
  6
CONTINUOUS
 62
    7
 10
4319.8619366485545
 20
329.51713352552417
 11
5852.8618145782411
 21
329.51713352552417
  0
LINE
  8
_1-0_
  6
CONTINUOUS
 62
    7
 10
7940.6621075469911
 20
475.51715641370777
 11
7940.6621075469911
 21
183.51669102064136
  0
LINE
  8
ADD_LINE
  6
DOT
 62
    7
 10
424.22907837218702
 20
418.66100101819995
 11
164.45975788421094
 21
418.66100101819995
  0
LINE
  8
ADD_LINE
  6
DOT
 62
    7
 10
424.22907837218702
 20
418.66100101819995
 11
1029.0655041534369
 21
418.66100101819995
  0
LINE
  8
ADD_LINE
  6
DOT
 62
    7
 10
1029.0655041534369
 20
418.66100101819995
 11
2594.4336224395697
 21
418.66100101819995
  0
LINE
  8
ADD_LINE
  6
DOT
 62
    7
 10
2567.8619671661322
 20
418.66100101819995
 11
4155.121336062617
 21
418.66100101819995
  0
LINE
  8
ADD_LINE
  6
DOT
 62
    7
 10
4155.121336062617
 20
418.66100101819995
 11
6628.0675030548036
 21
418.66100101819995
  0
LINE
  8
_1-0_
  6
CONTINUOUS
 62
    7
 10
5312.6616192657411
 20
329.51713352552417
 11
5312.6616192657411
 21
183.51669102064136
  0
LINE
  8
ADD_LINE
  6
DOT
 62
    7
 10
4343.2783795196483
 20
273.60243587842945
 11
5512.1721173126161
 21
273.60243587842945
  0
LINE
  8
ADD_LINE
  6
DOT
 62
    7
 10
6628.0675030548036
 20
418.66100101819995
 11
8128.1322003204286
 21
418.66100101819995
  0
TEXT
  8
_1-0_
 62
    4
 10
238.19573887175977
 20
413.85005741468433
 40
40
 41
1
 50
0
  1
特記
  0
TEXT
  8
_1-0_
 62
    4
 10
4319.8384381133983
 20
413.57558994642261
 40
40
 41
1
 50
0
  1
図面名
  0
TEXT
  8
_1-0_
 62
    4
 10
4326.403074343867
 20
266.85244350782398
 40
40
 41
1
 50
0
  1
SCALE
  0
TEXT
  8
_1-0_
 62
    4
 10
5329.7380352813661
 20
265.16199856153492
 40
40
 41
1
 50
0
  1
DATE
  0
TEXT
  8
_1-0_
 62
    4
 10
5874.6837139923036
 20
414.97464924207691
 40
40
 41
1
 50
0
  1
担当
  0
TEXT
  8
_1-0_
 62
    4
 10
7960.6999493438661
 20
409.36466007581714
 40
50
 41
1
 50
0
  1
NO
  0
LINE
  8
ADD_LINE
  6
DOT
 62
    4
 10
3609.3789998985085
 20
3057.8119836854476
 11
3190.9969795210973
 21
3057.8119836854476
  0
LINE
  8
ADD_LINE
  6
DOT
 62
    4
 10
914.28008966919094
 20
2329.6816423496221
 11
371.52221382987591
 21
2573.9226865006185
  0
LINE
  8
_0-0_
  6
CONTINUOUS
 62
    7
 10
778.06086991746156
 20
4305.3136180205447
 11
746.04446785670063
 21
4214.3788716183026
  0
LINE
  8
_1-0_
  6
CONTINUOUS
 62
    7
 10
1916.3893510815308
 20
3007.8369384359403
 11
2416.3893510815305
 21
3007.8369384359403
  0
LINE
  8
_1-0_
  6
CONTINUOUS
 62
    7
 10
2416.3893510815305
 20
3007.8369384359403
 11
2416.3893510815305
 21
3127.8369384359403
  0
LINE
  8
_1-0_
  6
CONTINUOUS
 62
    7
 10
2416.3893510815305
 20
3127.8369384359403
 11
1916.3893510815308
 21
3127.8369384359403
  0
LINE
  8
_1-0_
  6
CONTINUOUS
 62
    7
 10
1916.3893510815308
 20
3127.8369384359403
 11
1916.3893510815308
 21
3007.8369384359403
  0
LINE
  8
_1-0_
  6
CONTINUOUS
 62
    7
 10
1916.3893510815308
 20
1141.9467554076537
 11
2416.3893510815305
 21
1141.9467554076537
  0
LINE
  8
_1-0_
  6
CONTINUOUS
 62
    7
 10
2416.3893510815305
 20
1141.9467554076537
 11
2416.3893510815305
 21
1261.9467554076537
  0
LINE
  8
_1-0_
  6
CONTINUOUS
 62
    7
 10
2416.3893510815305
 20
1261.9467554076537
 11
1916.3893510815308
 21
1261.9467554076537
  0
LINE
  8
_1-0_
  6
CONTINUOUS
 62
    7
 10
1916.3893510815308
 20
1261.9467554076537
 11
1916.3893510815308
 21
1141.9467554076537
  0
LINE
  8
_1-0_
  6
CONTINUOUS
 62
    7
 10
7241.5141430948424
 20
4685.0415973377703
 11
7741.5141430948424
 21
4685.0415973377703
  0
LINE
  8
_1-0_
  6
CONTINUOUS
 62
    7
 10
7741.5141430948424
 20
4685.0415973377703
 11
7741.5141430948424
 21
4805.0415973377703
  0
LINE
  8
_1-0_
  6
CONTINUOUS
 62
    7
 10
7741.5141430948424
 20
4805.0415973377703
 11
7241.5141430948424
 21
4805.0415973377703
  0
LINE
  8
_1-0_
  6
CONTINUOUS
 62
    7
 10
7241.5141430948424
 20
4805.0415973377703
 11
7241.5141430948424
 21
4685.0415973377703
  0
TEXT
  8
_0-a_
 62
    7
 10
2054.5757071547418
 20
3032.895174708819
 40
60
 41
1
 50
0
  1
袖　瓦
  0
TEXT
  8
_0-a_
 62
    7
 10
2054.8664040243521
 20
1174.3189249199199
 40
60
 41
1
 50
0
  1
丸隅棟
  0
TEXT
  8
_1-0_
 62
    7
 10
4560.1385378224313
 20
360.14676039102881
 40
60
 41
1
 50
0
  1
Ｓ瓦
  0
TEXT
  8
_1-0_
 62
    7
 10
4570.3710676327037
 20
213.82158410414149
 40
60
 41
1
 50
0
  1
1/20
  0
TEXT
  8
_1-0_
 62
    7
 10
8057.6869942220537
 20
313.0654953889939
 40
60
 41
1
 50
0
  1
4
  0
LINE
  8
_1-0_
  6
CONTINUOUS
 62
    4
 10
413.49383362121046
 20
258.14206867567066
 11
4319.8619366485545
 21
258.14206867567066
  0
LINE
  8
_1-0_
  6
CONTINUOUS
 62
    4
 10
413.49383362121046
 20
331.14162235609058
 11
4319.8619366485545
 21
331.14162235609058
  0
LINE
  8
_1-0_
  6
CONTINUOUS
 62
    4
 10
413.49383362121046
 20
404.14163380018238
 11
4319.8619366485545
 21
404.14163380018238
  0
LINE
  8
ADD_LINE
  6
DOT
 62
    4
 10
6276.1105674815371
 20
358.14967487271872
 11
6951.2827855980886
 21
358.14967487271872
  0
TEXT
  8
_1-0_
 62
    7
 10
6263.9458814331829
 20
353.48311446770879
 40
60
 41
1
 50
0
  1
株式会社
  0
TEXT
  8
_1-0_
 62
    3
 10
6618.8662223062829
 20
351.71441461551296
 40
100
 41
1
 50
0
  1
神　清
  0
LINE
  8
_0-2_
  6
CONTINUOUS
 62
    7
 10
3770.9225625040831
 20
2433.9030624733323
 11
3749.6704510175964
 21
2446.9030558749369
  0
LINE
  8
_0-1_
  6
CONTINUOUS
 62
    7
 10
3626.8264766721577
 20
2383.9028975134506
 11
3609.3789998985085
 21
2383.9028975134506
  0
LINE
  8
_0-1_
  6
CONTINUOUS
 62
    7
 10
3620.9225625040831
 20
2433.9030624733323
 11
3609.3789998985085
 21
2383.9028975134506
  0
LINE
  8
_0-1_
  6
CONTINUOUS
 62
    7
 10
3637.6584023478331
 20
2430.8219418018789
 11
3626.8264766721577
 21
2383.9028975134506
  0
LINE
  8
_0-2_
  6
CONTINUOUS
 62
    7
 10
3720.922397544201
 20
2460.318995618391
 11
3730.9224305361772
 21
2460.318995618391
  0
LINE
  8
_0-2_
  6
CONTINUOUS
 62
    7
 10
3720.922397544201
 20
2460.318995618391
 11
3720.922397544201
 21
2445.3186986906039
  0
LINE
  8
_0-2_
  6
CONTINUOUS
 62
    7
 10
4030.9224305361772
 20
2434.8064652657731
 11
4012.5119179728331
 21
2442.0836704494723
  0
LINE
  8
_0-2_
  6
CONTINUOUS
 62
    7
 10
3730.9224305361772
 20
2460.318995618391
 11
3730.9224305361772
 21
2457.1052472020065
  0
LINE
  8
_0-2_
  6
CONTINUOUS
 62
    7
 10
4030.9224305361772
 20
2434.8064652657731
 11
4012.5119179728331
 21
2442.0836704494723
  0
LINE
  8
_0-2_
  6
CONTINUOUS
 62
    7
 10
4290.9213088089818
 20
2434.8064652657731
 11
4272.5107962456368
 21
2442.0836704494723
  0
LINE
  8
_0-2_
  6
CONTINUOUS
 62
    7
 10
4240.9206489694543
 20
2460.3185007387456
 11
4250.921176841076
 21
2460.3185007387456
  0
LINE
  8
_0-2_
  6
CONTINUOUS
 62
    7
 10
4240.9206489694543
 20
2460.3185007387456
 11
4240.9206489694543
 21
2445.3182038109589
  0
LINE
  8
_0-2_
  6
CONTINUOUS
 62
    7
 10
4550.921176841076
 20
2434.8059703861277
 11
4532.5106642777318
 21
2442.0831755698273
  0
LINE
  8
_0-2_
  6
CONTINUOUS
 62
    7
 10
4250.921176841076
 20
2460.3185007387456
 11
4250.921176841076
 21
2457.104752322361
  0
LINE
  8
_0-2_
  6
CONTINUOUS
 62
    7
 10
4550.921176841076
 20
2434.8059703861277
 11
4532.5106642777318
 21
2442.0831755698273
  0
LINE
  8
_0-2_
  6
CONTINUOUS
 62
    7
 10
4500.9205170015493
 20
2460.3180058591006
 11
4510.921044873171
 21
2460.3180058591006
  0
LINE
  8
_0-2_
  6
CONTINUOUS
 62
    7
 10
4500.9205170015493
 20
2460.3180058591006
 11
4500.9205170015493
 21
2445.3177089313135
  0
LINE
  8
_0-2_
  6
CONTINUOUS
 62
    7
 10
4810.9210448731701
 20
2434.8054755064823
 11
4792.510532309826
 21
2442.0826806901819
  0
LINE
  8
_0-2_
  6
CONTINUOUS
 62
    7
 10
4510.921044873171
 20
2460.3180058591006
 11
4510.921044873171
 21
2457.1042574427156
  0
LINE
  8
_0-2_
  6
CONTINUOUS
 62
    7
 10
4810.9210448731701
 20
2434.8054755064823
 11
4792.510532309826
 21
2442.0826806901819
  0
LINE
  8
_0-2_
  6
CONTINUOUS
 62
    7
 10
4760.9203850336435
 20
2460.3175109794552
 11
4770.9209129052651
 21
2460.3175109794552
  0
LINE
  8
_0-2_
  6
CONTINUOUS
 62
    7
 10
4760.9203850336435
 20
2460.3175109794552
 11
4760.9203850336435
 21
2445.3172140516681
  0
LINE
  8
_0-2_
  6
CONTINUOUS
 62
    7
 10
5070.9209129052651
 20
2434.8049806268368
 11
5052.5104003419201
 21
2442.0821858105364
  0
LINE
  8
_0-2_
  6
CONTINUOUS
 62
    7
 10
4770.9209129052651
 20
2460.3175109794552
 11
4770.9209129052651
 21
2457.1037625630702
  0
LINE
  8
_0-2_
  6
CONTINUOUS
 62
    7
 10
5070.9209129052651
 20
2434.8049806268368
 11
5052.5104003419201
 21
2442.0821858105364
  0
LINE
  8
_0-2_
  6
CONTINUOUS
 62
    7
 10
5020.9207479453844
 20
2460.3175109794552
 11
5030.9207809373602
 21
2460.3175109794552
  0
LINE
  8
_0-2_
  6
CONTINUOUS
 62
    7
 10
5020.9207479453844
 20
2460.3175109794552
 11
5020.9207479453844
 21
2445.3172140516681
  0
LINE
  8
_0-2_
  6
CONTINUOUS
 62
    7
 10
5330.9207809373602
 20
2434.8049806268368
 11
5312.5102683740151
 21
2442.0821858105364
  0
LINE
  8
_0-2_
  6
CONTINUOUS
 62
    7
 10
5030.9207809373602
 20
2460.3175109794552
 11
5030.9207809373602
 21
2457.1037625630702
  0
LINE
  8
_0-2_
  6
CONTINUOUS
 62
    7
 10
5330.9207809373602
 20
2434.8049806268368
 11
5312.5102683740151
 21
2442.0821858105364
  0
LINE
  8
_0-2_
  6
CONTINUOUS
 62
    7
 10
5280.9191313385418
 20
2460.3175109794552
 11
5290.9191643305185
 21
2460.3175109794552
  0
LINE
  8
_0-2_
  6
CONTINUOUS
 62
    7
 10
5280.9191313385418
 20
2460.3175109794552
 11
5280.9191313385418
 21
2445.3172140516681
  0
LINE
  8
_0-2_
  6
CONTINUOUS
 62
    7
 10
5590.9191643305185
 20
2434.8049806268368
 11
5572.5086517671753
 21
2442.0821858105364
  0
LINE
  8
_0-2_
  6
CONTINUOUS
 62
    7
 10
5290.9191643305185
 20
2460.3175109794552
 11
5290.9191643305185
 21
2457.1037625630702
  0
LINE
  8
_0-2_
  6
CONTINUOUS
 62
    7
 10
5590.9191643305185
 20
2434.8049806268368
 11
5572.5086517671753
 21
2442.0821858105364
  0
LINE
  8
_0-2_
  6
CONTINUOUS
 62
    7
 10
5540.9189993706377
 20
2460.3170160998097
 11
5550.9190323626126
 21
2460.3170160998097
  0
LINE
  8
_0-2_
  6
CONTINUOUS
 62
    7
 10
5540.9189993706377
 20
2460.3170160998097
 11
5540.9189993706377
 21
2445.3167191720231
  0
LINE
  8
_0-2_
  6
CONTINUOUS
 62
    7
 10
5850.9190323626126
 20
2434.8044857471914
 11
5832.5085197992685
 21
2442.081690930891
  0
LINE
  8
_0-2_
  6
CONTINUOUS
 62
    7
 10
5550.9190323626126
 20
2460.3170160998097
 11
5550.9190323626126
 21
2457.1032676834247
  0
LINE
  8
_0-2_
  6
CONTINUOUS
 62
    7
 10
5850.9190323626126
 20
2434.8044857471914
 11
5832.5085197992685
 21
2442.081690930891
  0
LINE
  8
_0-2_
  6
CONTINUOUS
 62
    7
 10
5800.9188674027318
 20
2460.3170160998097
 11
5810.9189003947085
 21
2460.3170160998097
  0
LINE
  8
_0-2_
  6
CONTINUOUS
 62
    7
 10
5800.9188674027318
 20
2460.3170160998097
 11
5800.9188674027318
 21
2445.3167191720231
  0
LINE
  8
_0-2_
  6
CONTINUOUS
 62
    7
 10
6110.9189003947085
 20
2434.8044857471914
 11
6092.5083878313626
 21
2442.081690930891
  0
LINE
  8
_0-2_
  6
CONTINUOUS
 62
    7
 10
5810.9189003947085
 20
2460.3170160998097
 11
5810.9189003947085
 21
2457.1032676834247
  0
LINE
  8
_0-2_
  6
CONTINUOUS
 62
    7
 10
6110.9189003947085
 20
2434.8044857471914
 11
6092.5083878313626
 21
2442.081690930891
  0
LINE
  8
_0-2_
  6
CONTINUOUS
 62
    7
 10
6060.919230314471
 20
2460.3165212201648
 11
6070.9192633064486
 21
2460.3165212201648
  0
LINE
  8
_0-2_
  6
CONTINUOUS
 62
    7
 10
6060.919230314471
 20
2460.3165212201648
 11
6060.919230314471
 21
2445.3162242923777
  0
LINE
  8
_0-2_
  6
CONTINUOUS
 62
    7
 10
6370.9192633064486
 20
2434.8039908675464
 11
6352.5087507431017
 21
2442.0811960512456
  0
LINE
  8
_0-2_
  6
CONTINUOUS
 62
    7
 10
6070.9192633064486
 20
2460.3165212201648
 11
6070.9192633064486
 21
2457.1027728037798
  0
LINE
  8
_0-2_
  6
CONTINUOUS
 62
    7
 10
6370.9192633064486
 20
2434.8039908675464
 11
6352.5087507431017
 21
2442.0811960512456
  0
LINE
  8
_0-2_
  6
CONTINUOUS
 62
    7
 10
6320.9195932262101
 20
2460.3160263405198
 11
6330.9196262181877
 21
2460.3160263405198
  0
LINE
  8
_0-2_
  6
CONTINUOUS
 62
    7
 10
6320.9195932262101
 20
2460.3160263405198
 11
6320.9195932262101
 21
2445.3157294127323
  0
LINE
  8
_0-2_
  6
CONTINUOUS
 62
    7
 10
6630.9196262181877
 20
2434.8034959879014
 11
6612.5091136548435
 21
2442.0807011716006
  0
LINE
  8
_0-2_
  6
CONTINUOUS
 62
    7
 10
6330.9196262181877
 20
2460.3160263405198
 11
6330.9196262181877
 21
2457.1022779241343
  0
LINE
  8
_0-2_
  6
CONTINUOUS
 62
    7
 10
6630.9196262181877
 20
2434.8034959879014
 11
6612.5091136548435
 21
2442.0807011716006
  0
LINE
  8
_0-2_
  6
CONTINUOUS
 62
    7
 10
6840.919824170046
 20
2460.3150365812289
 11
6850.9198571620236
 21
2460.3150365812289
  0
LINE
  8
_0-2_
  6
CONTINUOUS
 62
    7
 10
6840.919824170046
 20
2460.3150365812289
 11
6840.919824170046
 21
2445.3147396534414
  0
LINE
  8
_0-2_
  6
CONTINUOUS
 62
    7
 10
7150.9198571620236
 20
2434.802506228611
 11
7132.5093445986768
 21
2442.0797114123097
  0
LINE
  8
_0-2_
  6
CONTINUOUS
 62
    7
 10
6850.9198571620236
 20
2460.3150365812289
 11
6850.9198571620236
 21
2457.1012881648439
  0
LINE
  8
_0-2_
  6
CONTINUOUS
 62
    7
 10
7150.9198571620236
 20
2434.802506228611
 11
7132.5093445986768
 21
2442.0797114123097
  0
LINE
  8
_0-2_
  6
CONTINUOUS
 62
    7
 10
7120.9202530657376
 20
2440.8021796080448
 11
7120.9202530657376
 21
2424.8022257968119
  0
LINE
  8
_0-2_
  6
CONTINUOUS
 62
    7
 10
7300.9198571620236
 20
2440.8021796080448
 11
7300.9198571620236
 21
2424.8022257968119
  0
LINE
  8
_0-2_
  6
CONTINUOUS
 62
    7
 10
7270.9202530657376
 20
2433.9030624733323
 11
7292.1723645522252
 21
2446.9030558749369
  0
LINE
  8
_0-1_
  6
CONTINUOUS
 62
    7
 10
7415.0163388976653
 20
2383.9028975134506
 11
7432.4638156713127
 21
2383.9028975134506
  0
LINE
  8
_0-1_
  6
CONTINUOUS
 62
    7
 10
7420.9202530657376
 20
2433.9030624733323
 11
7432.4638156713127
 21
2383.9028975134506
  0
LINE
  8
_0-1_
  6
CONTINUOUS
 62
    7
 10
7404.1844132219876
 20
2430.8219418018789
 11
7415.0163388976653
 21
2383.9028975134506
  0
LINE
  8
ADD_LINE
  6
DOT
 62
    3
 10
3626.8264766721577
 20
2383.9028975134506
 11
3626.8264766721577
 21
2323.3224531775131
  0
LINE
  8
ADD_LINE
  6
DOT
 62
    3
 10
3626.8264766721577
 20
2383.9028975134506
 11
3654.6877058212285
 21
2383.9028975134506
  0
ARC
  8
_0-1_
  6
CONTINUOUS
 62
    7
 10
3695.9225625040831
 20
2423.1339865126056
 40
75.769236281111432
 50
8.1712493896484339
 51
171.82875061035156
  0
ARC
  8
_0-1_
  6
CONTINUOUS
 62
    7
 10
3695.9225625040831
 20
2423.1339865126056
 40
58.769238961709512
 50
23.856689453125004
 51
172.48289489746094
  0
ARC
  8
_0-2_
  6
CONTINUOUS
 62
    7
 10
3824.0083020522247
 20
2577.1828443303843
 40
167.37639968459672
 50
231.9831237792969
 51
298.39506530761719
  0
ARC
  8
_0-2_
  6
CONTINUOUS
 62
    7
 10
3960.1298972802651
 20
2417.4287665221073
 40
57.894485061233112
 50
25.205398559570313
 51
167.5159912109375
  0
ARC
  8
_0-2_
  6
CONTINUOUS
 62
    7
 10
3823.2659825843193
 20
2580.3188966424618
 40
155.49068966427365
 50
234.57966613769534
 51
295.79264831542969
  0
ARC
  8
_0-2_
  6
CONTINUOUS
 62
    7
 10
3740.7269860682718
 20
2460.8841481732898
 40
10.507658687797754
 50
201.07586669921878
 51
223.8392028808594
  0
ARC
  8
_0-2_
  6
CONTINUOUS
 62
    7
 10
4480.1286435851644
 20
2417.4282716424618
 40
72.894488154230885
 50
13.791900634765625
 51
161.69851684570312
  0
ARC
  8
_0-2_
  6
CONTINUOUS
 62
    7
 10
4344.0070483571235
 20
2577.1823494507389
 40
167.37639968459672
 50
231.9831237792969
 51
298.39506530761719
  0
ARC
  8
_0-2_
  6
CONTINUOUS
 62
    7
 10
4480.1286435851644
 20
2417.4282716424618
 40
57.894485061233112
 50
25.205398559570313
 51
167.5159912109375
  0
ARC
  8
_0-2_
  6
CONTINUOUS
 62
    7
 10
4343.2647288892176
 20
2580.3184017628164
 40
155.49068966427365
 50
234.57966613769534
 51
295.79264831542969
  0
ARC
  8
_0-2_
  6
CONTINUOUS
 62
    7
 10
4260.725732373171
 20
2460.8836532936448
 40
10.507658687797754
 50
201.07586669921878
 51
223.8392028808594
  0
ARC
  8
_0-2_
  6
CONTINUOUS
 62
    7
 10
4740.1285116172594
 20
2417.4277767628164
 40
72.894488154230885
 50
13.791900634765625
 51
161.69851684570312
  0
ARC
  8
_0-2_
  6
CONTINUOUS
 62
    7
 10
4604.0069163892185
 20
2577.1818545710939
 40
167.37639968459672
 50
231.9831237792969
 51
298.39506530761719
  0
ARC
  8
_0-2_
  6
CONTINUOUS
 62
    7
 10
4740.1285116172594
 20
2417.4277767628164
 40
57.894485061233112
 50
25.205398559570313
 51
167.5159912109375
  0
ARC
  8
_0-2_
  6
CONTINUOUS
 62
    7
 10
4603.2645969213117
 20
2580.3179068831714
 40
155.49068966427365
 50
234.57966613769534
 51
295.79264831542969
  0
ARC
  8
_0-2_
  6
CONTINUOUS
 62
    7
 10
4520.7256004052651
 20
2460.8831584139994
 40
10.507658687797754
 50
201.07586669921878
 51
223.8392028808594
  0
ARC
  8
_0-2_
  6
CONTINUOUS
 62
    7
 10
5000.1283796493526
 20
2417.4272818831714
 40
72.894488154230885
 50
13.791900634765625
 51
161.69851684570312
  0
ARC
  8
_0-2_
  6
CONTINUOUS
 62
    7
 10
4864.0067844213136
 20
2577.1813596914485
 40
167.37639968459672
 50
231.9831237792969
 51
298.39506530761719
  0
ARC
  8
_0-2_
  6
CONTINUOUS
 62
    7
 10
5000.1283796493526
 20
2417.4272818831714
 40
57.894485061233112
 50
25.205398559570313
 51
167.5159912109375
  0
ARC
  8
_0-2_
  6
CONTINUOUS
 62
    7
 10
4863.2644649534068
 20
2580.3174120035264
 40
155.49068966427365
 50
234.57966613769534
 51
295.79264831542969
  0
ARC
  8
_0-2_
  6
CONTINUOUS
 62
    7
 10
4780.7254684373602
 20
2460.8826635343539
 40
10.507658687797754
 50
201.07586669921878
 51
223.8392028808594
  0
ARC
  8
_0-2_
  6
CONTINUOUS
 62
    7
 10
5260.1282476814486
 20
2417.4272818831714
 40
72.894488154230885
 50
13.791900634765625
 51
161.69851684570312
  0
ARC
  8
_0-2_
  6
CONTINUOUS
 62
    7
 10
5124.0066524534068
 20
2577.1813596914485
 40
167.37639968459672
 50
231.9831237792969
 51
298.39506530761719
  0
ARC
  8
_0-2_
  6
CONTINUOUS
 62
    7
 10
5260.1282476814486
 20
2417.4272818831714
 40
57.894485061233112
 50
25.205398559570313
 51
167.5159912109375
  0
ARC
  8
_0-2_
  6
CONTINUOUS
 62
    7
 10
5123.2643329855018
 20
2580.3174120035264
 40
155.49068966427365
 50
234.57966613769534
 51
295.79264831542969
  0
ARC
  8
_0-2_
  6
CONTINUOUS
 62
    7
 10
5040.7253364694552
 20
2460.8826635343539
 40
10.507658687797754
 50
201.07586669921878
 51
223.8392028808594
  0
ARC
  8
_0-2_
  6
CONTINUOUS
 62
    7
 10
5520.1266310746068
 20
2417.4272818831714
 40
72.894488154230885
 50
13.791900634765625
 51
161.69851684570312
  0
ARC
  8
_0-2_
  6
CONTINUOUS
 62
    7
 10
5384.0050358465669
 20
2577.1813596914485
 40
167.37639968459672
 50
231.9831237792969
 51
298.39506530761719
  0
ARC
  8
_0-2_
  6
CONTINUOUS
 62
    7
 10
5520.1266310746068
 20
2417.4272818831714
 40
57.894485061233112
 50
25.205398559570313
 51
167.5159912109375
  0
ARC
  8
_0-2_
  6
CONTINUOUS
 62
    7
 10
5383.2627163786601
 20
2580.3174120035264
 40
155.49068966427365
 50
234.57966613769534
 51
295.79264831542969
  0
ARC
  8
_0-2_
  6
CONTINUOUS
 62
    7
 10
5300.7237198626126
 20
2460.8826635343539
 40
10.507658687797754
 50
201.07586669921878
 51
223.8392028808594
  0
ARC
  8
_0-2_
  6
CONTINUOUS
 62
    7
 10
5780.1264991067019
 20
2417.4267870035264
 40
72.894488154230885
 50
13.791900634765625
 51
161.69851684570312
  0
ARC
  8
_0-2_
  6
CONTINUOUS
 62
    7
 10
5644.0049038786601
 20
2577.1808648118031
 40
167.37639968459672
 50
231.9831237792969
 51
298.39506530761719
  0
ARC
  8
_0-2_
  6
CONTINUOUS
 62
    7
 10
5780.1264991067019
 20
2417.4267870035264
 40
57.894485061233112
 50
25.205398559570313
 51
167.5159912109375
  0
ARC
  8
_0-2_
  6
CONTINUOUS
 62
    7
 10
5643.2625844107542
 20
2580.3169171238815
 40
155.49068966427365
 50
234.57966613769534
 51
295.79264831542969
  0
ARC
  8
_0-2_
  6
CONTINUOUS
 62
    7
 10
5560.7235878947085
 20
2460.8821686547089
 40
10.507658687797754
 50
201.07586669921878
 51
223.8392028808594
  0
ARC
  8
_0-2_
  6
CONTINUOUS
 62
    7
 10
6040.126367138796
 20
2417.4267870035264
 40
72.894488154230885
 50
13.791900634765625
 51
161.69851684570312
  0
ARC
  8
_0-2_
  6
CONTINUOUS
 62
    7
 10
5904.0047719107542
 20
2577.1808648118031
 40
167.37639968459672
 50
231.9831237792969
 51
298.39506530761719
  0
ARC
  8
_0-2_
  6
CONTINUOUS
 62
    7
 10
6040.126367138796
 20
2417.4267870035264
 40
57.894485061233112
 50
25.205398559570313
 51
167.5159912109375
  0
ARC
  8
_0-2_
  6
CONTINUOUS
 62
    7
 10
5903.2624524428502
 20
2580.3169171238815
 40
155.49068966427365
 50
234.57966613769534
 51
295.79264831542969
  0
ARC
  8
_0-2_
  6
CONTINUOUS
 62
    7
 10
5820.7234559268018
 20
2460.8821686547089
 40
10.507658687797754
 50
201.07586669921878
 51
223.8392028808594
  0
ARC
  8
_0-2_
  6
CONTINUOUS
 62
    7
 10
6300.1267300505351
 20
2417.4262921238815
 40
72.894488154230885
 50
13.791900634765625
 51
161.69851684570312
  0
ARC
  8
_0-2_
  6
CONTINUOUS
 62
    7
 10
6164.0051348224961
 20
2577.1803699321581
 40
167.37639968459672
 50
231.9831237792969
 51
298.39506530761719
  0
ARC
  8
_0-2_
  6
CONTINUOUS
 62
    7
 10
6300.1267300505351
 20
2417.4262921238815
 40
57.894485061233112
 50
25.205398559570313
 51
167.5159912109375
  0
ARC
  8
_0-2_
  6
CONTINUOUS
 62
    7
 10
6163.2628153545902
 20
2580.316422244236
 40
155.49068966427365
 50
234.57966613769534
 51
295.79264831542969
  0
ARC
  8
_0-2_
  6
CONTINUOUS
 62
    7
 10
6080.7238188385418
 20
2460.8816737750635
 40
10.507658687797754
 50
201.07586669921878
 51
223.8392028808594
  0
ARC
  8
_0-2_
  6
CONTINUOUS
 62
    7
 10
6560.1270929622751
 20
2417.425797244236
 40
72.894488154230885
 50
13.791900634765625
 51
161.69851684570312
  0
ARC
  8
_0-2_
  6
CONTINUOUS
 62
    7
 10
6424.0054977342352
 20
2577.1798750525131
 40
167.37639968459672
 50
231.9831237792969
 51
298.39506530761719
  0
ARC
  8
_0-2_
  6
CONTINUOUS
 62
    7
 10
6560.1270929622751
 20
2417.425797244236
 40
57.894485061233112
 50
25.205398559570313
 51
167.5159912109375
  0
ARC
  8
_0-2_
  6
CONTINUOUS
 62
    7
 10
6423.2631782663293
 20
2580.3159273645906
 40
155.49068966427365
 50
234.57966613769534
 51
295.79264831542969
  0
ARC
  8
_0-2_
  6
CONTINUOUS
 62
    7
 10
6340.7241817502818
 20
2460.8811788954181
 40
10.507658687797754
 50
201.07586669921878
 51
223.8392028808594
  0
ARC
  8
_0-2_
  6
CONTINUOUS
 62
    7
 10
7080.1273239061102
 20
2417.4248074849452
 40
72.894488154230885
 50
13.791900634765625
 51
161.69851684570312
  0
ARC
  8
_0-2_
  6
CONTINUOUS
 62
    7
 10
6944.0057286780684
 20
2577.1788852932223
 40
167.37639968459672
 50
231.9831237792969
 51
298.39506530761719
  0
ARC
  8
_0-2_
  6
CONTINUOUS
 62
    7
 10
7080.1273239061102
 20
2417.4248074849452
 40
57.894485061233112
 50
25.205398559570313
 51
167.5159912109375
  0
ARC
  8
_0-2_
  6
CONTINUOUS
 62
    7
 10
6943.2634092101653
 20
2580.3149376052997
 40
155.49068966427365
 50
234.57966613769534
 51
295.79264831542969
  0
ARC
  8
_0-2_
  6
CONTINUOUS
 62
    7
 10
6860.7244126941168
 20
2460.8801891361277
 40
10.507658687797754
 50
201.07586669921878
 51
223.8392028808594
  0
ARC
  8
_0-2_
  6
CONTINUOUS
 62
    7
 10
7210.9200551138792
 20
2687.3027206764573
 40
277.50014227789802
 50
251.07536315917969
 51
288.92463684082031
  0
ARC
  8
_0-2_
  6
CONTINUOUS
 62
    7
 10
7210.9200551138792
 20
2803.4851201169135
 40
373.68275410420188
 50
256.06352233886719
 51
283.93647766113281
  0
ARC
  8
_0-1_
  6
CONTINUOUS
 62
    7
 10
7345.9202530657376
 20
2423.1339865126056
 40
75.769236281111432
 50
8.1712493896484393
 51
171.82875061035156
  0
ARC
  8
_0-1_
  6
CONTINUOUS
 62
    7
 10
7345.9202530657376
 20
2423.1339865126056
 40
58.769238961709512
 50
7.5171051025390634
 51
156.143310546875
  0
CIRCLE
  8
ADD_LINE
  6
DOT
 62
    3
 10
3626.8264766721577
 20
2383.9028975134506
 40
2.9999997970220207
  0
LINE
  8
ADD_LINE
  6
DOT
 62
    3
 10
4030.9226907820475
 20
3108.7156198545117
 11
4030.9226907820475
 21
3082.8775944695608
  0
LINE
  8
ADD_LINE
  6
DOT
 62
    3
 10
4030.9226907820475
 20
3108.7156198545117
 11
4030.9226907820475
 21
3131.2786232596254
  0
LINE
  8
ADD_LINE
  6
DOT
 62
    3
 10
4030.9224305361772
 20
3108.715551437771
 11
4047.1632138338487
 21
3108.715551437771
  0
LINE
  8
ADD_LINE
  6
DOT
 62
    3
 10
4290.9213088089818
 20
3108.715551437771
 11
4290.9213088089818
 21
3098.1643585931074
  0
LINE
  8
ADD_LINE
  6
DOT
 62
    3
 10
4290.9213088089818
 20
3108.715551437771
 11
4290.9213088089818
 21
3116.6609197265284
  0
LINE
  8
ADD_LINE
  6
DOT
 62
    3
 10
4290.9213088089818
 20
3108.715551437771
 11
4298.7299958426102
 21
3108.715551437771
  0
LINE
  8
ADD_LINE
  6
DOT
 62
    3
 10
4290.9213088089818
 20
3108.715551437771
 11
4283.6718979968118
 21
3108.715551437771
  0
CIRCLE
  8
ADD_LINE
  6
DOT
 62
    3
 10
4290.9213088089818
 20
3108.715551437771
 40
2.06435678260494
  0
CIRCLE
  8
ADD_LINE
  6
DOT
 62
    3
 10
4030.9224305361772
 20
3108.715551437771
 40
3.8625912624448322
  0
LINE
  8
ADD_LINE
  6
DOT
 62
    3
 10
6630.9196262181877
 20
3108.7125821598988
 11
6643.4600191090412
 21
3108.7125821598988
  0
LINE
  8
ADD_LINE
  6
DOT
 62
    3
 10
6630.9201210978335
 20
3108.7125821598988
 11
6621.1786828312288
 21
3108.7125821598988
  0
LINE
  8
ADD_LINE
  6
DOT
 62
    3
 10
6630.9201210978335
 20
3108.7125821598988
 11
6630.9201210978335
 21
3097.4575956977474
  0
LINE
  8
ADD_LINE
  6
DOT
 62
    3
 10
6630.9201210978335
 20
3108.7125821598988
 11
6630.9201210978335
 21
3122.8335620141438
  0
LINE
  8
ADD_LINE
  6
DOT
 62
    3
 10
6890.9199891299268
 20
3108.7120872802534
 11
6874.9383459951969
 21
3108.7120872802534
  0
LINE
  8
ADD_LINE
  6
DOT
 62
    3
 10
6890.9199891299268
 20
3108.7120872802534
 11
6904.0278683578963
 21
3108.7120872802534
  0
LINE
  8
ADD_LINE
  6
DOT
 62
    3
 10
6890.9199891299268
 20
3108.7120872802534
 11
6890.9199891299268
 21
3096.2197436823135
  0
CIRCLE
  8
ADD_LINE
  6
DOT
 62
    3
 10
6630.9196262181877
 20
3108.7125821598988
 40
1.7755601624493369
  0
CIRCLE
  8
ADD_LINE
  6
DOT
 62
    3
 10
6890.9199891299268
 20
3108.7120872802534
 40
1.7406031430477606
  0
LINE
  8
ADD_LINE
  6
DOT
 62
    3
 10
4030.9226907820475
 20
2434.8065336825148
 11
4030.9226907820475
 21
2462.2318115004027
  0
LINE
  8
ADD_LINE
  6
DOT
 62
    3
 10
4030.9224305361772
 20
2434.8064652657731
 11
4030.9224305361772
 21
2410.4154572588977
  0
LINE
  8
ADD_LINE
  6
DOT
 62
    3
 10
4030.9226907820475
 20
2434.8065336825148
 11
4052.2053099237
 21
2434.8065336825148
  0
LINE
  8
ADD_LINE
  6
DOT
 62
    3
 10
4030.9224305361772
 20
2434.8064652657731
 11
4015.6499367259257
 21
2434.8064652657731
  0
CIRCLE
  8
ADD_LINE
  6
DOT
 62
    3
 10
4030.9224305361772
 20
2434.8064652657731
 40
4.2459286111006627
  0
LINE
  8
ADD_LINE
  6
DOT
 62
    3
 10
4290.9215690548517
 20
2434.8065336825148
 11
4290.9215690548517
 21
2462.2318115004027
  0
LINE
  8
ADD_LINE
  6
DOT
 62
    3
 10
4290.9213088089818
 20
2434.8064652657731
 11
4290.9213088089818
 21
2410.4154572588977
  0
LINE
  8
ADD_LINE
  6
DOT
 62
    3
 10
4290.9215690548517
 20
2434.8065336825148
 11
4312.2041881965042
 21
2434.8065336825148
  0
LINE
  8
ADD_LINE
  6
DOT
 62
    3
 10
4290.9213088089818
 20
2434.8064652657731
 11
4275.6488149987299
 21
2434.8064652657731
  0
CIRCLE
  8
ADD_LINE
  6
DOT
 62
    3
 10
4290.9213088089818
 20
2434.8064652657731
 40
4.2459286111006627
  0
LINE
  8
ADD_LINE
  6
DOT
 62
    3
 10
6630.9198864640575
 20
2434.8065336825148
 11
6630.9198864640575
 21
2462.2318115004027
  0
LINE
  8
ADD_LINE
  6
DOT
 62
    3
 10
6630.9196262181877
 20
2434.8064652657731
 11
6630.9196262181877
 21
2410.4154572588977
  0
LINE
  8
ADD_LINE
  6
DOT
 62
    3
 10
6630.9198864640575
 20
2434.8065336825148
 11
6652.20250560571
 21
2434.8065336825148
  0
LINE
  8
ADD_LINE
  6
DOT
 62
    3
 10
6630.9196262181877
 20
2434.8064652657731
 11
6615.6471324079357
 21
2434.8064652657731
  0
CIRCLE
  8
ADD_LINE
  6
DOT
 62
    3
 10
6630.9196262181877
 20
2434.8064652657731
 40
4.2459286111006627
  0
LINE
  8
ADD_LINE
  6
DOT
 62
    3
 10
6890.9199891299268
 20
2434.8065336825148
 11
6890.9199891299268
 21
2462.2318115004027
  0
LINE
  8
ADD_LINE
  6
DOT
 62
    3
 10
6890.9197288840569
 20
2434.8064652657731
 11
6890.9197288840569
 21
2410.4154572588977
  0
LINE
  8
ADD_LINE
  6
DOT
 62
    3
 10
6890.9199891299268
 20
2434.8065336825148
 11
6912.2026082715802
 21
2434.8065336825148
  0
LINE
  8
ADD_LINE
  6
DOT
 62
    3
 10
6890.9197288840569
 20
2434.8064652657731
 11
6875.6472350738059
 21
2434.8064652657731
  0
CIRCLE
  8
ADD_LINE
  6
DOT
 62
    3
 10
6890.9197288840569
 20
2434.8064652657731
 40
4.2459286111006627
  0
LINE
  8
_1-0_
  6
CONTINUOUS
 62
    7
 10
6873.4360369987908
 20
2041.98147291951
 11
7373.4360369987908
 21
2041.98147291951
  0
LINE
  8
_1-0_
  6
CONTINUOUS
 62
    7
 10
7373.4360369987908
 20
2041.98147291951
 11
7373.4360369987908
 21
2161.98147291951
  0
LINE
  8
_1-0_
  6
CONTINUOUS
 62
    7
 10
7373.4360369987908
 20
2161.98147291951
 11
6873.4360369987908
 21
2161.98147291951
  0
LINE
  8
_1-0_
  6
CONTINUOUS
 62
    7
 10
6873.4360369987908
 20
2161.98147291951
 11
6873.4360369987908
 21
2041.98147291951
  0
TEXT
  8
_0-a_
 62
    7
 10
7011.9130899416123
 20
2074.3536424317763
 40
60
 41
1
 50
0
  1
Ｓ瓦
  0
LINE
  8
_0-0_
  6
CONTINUOUS
 62
    7
 10
2961.1016884885967
 20
1496.0933334620031
 11
2929.0933679121604
 21
1424.9635397278389
  0
LINE
  8
_0-0_
  6
CONTINUOUS
 62
    7
 10
2917.3295838644408
 20
1515.7909042627844
 11
2885.3212632880054
 21
1444.6609868087091
  0
LINE
  8
_0-0_
  6
CONTINUOUS
 62
    7
 10
2676.9878199814175
 20
1625.0284102013402
 11
2644.9794994049812
 21
1553.898616467176
  0
LINE
  8
_0-0_
  6
CONTINUOUS
 62
    7
 10
2720.7601720453954
 20
1605.3308394005589
 11
2688.7516040291371
 21
1534.2010456663947
  0
LINE
  8
_0-0_
  6
CONTINUOUS
 62
    7
 10
2436.2405022290941
 20
1733.3646165859475
 11
2404.2321816526592
 21
1662.2348228517833
  0
LINE
  8
_0-0_
  6
CONTINUOUS
 62
    7
 10
2480.0128542930725
 20
1713.6671695050773
 11
2448.0045337166371
 21
1642.5373757709135
  0
LINE
  8
_0-0_
  6
CONTINUOUS
 62
    7
 10
2195.4933081966838
 20
1841.700946690466
 11
2163.4848639003358
 21
1770.5711529563021
  0
LINE
  8
_0-0_
  6
CONTINUOUS
 62
    7
 10
2239.2655365407509
 20
1822.0034996095958
 11
2207.2572159643141
 21
1750.8737058754321
  0
LINE
  8
_0-0_
  6
CONTINUOUS
 62
    7
 10
1954.745990444361
 20
1950.0372767949843
 11
1922.7375461480131
 21
1878.9074830608206
  0
LINE
  8
_0-0_
  6
CONTINUOUS
 62
    7
 10
1998.518342508338
 20
1930.3398297141146
 11
1966.5098982119912
 21
1859.2097885401281
  0
LINE
  8
_0-0_
  6
CONTINUOUS
 62
    7
 10
1713.9987964119484
 20
2058.3736068995031
 11
1681.9903521156027
 21
1987.2435657255166
  0
LINE
  8
_0-0_
  6
CONTINUOUS
 62
    7
 10
1757.7710247560151
 20
2038.6759123788104
 11
1725.7625804596694
 21
1967.5461186446466
  0
LINE
  8
_0-0_
  6
CONTINUOUS
 62
    7
 10
1473.2514786596266
 20
2166.7096895641989
 11
1441.2430343632798
 21
2095.5798958300352
  0
LINE
  8
_0-0_
  6
CONTINUOUS
 62
    7
 10
1517.0237070036933
 20
2147.0122424833294
 11
1485.0152627073464
 21
2075.8824487491652
  0
LINE
  8
_0-0_
  6
CONTINUOUS
 62
    7
 10
1232.5041609073048
 20
2275.0460196687177
 11
1200.495778470912
 21
2203.9162259345535
  0
LINE
  8
_0-0_
  6
CONTINUOUS
 62
    7
 10
1276.2765129712818
 20
2255.3485725878481
 11
1244.268068674935
 21
2184.2187788536839
  0
LINE
  8
_0-0_
  6
CONTINUOUS
 62
    7
 10
991.75690501493705
 20
2383.382349773236
 11
959.74846071858906
 21
2312.2525560390723
  0
LINE
  8
_0-0_
  6
CONTINUOUS
 62
    7
 10
1035.5291952189589
 20
2363.684902692366
 11
1003.5207509226132
 21
2292.5548615183798
  0
LINE
  8
_0-0_
  6
CONTINUOUS
 62
    7
 10
751.00964912256927
 20
2491.7186798777548
 11
719.00120482622242
 21
2420.588886143591
  0
LINE
  8
_0-0_
  6
CONTINUOUS
 62
    7
 10
794.78193932659224
 20
2472.0209853570618
 11
762.77349503024539
 21
2400.8911916228985
  0
LINE
  8
ADD_LINE
  6
DOT
 62
    4
 10
787.63934140640572
 20
2514.6333395325264
 11
772.89576329460374
 21
2481.8698326174085
  0
LINE
  8
ADD_LINE
  6
DOT
 62
    4
 10
740.88731899825575
 20
2410.7400388832448
 11
729.45355781397552
 21
2385.3316806959556
  0
LINE
  8
_0-0_
  6
CONTINUOUS
 62
    7
 10
991.75690501493705
 20
2383.382349773236
 11
794.78200118654854
 21
2472.0209853570618
  0
LINE
  8
ADD_LINE
  6
DOT
 62
    4
 10
1028.3865972987735
 20
2406.2970094280086
 11
1013.707415400811
 21
2373.6765227303731
  0
LINE
  8
ADD_LINE
  6
DOT
 62
    4
 10
981.63463675057869
 20
2302.403708778726
 11
970.20087556629846
 21
2276.9953505914368
  0
LINE
  8
_0-0_
  6
CONTINUOUS
 62
    7
 10
959.74852257854536
 20
2312.2525560390723
 11
762.77349503024539
 21
2400.8911916228985
  0
LINE
  8
_0-0_
  6
CONTINUOUS
 62
    7
 10
1232.5041609073048
 20
2275.0460196687177
 11
1035.5292570789152
 21
2363.684902692366
  0
LINE
  8
ADD_LINE
  6
DOT
 62
    4
 10
1269.1339150510964
 20
2297.9606793234898
 11
1254.3903369392922
 21
2265.1974198481939
  0
LINE
  8
ADD_LINE
  6
DOT
 62
    4
 10
1222.3818926429465
 20
2194.0673786742072
 11
1210.9481314586662
 21
2168.659020486919
  0
LINE
  8
_0-0_
  6
CONTINUOUS
 62
    7
 10
1200.495778470912
 20
2203.9162259345535
 11
1003.5207509226132
 21
2292.5548615183798
  0
LINE
  8
_0-0_
  6
CONTINUOUS
 62
    7
 10
1473.2514786596266
 20
2166.7096895641989
 11
1276.2765129712818
 21
2255.3485725878481
  0
LINE
  8
ADD_LINE
  6
DOT
 62
    4
 10
1509.8811090835068
 20
2189.624349218971
 11
1495.1376546916151
 21
2156.8610897436752
  0
LINE
  8
ADD_LINE
  6
DOT
 62
    4
 10
1491.9453098198881
 20
2149.766990028726
 11
1451.6953873510329
 21
2060.3229378222227
  0
LINE
  8
_0-0_
  6
CONTINUOUS
 62
    7
 10
1441.2430343632798
 20
2095.5798958300352
 11
1244.268068674935
 21
2184.2187788536839
  0
LINE
  8
_0-0_
  6
CONTINUOUS
 62
    7
 10
2404.2321816526592
 20
1662.2348228517833
 11
2207.2572159643141
 21
1750.8737058754321
  0
LINE
  8
_0-0_
  6
CONTINUOUS
 62
    7
 10
2436.2405022290941
 20
1733.3646165859475
 11
2239.2656602606612
 21
1822.0034996095958
  0
LINE
  8
_0-0_
  6
CONTINUOUS
 62
    7
 10
2195.4933081966838
 20
1841.700946690466
 11
1998.518342508338
 21
1930.3395822742918
  0
LINE
  8
_0-0_
  6
CONTINUOUS
 62
    7
 10
2163.4848639003358
 20
1770.5711529563021
 11
1966.5098982119912
 21
1859.2097885401281
  0
LINE
  8
_0-0_
  6
CONTINUOUS
 62
    7
 10
1922.7375461480131
 20
1878.9074830608206
 11
1725.7625804596694
 21
1967.5461186446466
  0
LINE
  8
_0-0_
  6
CONTINUOUS
 62
    7
 10
1954.745990444361
 20
1950.0372767949843
 11
1757.7711484759277
 21
2038.6759123788104
  0
LINE
  8
_0-0_
  6
CONTINUOUS
 62
    7
 10
1713.9987964119484
 20
2058.3736068995031
 11
1517.0238307236048
 21
2147.0122424833294
  0
LINE
  8
_0-0_
  6
CONTINUOUS
 62
    7
 10
1681.9903521156027
 20
1987.2435657255166
 11
1485.0152627073464
 21
2075.8824487491652
  0
LINE
  8
_0-0_
  6
CONTINUOUS
 62
    7
 10
2676.9878199814175
 20
1625.0284102013402
 11
2480.0128542930725
 21
1713.6671695050773
  0
LINE
  8
_0-0_
  6
CONTINUOUS
 62
    7
 10
2644.9794994049812
 20
1553.898616467176
 11
2448.0045337166371
 21
1642.5373757709135
  0
LINE
  8
_0-0_
  6
CONTINUOUS
 62
    7
 10
2885.7268171573041
 20
1445.5622863626577
 11
2688.7516040291371
 21
1534.2010456663947
  0
LINE
  8
_0-0_
  6
CONTINUOUS
 62
    7
 10
2917.75295340097
 20
1516.6841620224973
 11
2720.7601720453954
 21
1605.3308394005589
  0
LINE
  8
_0-0_
  6
CONTINUOUS
 62
    7
 10
3077.2806237715354
 20
1325.3816305481514
 11
3150.2342964383433
 21
1292.5524283601237
  0
LINE
  8
_0-0_
  6
CONTINUOUS
 62
    7
 10
3172.608052640835
 20
1342.2716254014035
 11
3150.2342964383433
 21
1292.5524283601237
  0
LINE
  8
_0-0_
  6
CONTINUOUS
 62
    7
 10
2961.1016884885967
 20
1496.0933334620031
 11
3136.0168991093733
 21
1417.3816124025643
  0
LINE
  8
_0-0_
  6
CONTINUOUS
 62
    7
 10
2929.0933679121604
 20
1424.9635397278389
 11
3089.5914972671017
 21
1352.7393196581602
  0
LINE
  8
_0-0_
  6
CONTINUOUS
 62
    7
 10
3089.5914972671017
 20
1352.7393196581602
 11
3077.2806237715354
 21
1325.3816305481514
  0
ARC
  8
_0-0_
  6
CONTINUOUS
 62
    7
 10
2939.2242965703108
 20
1505.961109868781
 40
24.000004175547009
 50
335.72233581542974
 51
155.82215881347659
  0
ARC
  8
_0-0_
  6
CONTINUOUS
 62
    7
 10
2920.3132132457758
 20
1463.9367964318089
 40
39.950083397530221
 50
208.84861755371094
 51
282.69587707519531
  0
ARC
  8
_0-0_
  6
CONTINUOUS
 62
    7
 10
2698.882532687287
 20
1615.1987395272479
 40
24.000035105524837
 50
335.72233581542974
 51
155.82215881347659
  0
ARC
  8
_0-0_
  6
CONTINUOUS
 62
    7
 10
2679.9716968025746
 20
1573.1744260902758
 40
39.950183919958164
 50
208.84866333007815
 51
282.69577026367193
  0
ARC
  8
_0-0_
  6
CONTINUOUS
 62
    7
 10
2458.135214934965
 20
1723.5350696317666
 40
24.000035105524837
 50
335.72233581542974
 51
155.82215881347659
  0
ARC
  8
_0-0_
  6
CONTINUOUS
 62
    7
 10
2439.2243790502516
 20
1681.5106324748831
 40
39.950183919958164
 50
208.84866333007815
 51
282.69577026367193
  0
ARC
  8
_0-0_
  6
CONTINUOUS
 62
    7
 10
2217.3880209025529
 20
1831.8711522964625
 40
24.000035105524837
 50
335.72233581542974
 51
155.82215881347659
  0
ARC
  8
_0-0_
  6
CONTINUOUS
 62
    7
 10
2198.4771850178404
 20
1789.8469625794016
 40
39.950183919958164
 50
208.84866333007815
 51
282.69577026367193
  0
ARC
  8
_0-0_
  6
CONTINUOUS
 62
    7
 10
1976.6408268701423
 20
1940.207482400981
 40
24.000035105524837
 50
335.72233581542974
 51
155.82215881347659
  0
ARC
  8
_0-0_
  6
CONTINUOUS
 62
    7
 10
1957.7298672655172
 20
1898.1832926839204
 40
39.950183919958164
 50
208.84866333007815
 51
282.69577026367193
  0
ARC
  8
_0-0_
  6
CONTINUOUS
 62
    7
 10
1735.8935091178193
 20
2048.5438125054998
 40
24.000035105524837
 50
335.72233581542974
 51
155.82215881347659
  0
ARC
  8
_0-0_
  6
CONTINUOUS
 62
    7
 10
1716.9825495131943
 20
2006.5196227884389
 40
39.950183919958164
 50
208.84866333007815
 51
282.69577026367193
  0
ARC
  8
_0-0_
  6
CONTINUOUS
 62
    7
 10
1495.1461913654964
 20
2156.8801426100181
 40
24.000035105524837
 50
335.72233581542974
 51
155.82215881347659
  0
ARC
  8
_0-0_
  6
CONTINUOUS
 62
    7
 10
1476.2353554807839
 20
2114.8559528929577
 40
39.950183919958164
 50
208.84866333007815
 51
282.69577026367193
  0
ARC
  8
_0-0_
  6
CONTINUOUS
 62
    7
 10
1254.3989973330861
 20
2265.2164727145368
 40
24.000035105524837
 50
335.72233581542974
 51
155.82215881347659
  0
ARC
  8
_0-0_
  6
CONTINUOUS
 62
    7
 10
1235.488037728461
 20
2223.1920355576535
 40
39.950183919958164
 50
208.84866333007815
 51
282.69577026367193
  0
ARC
  8
_0-0_
  6
CONTINUOUS
 62
    7
 10
1013.6516795807631
 20
2373.5525553792327
 40
24.000035105524837
 50
335.72233581542974
 51
155.82215881347659
  0
ARC
  8
_0-0_
  6
CONTINUOUS
 62
    7
 10
994.74071997613805
 20
2331.5283656621718
 40
39.950183919958164
 50
208.84866333007815
 51
282.69577026367193
  0
ARC
  8
_0-0_
  6
CONTINUOUS
 62
    7
 10
772.90436182844019
 20
2481.8888854837514
 40
24.000035105524837
 50
335.72233581542974
 51
155.82215881347659
  0
ARC
  8
_0-0_
  6
CONTINUOUS
 62
    7
 10
753.99346408377141
 20
2439.8646957666906
 40
39.950183919958164
 50
208.84866333007815
 51
282.69577026367193
  0
ARC
  8
_0-0_
  6
CONTINUOUS
 62
    7
 10
3098.1331199444662
 20
1352.4578568599127
 40
75.168320939347552
 50
352.21182250976562
 51
59.735900878906243
  0
LINE
  8
ADD_LINE
  6
DOT
 62
    4
 10
3423.646626001856
 20
4720.6925840377517
 11
1652.7572156641816
 21
4720.6925840377517
  0
LINE
  8
ADD_LINE
  6
DOT
 62
    4
 10
2154.7336662553171
 20
4720.6897462314628
 11
2253.271564963351
 21
4720.7733808915136
  0
LINE
  8
ADD_LINE
  6
DOT
 62
    4
 10
2154.7336662553171
 20
4720.6897462314628
 11
2047.913523663995
 21
4720.6897462314628
  0
LINE
  8
ADD_LINE
  6
DOT
 62
    4
 10
2154.7336662553171
 20
4720.6897462314628
 11
2154.7336662553171
 21
4814.5916742825611
  0
LINE
  8
ADD_LINE
  6
DOT
 62
    4
 10
2154.7336662553171
 20
4720.6897462314628
 11
2154.7336662553171
 21
4624.0882497154153
  0
LINE
  8
ADD_LINE
  6
DOT
 62
    4
 10
2156.5462866760304
 20
4527.8089198484395
 11
2156.5462866760304
 21
4255.2633579290978
  0
CIRCLE
  8
_0-0_
  6
CONTINUOUS
 62
    7
 10
2154.7336662553171
 20
4720.6897462314628
 40
90.000003092997787
  0
CIRCLE
  8
ADD_LINE
  6
DOT
 62
    4
 10
2154.7336662553171
 20
4720.6897462314628
 40
3.3434890411995561
  0
LINE
  8
_1-0_
  6
CONTINUOUS
 62
    7
 10
1913.0458632446339
 20
4312.2685425728932
 11
2413.0458632446339
 21
4312.2685425728932
  0
LINE
  8
_1-0_
  6
CONTINUOUS
 62
    7
 10
2413.0458632446339
 20
4312.2685425728932
 11
2413.0458632446339
 21
4432.2685425728932
  0
LINE
  8
_1-0_
  6
CONTINUOUS
 62
    7
 10
2413.0458632446339
 20
4432.2685425728932
 11
1913.0458632446339
 21
4432.2685425728932
  0
LINE
  8
_1-0_
  6
CONTINUOUS
 62
    7
 10
1913.0458632446339
 20
4432.2685425728932
 11
1913.0458632446339
 21
4312.2685425728932
  0
TEXT
  8
_0-0_
 62
    7
 10
2056.1950554849527
 20
4340.3145675842106
 40
60
 41
1
 50
0
  1
丸用止
  0
LINE
  8
_0-3_
  6
CONTINUOUS
 62
    7
 10
5190.920753809869
 20
3218.7753980096436
 11
5203.602597985172
 21
3312.9490371890543
  0
LINE
  8
_0-3_
  6
CONTINUOUS
 62
    7
 10
5312.4186878961082
 20
3324.9101284689377
 11
5330.9207809373602
 21
3213.2628355382767
  0
TEXT
  8
_1-0_
 62
    7
 10
6266.1742419958946
 20
229.50758853436582
 40
60
 41
1
 50
0
  1
〒475－0807　半田市八軒町２８番地
  0
ENDSEC
  0
EOF
