  0
SECTION
  2
HEADER
  9
$ACADVER
  1
AC1009
  9
$INSBASE
 10
0
 20
0
 30
0
  9
$EXTMIN
 10
0
 20
0
  9
$EXTMAX
 10
8400
 20
5940
  9
$LIMMIN
 10
0
 20
0
  9
$LIMMAX
 10
8400
 20
5940
  9
$LTSCALE
 40
20
  0
ENDSEC
  0
SECTION
  2
TABLES
  0
TABLE
  2
LTYPE
 70
     9
  0
LTYPE
  2
CONTINUOUS
 70
    64
  3
実線
 72
    65
 73
     0
 40
0.0
  0
LTYPE
  2
DASHED1
 70
    64
  3
--  --  --  --  --  --  --  --  
 72
    65
 73
     2
 40
2.5
 49
1.25
 49
-1.25
  0
LTYPE
  2
DASHED2
 70
    64
  3
----    ----    ----    ----    
 72
    65
 73
     2
 40
5.0
 49
2.5
 49
-2.5
  0
LTYPE
  2
DASHED3
 70
    64
  3
------  ------  ------  ------  
 72
    65
 73
     2
 40
5.0
 49
3.75
 49
-1.25
  0
LTYPE
  2
CENTER1
 70
    64
  3
----- - ----- - ----- - ----- - 
 72
    65
 73
     4
 40
10.0
 49
6.25
 49
-1.25
 49
1.25
 49
-1.25
  0
LTYPE
  2
CENTER2
 70
    64
  3
----------  --  ----------  --  
 72
    65
 73
     4
 40
20.0
 49
12.5
 49
-2.5
 49
2.5
 49
-2.5
  0
LTYPE
  2
PHANTOM1
 70
    64
  3
--- - - --- - - --- - - --- - - 
 72
    65
 73
     6
 40
10.0
 49
3.25
 49
-1.25
 49
1.25
 49
-1.25
 49
1.25
 49
-1.25
  0
LTYPE
  2
PHANTOM2
 70
    64
  3
--------  -  -  --------  -  -  
 72
    65
 73
     6
 40
20.0
 49
10.0
 49
-2.5
 49
1.25
 49
-2.5
 49
1.25
 49
-2.5
  0
LTYPE
  2
DOT
 70
    64
  3
-   -   -   -   -   -   -   -   
 72
    65
 73
     2
 40
2.5
 49
0.625
 49
-1.875
  0
LTYPE
  2
DUMMY
 70
    64
  3
ダミー
 72
    65
 73
     0
 40
0.0
  0
LTYPE
  2
RAND1
 70
    64
  3
ランダム線1
 72
    65
 73
     4
 40
10.0
 49
1.0
 49
-2.0
 49
3.0
 49
-4.0
  0
LTYPE
  2
RAND2
 70
    64
  3
ランダム線2
 72
    65
 73
     4
 40
14.0
 49
2.0
 49
-3.0
 49
4.0
 49
-5.0
  0
LTYPE
  2
RAND3
 70
    64
  3
ランダム線3
 72
    65
 73
     4
 40
18.0
 49
3.0
 49
-4.0
 49
5.0
 49
-6.0
  0
LTYPE
  2
RAND4
 70
    64
  3
ランダム線4
 72
    65
 73
     4
 40
22.0
 49
4.0
 49
-5.0
 49
6.0
 49
-7.0
  0
LTYPE
  2
RAND5
 70
    64
  3
ランダム線5
 72
    65
 73
     4
 40
26.0
 49
5.0
 49
-6.0
 49
7.0
 49
-8.0
  0
LTYPE
  2
LONG1
 70
    64
  3
----------  --  ----------  --  
 72
    65
 73
     4
 40
40.0
 49
32.5
 49
-2.5
 49
2.5
 49
-2.5
  0
LTYPE
  2
LONG2
 70
    64
  3
--------  -  -  --------  -  -  
 72
    65
 73
     6
 40
40.0
 49
30.0
 49
-2.5
 49
1.25
 49
-2.5
 49
1.25
 49
-2.5
  0
LTYPE
  2
LONG3
 70
    64
  3
+++++++++++++++..+++++++++++++++
 72
    65
 73
     2
 40
40.0
 49
37.5
 49
-2.5
  0
LTYPE
  2
LONG4
 70
    64
  3
+++++++++++++++..+++++++++++++++
 72
    65
 73
     2
 40
80.0
 49
75.0
 49
-5.0
  0
LTYPE
  2
LONG5
 70
    64
  3
----------  --  ----------  --  
 72
    65
 73
     4
 40
60.0
 49
37.5
 49
-7.5
 49
7.5
 49
-7.5
  0
LTYPE
  2
dashed
 70
   64
  3
-------   -------------   ------
 72
   65
 73
    2
 40
7.5
 49
6
 49
-1.5
  0
LTYPE
  2
dashed_spaced
 70
   64
  3
----        --------        ----
 72
   65
 73
    2
 40
12
 49
6
 49
-6
  0
LTYPE
  2
long_dashed_dotted
 70
   64
  3
------------- --- --------------
 72
   65
 73
    4
 40
15.25
 49
12
 49
-1.5
 49
0.25
 49
-1.5
  0
LTYPE
  2
long_dashed_double-dotted
 70
   64
  3
----------- --- --- ------------
 72
   65
 73
    6
 40
17
 49
12
 49
-1.5
 49
0.25
 49
-1.5
 49
0.25
 49
-1.5
  0
LTYPE
  2
long_dashed_triplicate-dotted
 70
   64
  3
--------- --- --- --- ----------
 72
   65
 73
    8
 40
18.75
 49
12
 49
-1.5
 49
0.25
 49
-1.5
 49
0.25
 49
-1.5
 49
0.25
 49
-1.5
  0
LTYPE
  2
dotted
 70
   64
  3
   -       -       -       -    
 72
   65
 73
    2
 40
1.75
 49
0.25
 49
-1.5
  0
LTYPE
  2
chain
 70
   64
  3
-------------- -- --------------
 72
   65
 73
    4
 40
18.5
 49
12
 49
-1.5
 49
3.5
 49
-1.5
  0
LTYPE
  2
chain_double_dash
 70
   64
  3
------------ -- -- -------------
 72
   65
 73
    6
 40
23.5
 49
12
 49
-1.5
 49
3.5
 49
-1.5
 49
3.5
 49
-1.5
  0
LTYPE
  2
dashed_dotted
 70
   64
  3
-----------     -     ----------
 72
   65
 73
    4
 40
9.25
 49
6
 49
-1.5
 49
0.25
 49
-1.5
  0
LTYPE
  2
double-dashed_dotted
 70
   64
  3
------   -----------   -   -----
 72
   65
 73
    6
 40
16.75
 49
6
 49
-1.5
 49
6
 49
-1.5
 49
0.25
 49
-1.5
  0
LTYPE
  2
dashed_double-dotted
 70
   64
  3
---------    -    -    ---------
 72
   65
 73
    6
 40
11
 49
6
 49
-1.5
 49
0.25
 49
-1.5
 49
0.25
 49
-1.5
  0
LTYPE
  2
double-dashed_double-dotted
 70
   64
  3
-----   ---------   -   -   ----
 72
   65
 73
    8
 40
18.5
 49
6
 49
-1.5
 49
6
 49
-1.5
 49
0.25
 49
-1.5
 49
0.25
 49
-1.5
  0
LTYPE
  2
dashed_triplicate-dotted
 70
   64
  3
-------    -    -    -    ------
 72
   65
 73
    8
 40
12.75
 49
6
 49
-1.5
 49
0.25
 49
-1.5
 49
0.25
 49
-1.5
 49
0.25
 49
-1.5
  0
LTYPE
  2
double-dashed_triplicate-dotted
 70
   64
  3
-----  ---------  -  -  -  -----
 72
   65
 73
   10
 40
20.25
 49
6
 49
-1.5
 49
6
 49
-1.5
 49
0.25
 49
-1.5
 49
0.25
 49
-1.5
 49
0.25
 49
-1.5
  0
LTYPE
  2
undefined
 70
   64
  3
--------------------------------
 72
   65
 73
    0
 40
0
  0
ENDTAB
  0
TABLE
  2
STYLE
  5
3
100
AcDbSymbolTable
 70
     1
  0
STYLE
  5
10
100
AcDbSymbolTableRecord
100
AcDbTextStyleTableRecord
  2
STANDARD
 70
     0
 40
0.0
 41
1.0
 50
0.0
 71
     0
 42
0.2
  3
txt
  4
bigfont.shx
  0
STYLE
  5
26
100
AcDbSymbolTableRecord
100
AcDbTextStyleTableRecord
  2
TATEGAKI
 70
    68
 40
0.0
 41
1.0
 50
0.0
 71
     0
 42
1.0
  3
txt
  4
bigfont.shx
  0
ENDTAB
  0
TABLE
  2
LAYER
 70
    6
  0
LAYER
  2
_0-0_
 70
   64
 62
    7
  6
CONTINUOUS
  0
LAYER
  2
_0-1_
 70
   64
 62
    7
  6
CONTINUOUS
  0
LAYER
  2
_0-2_
 70
   64
 62
    7
  6
CONTINUOUS
  0
LAYER
  2
_0-3_
 70
   64
 62
    7
  6
CONTINUOUS
  0
LAYER
  2
_1-0_
 70
   64
 62
    7
  6
CONTINUOUS
  0
LAYER
  2
ADD_LINE
 70
   64
 62
    7
  6
CONTINUOUS
  0
ENDTAB
  0
ENDSEC
  0
SECTION
  2
BLOCKS
  0
ENDSEC
  0
SECTION
  2
ENTITIES
  0
LINE
  8
_1-0_
  6
CONTINUOUS
 62
    5
 10
202.66222961730421
 20
5833.7167718922228
 11
8305.6627178985545
 21
5833.7167718922228
  0
LINE
  8
_1-0_
  6
CONTINUOUS
 62
    5
 10
202.66222961730421
 20
139.71713810316089
 11
8305.6627178985545
 21
139.71713810316089
  0
LINE
  8
_1-0_
  6
CONTINUOUS
 62
    7
 10
8305.6627178985545
 20
475.51715641370777
 11
8305.6627178985545
 21
183.51669102064136
  0
LINE
  8
_1-0_
  6
CONTINUOUS
 62
    7
 10
4319.8619366485545
 20
475.51715641370777
 11
4319.8619366485545
 21
183.51669102064136
  0
LINE
  8
_1-0_
  6
CONTINUOUS
 62
    7
 10
202.66222961730421
 20
475.51715641370777
 11
8305.6627178985545
 21
475.51715641370777
  0
LINE
  8
_1-0_
  6
CONTINUOUS
 62
    7
 10
202.66222961730421
 20
258.6032178913689
 11
202.66222961730421
 21
183.51669102064136
  0
LINE
  8
_1-0_
  6
CONTINUOUS
 62
    7
 10
202.66222961730421
 20
475.51715641370777
 11
202.66222961730421
 21
359.05530720106128
  0
LINE
  8
_1-0_
  6
CONTINUOUS
 62
    7
 10
202.66222961730421
 20
359.05530720106128
 11
202.66222961730421
 21
351.91261082044605
  0
LINE
  8
_1-0_
  6
CONTINUOUS
 62
    7
 10
202.66222961730421
 20
359.05530720106128
 11
202.66222961730421
 21
258.6032178913689
  0
LINE
  8
_1-0_
  6
CONTINUOUS
 62
    7
 10
202.66222961730421
 20
183.51669102064136
 11
8305.6627178985545
 21
183.51669102064136
  0
LINE
  8
_1-0_
  6
CONTINUOUS
 62
    7
 10
8206.5428448516795
 20
392.60440616956714
 11
8050.8867169219911
 21
236.94738178602222
  0
LINE
  8
_1-0_
  6
CONTINUOUS
 62
    7
 10
8305.6627178985545
 20
183.51669102064136
 11
8305.6627178985545
 21
475.51715641370777
  0
LINE
  8
_1-0_
  6
CONTINUOUS
 62
    7
 10
5852.8618145782411
 20
475.51715641370777
 11
5852.8618145782411
 21
342.31307773939136
  0
LINE
  8
_1-0_
  6
CONTINUOUS
 62
    7
 10
5852.8618145782411
 20
342.31307773939136
 11
5852.8618145782411
 21
183.51669102064136
  0
LINE
  8
_1-0_
  6
CONTINUOUS
 62
    7
 10
4319.8619366485545
 20
329.51713352552417
 11
5828.0021954376161
 21
329.51713352552417
  0
LINE
  8
_1-0_
  6
CONTINUOUS
 62
    7
 10
6188.6613751251161
 20
475.51715641370777
 11
6188.6613751251161
 21
359.05530720106128
  0
LINE
  8
_1-0_
  6
CONTINUOUS
 62
    7
 10
6188.6613751251161
 20
359.05530720106128
 11
6188.6613751251161
 21
183.51669102064136
  0
LINE
  8
_1-0_
  6
CONTINUOUS
 62
    7
 10
4319.8619366485545
 20
329.51713352552417
 11
5852.8618145782411
 21
329.51713352552417
  0
LINE
  8
_1-0_
  6
CONTINUOUS
 62
    7
 10
7940.6621075469911
 20
475.51715641370777
 11
7940.6621075469911
 21
183.51669102064136
  0
LINE
  8
ADD_LINE
  6
DOT
 62
    7
 10
424.22907837218702
 20
418.66100101819995
 11
164.45975788421094
 21
418.66100101819995
  0
LINE
  8
ADD_LINE
  6
DOT
 62
    7
 10
424.22907837218702
 20
418.66100101819995
 11
1029.0655041534369
 21
418.66100101819995
  0
LINE
  8
ADD_LINE
  6
DOT
 62
    7
 10
1029.0655041534369
 20
418.66100101819995
 11
2594.4336224395697
 21
418.66100101819995
  0
LINE
  8
ADD_LINE
  6
DOT
 62
    7
 10
2567.8619671661322
 20
418.66100101819995
 11
4155.121336062617
 21
418.66100101819995
  0
LINE
  8
ADD_LINE
  6
DOT
 62
    7
 10
4155.121336062617
 20
418.66100101819995
 11
6628.0675030548036
 21
418.66100101819995
  0
LINE
  8
_1-0_
  6
CONTINUOUS
 62
    7
 10
5312.6616192657411
 20
329.51713352552417
 11
5312.6616192657411
 21
183.51669102064136
  0
LINE
  8
ADD_LINE
  6
DOT
 62
    7
 10
4343.2783795196483
 20
273.60243587842945
 11
5512.1721173126161
 21
273.60243587842945
  0
LINE
  8
ADD_LINE
  6
DOT
 62
    7
 10
6628.0675030548036
 20
418.66100101819995
 11
8128.1322003204286
 21
418.66100101819995
  0
TEXT
  8
_1-0_
 62
    4
 10
238.19573887175977
 20
413.85005741468433
 40
40
 41
1
 50
0
  1
特記
  0
TEXT
  8
_1-0_
 62
    4
 10
4319.8384381133983
 20
413.57558994642261
 40
40
 41
1
 50
0
  1
図面名
  0
TEXT
  8
_1-0_
 62
    4
 10
4326.403074343867
 20
266.85244350782398
 40
40
 41
1
 50
0
  1
SCALE
  0
TEXT
  8
_1-0_
 62
    4
 10
5329.7380352813661
 20
265.16199856153492
 40
40
 41
1
 50
0
  1
DATE
  0
TEXT
  8
_1-0_
 62
    4
 10
5874.6837139923036
 20
414.97464924207691
 40
40
 41
1
 50
0
  1
担当
  0
TEXT
  8
_1-0_
 62
    4
 10
7960.6999493438661
 20
409.36466007581714
 40
50
 41
1
 50
0
  1
NO
  0
TEXT
  8
_1-0_
 62
    7
 10
8057.6869942220537
 20
313.0654953889939
 40
60
 41
1
 50
0
  1
5
  0
LINE
  8
_1-0_
  6
CONTINUOUS
 62
    4
 10
413.49383362121046
 20
258.14206867567066
 11
4319.8619366485545
 21
258.14206867567066
  0
LINE
  8
_1-0_
  6
CONTINUOUS
 62
    4
 10
413.49383362121046
 20
331.14162235609058
 11
4319.8619366485545
 21
331.14162235609058
  0
LINE
  8
_1-0_
  6
CONTINUOUS
 62
    4
 10
413.49383362121046
 20
404.14163380018238
 11
4319.8619366485545
 21
404.14163380018238
  0
TEXT
  8
_1-0_
 62
    7
 10
4502.3014886448263
 20
358.23978892638706
 40
60
 41
1
 50
0
  1
平板　（フルフラット）
  0
TEXT
  8
_1-0_
 62
    7
 10
4508.0224030387508
 20
212.35647188130713
 40
60
 41
1
 50
0
  1
1/20
  0
LINE
  8
ADD_LINE
  6
DOT
 62
    4
 10
6276.1105674815371
 20
358.14967487271872
 11
6951.2827855980886
 21
358.14967487271872
  0
TEXT
  8
_1-0_
 62
    7
 10
6263.9458814331829
 20
353.48311446770879
 40
60
 41
1
 50
0
  1
株式会社
  0
TEXT
  8
_1-0_
 62
    3
 10
6618.8662223062829
 20
351.71441461551296
 40
100
 41
1
 50
0
  1
神　清
  0
LINE
  8
_0-0_
  6
CONTINUOUS
 62
    7
 10
3527.5393267089526
 20
2853.4307359077952
 11
3518.9046666582763
 21
2828.9064802067815
  0
LINE
  8
ADD_LINE
  6
DOT
 62
    4
 10
3779.8472804146109
 20
4126.0801887395364
 11
3779.8472804146109
 21
5248.2029950083197
  0
LINE
  8
_0-0_
  6
CONTINUOUS
 62
    7
 10
3527.5393267089526
 20
2853.4307359077952
 11
3563.7382881215362
 21
2956.2444566109202
  0
LINE
  8
_0-0_
  6
CONTINUOUS
 62
    7
 10
3546.8663563753375
 20
2968.5459273932256
 11
3563.7382881215362
 21
2956.2444566109202
  0
LINE
  8
_0-0_
  6
CONTINUOUS
 62
    7
 10
3235.134244624915
 20
2956.3825280319502
 11
3518.9046666582763
 21
2828.9064802067815
  0
LINE
  8
_0-0_
  6
CONTINUOUS
 62
    7
 10
3488.6967182313347
 20
2842.4765749597377
 11
3534.6037336451855
 21
2972.863257418564
  0
LINE
  8
_0-0_
  6
CONTINUOUS
 62
    7
 10
3546.1601631215362
 20
2967.2043086748981
 11
3563.218664494003
 21
2954.7669934299661
  0
LINE
  8
_0-0_
  6
CONTINUOUS
 62
    7
 10
3308.4575923867396
 20
3074.3046768653544
 11
3262.5956110206071
 21
2944.0464156744756
  0
LINE
  8
_0-0_
  6
CONTINUOUS
 62
    7
 10
3306.4963843525329
 20
3080.1378232441548
 11
3292.5501810691721
 21
3089.3450590444081
  0
LINE
  8
_0-0_
  6
CONTINUOUS
 62
    7
 10
3308.4575923867396
 20
3074.3046768653544
 11
3262.5956110206071
 21
2944.0464156744756
  0
LINE
  8
_0-0_
  6
CONTINUOUS
 62
    4
 10
3305.4526831806579
 20
3080.826448270549
 11
3258.0204487000847
 21
2946.1083317164948
  0
LINE
  8
_0-0_
  6
CONTINUOUS
 62
    4
 10
3277.4583314070096
 20
3094.6588292354977
 11
3229.6569167110638
 21
2958.8942896715198
  0
LINE
  8
_0-0_
  6
CONTINUOUS
 62
    7
 10
3301.6233044855571
 20
3054.8925278999827
 11
3546.8663563753375
 21
2968.5459273932256
  0
LINE
  8
_0-0_
  6
CONTINUOUS
 62
    7
 10
3301.1249606827696
 20
3053.4776669941548
 11
3546.1601631215362
 21
2967.2043086748981
  0
LINE
  8
_0-0_
  6
CONTINUOUS
 62
    7
 10
3006.4078008960305
 20
3059.5300450558102
 11
3262.5956110206071
 21
2944.0464156744756
  0
LINE
  8
_0-0_
  6
CONTINUOUS
 62
    7
 10
3047.3066342997463
 20
3175.6916595511648
 11
3292.5501810691721
 21
3089.3450590444081
  0
LINE
  8
_0-0_
  6
CONTINUOUS
 62
    7
 10
3052.2697822621612
 20
3189.788306246689
 11
3006.4078008960305
 21
3059.5300450558102
  0
LINE
  8
_0-0_
  6
CONTINUOUS
 62
    7
 10
3050.3085742279554
 20
3195.6217000653119
 11
3036.3618760649488
 21
3204.8291833053877
  0
LINE
  8
_0-0_
  6
CONTINUOUS
 62
    7
 10
3052.2697822621612
 20
3189.788306246689
 11
3006.4078008960305
 21
3059.5300450558102
  0
LINE
  8
_0-0_
  6
CONTINUOUS
 62
    4
 10
3049.2648730560804
 20
3196.3103250917056
 11
3001.8326385755063
 21
3061.5922085376515
  0
LINE
  8
_0-0_
  6
CONTINUOUS
 62
    4
 10
3021.2700264027862
 20
3210.1427060566548
 11
2973.4696014661313
 21
3074.3781664926769
  0
LINE
  8
_0-0_
  6
CONTINUOUS
 62
    7
 10
2750.2199907714521
 20
3175.0139218769673
 11
3006.4078008960305
 21
3059.5300450558102
  0
LINE
  8
_0-0_
  6
CONTINUOUS
 62
    7
 10
2791.1188241751688
 20
3291.1757838121448
 11
2750.2199907714521
 21
3175.0139218769673
  0
LINE
  8
_0-0_
  6
CONTINUOUS
 62
    7
 10
2791.1188241751688
 20
3291.1757838121448
 11
3036.3618760649488
 21
3204.8291833053877
  0
LINE
  8
_0-0_
  6
CONTINUOUS
 62
    7
 10
2796.0822195774067
 20
3305.2721830678456
 11
2750.2199907714521
 21
3175.0139218769673
  0
LINE
  8
_0-0_
  6
CONTINUOUS
 62
    7
 10
2794.120764103378
 20
3311.105576886469
 11
2780.1743133801938
 21
3320.3128126867227
  0
LINE
  8
_0-0_
  6
CONTINUOUS
 62
    7
 10
2796.0822195774067
 20
3305.2721830678456
 11
2750.2199907714521
 21
3175.0139218769673
  0
LINE
  8
_0-0_
  6
CONTINUOUS
 62
    4
 10
2793.077062931503
 20
3311.7939544730398
 11
2745.6448284509288
 21
3177.0760853588085
  0
LINE
  8
_0-0_
  6
CONTINUOUS
 62
    4
 10
2765.0822162782088
 20
3325.6265828778119
 11
2717.2815439017313
 21
3189.862043313834
  0
LINE
  8
_0-0_
  6
CONTINUOUS
 62
    7
 10
2494.0321806468737
 20
3290.4977986981244
 11
2750.2199907714521
 21
3175.0139218769673
  0
LINE
  8
_0-0_
  6
CONTINUOUS
 62
    7
 10
2534.9310140505904
 20
3406.6594131934794
 11
2494.0321806468737
 21
3290.4977986981244
  0
LINE
  8
_0-0_
  6
CONTINUOUS
 62
    7
 10
2534.9310140505904
 20
3406.6594131934794
 11
2780.1743133801938
 21
3320.3128126867227
  0
LINE
  8
_0-0_
  6
CONTINUOUS
 62
    7
 10
2539.8944094528288
 20
3420.7560598890032
 11
2494.0321806468737
 21
3290.4977986981244
  0
LINE
  8
_0-0_
  6
CONTINUOUS
 62
    7
 10
2537.9329539788005
 20
3426.5894537076265
 11
2523.9865032556163
 21
3435.7966895078794
  0
LINE
  8
_0-0_
  6
CONTINUOUS
 62
    7
 10
2539.8944094528288
 20
3420.7560598890032
 11
2494.0321806468737
 21
3290.4977986981244
  0
LINE
  8
_0-0_
  6
CONTINUOUS
 62
    4
 10
2536.889500246748
 20
3427.2778312941973
 11
2489.4570183263513
 21
3292.5599621799661
  0
LINE
  8
_0-0_
  6
CONTINUOUS
 62
    4
 10
2508.8944061536313
 20
3441.110459698969
 11
2461.0937337771529
 21
3305.3456726951686
  0
LINE
  8
_0-0_
  6
CONTINUOUS
 62
    7
 10
2237.8443705222971
 20
3405.9816755192815
 11
2494.0321806468737
 21
3290.4977986981244
  0
LINE
  8
_0-0_
  6
CONTINUOUS
 62
    7
 10
2278.7432039260129
 20
3522.1432900146365
 11
2237.8443705222971
 21
3405.9816755192815
  0
LINE
  8
_0-0_
  6
CONTINUOUS
 62
    7
 10
2278.7432039260129
 20
3522.1432900146365
 11
2523.9865032556163
 21
3435.7966895078794
  0
LINE
  8
_0-0_
  6
CONTINUOUS
 62
    7
 10
2283.7063518884279
 20
3536.2399367101602
 11
2237.8443705222971
 21
3405.9816755192815
  0
LINE
  8
_0-0_
  6
CONTINUOUS
 62
    7
 10
2281.7451438542221
 20
3542.0733305287831
 11
2267.7984456912154
 21
3551.2805663290369
  0
LINE
  8
_0-0_
  6
CONTINUOUS
 62
    7
 10
2283.7063518884279
 20
3536.2399367101602
 11
2237.8443705222971
 21
3405.9816755192815
  0
LINE
  8
_0-0_
  6
CONTINUOUS
 62
    4
 10
2280.7014426823471
 20
3542.7617081153544
 11
2233.2692082017729
 21
3408.0438390011227
  0
LINE
  8
_0-0_
  6
CONTINUOUS
 62
    4
 10
2252.7065960290529
 20
3556.5940890803035
 11
2204.9061710923979
 21
3420.8295495163252
  0
LINE
  8
_0-0_
  6
CONTINUOUS
 62
    7
 10
1981.6565603977192
 20
3521.465552340439
 11
2237.8443705222971
 21
3405.9816755192815
  0
LINE
  8
_0-0_
  6
CONTINUOUS
 62
    7
 10
2022.5553938014355
 20
3637.6271668357936
 11
1981.6565603977192
 21
3521.465552340439
  0
LINE
  8
_0-0_
  6
CONTINUOUS
 62
    7
 10
2022.5553938014355
 20
3637.6271668357936
 11
2267.7984456912154
 21
3551.2805663290369
  0
LINE
  8
_0-0_
  6
CONTINUOUS
 62
    7
 10
2027.5185417638511
 20
3651.7238135313169
 11
1981.6565603977192
 21
3521.465552340439
  0
LINE
  8
_0-0_
  6
CONTINUOUS
 62
    7
 10
2025.5573337296448
 20
3657.5569599101173
 11
2011.6106355666379
 21
3666.7644431501935
  0
LINE
  8
_0-0_
  6
CONTINUOUS
 62
    7
 10
2027.5185417638511
 20
3651.7238135313169
 11
1981.6565603977192
 21
3521.465552340439
  0
LINE
  8
_0-0_
  6
CONTINUOUS
 62
    4
 10
2024.5136325577698
 20
3658.2455849365115
 11
1977.0813980771954
 21
3523.5277158222798
  0
LINE
  8
_0-0_
  6
CONTINUOUS
 62
    4
 10
1996.5187859044761
 20
3672.0779659014606
 11
1948.718113527998
 21
3536.3134263374827
  0
LINE
  8
_0-0_
  6
CONTINUOUS
 62
    7
 10
1725.4687502731413
 20
3636.9494291615956
 11
1981.6565603977192
 21
3521.465552340439
  0
LINE
  8
_0-0_
  6
CONTINUOUS
 62
    7
 10
1766.3675836768573
 20
3753.1110436569502
 11
1725.4687502731413
 21
3636.9494291615956
  0
LINE
  8
_0-0_
  6
CONTINUOUS
 62
    7
 10
1766.3675836768573
 20
3753.1110436569502
 11
2011.6106355666379
 21
3666.7644431501935
  0
LINE
  8
_0-0_
  6
CONTINUOUS
 62
    7
 10
1771.3307316392729
 20
3767.2076903524744
 11
1725.4687502731413
 21
3636.9494291615956
  0
LINE
  8
_0-0_
  6
CONTINUOUS
 62
    7
 10
1769.3695236050671
 20
3773.0408367312748
 11
1755.4228254420605
 21
3782.2483199713506
  0
LINE
  8
_0-0_
  6
CONTINUOUS
 62
    7
 10
1771.3307316392729
 20
3767.2076903524744
 11
1725.4687502731413
 21
3636.9494291615956
  0
LINE
  8
_0-0_
  6
CONTINUOUS
 62
    7
 10
1469.2809401485636
 20
3752.4330585429298
 11
1725.4687502731413
 21
3636.9494291615956
  0
LINE
  8
_0-0_
  6
CONTINUOUS
 62
    7
 10
1510.1797735522803
 20
3868.5949204781077
 11
1469.2809401485636
 21
3752.4330585429298
  0
LINE
  8
_0-0_
  6
CONTINUOUS
 62
    7
 10
1510.1797735522803
 20
3868.5949204781077
 11
1755.4228254420605
 21
3782.2483199713506
  0
LINE
  8
_0-0_
  6
CONTINUOUS
 62
    7
 10
1515.1431689545177
 20
3882.691567173631
 11
1469.2809401485636
 21
3752.4330585429298
  0
LINE
  8
_0-0_
  6
CONTINUOUS
 62
    7
 10
1513.1814660406662
 20
3888.5247135524323
 11
1499.2352627573052
 21
3897.7319493526852
  0
LINE
  8
_0-0_
  6
CONTINUOUS
 62
    7
 10
1515.1431689545177
 20
3882.691567173631
 11
1469.2809401485636
 21
3752.4330585429298
  0
LINE
  8
_0-0_
  6
CONTINUOUS
 62
    4
 10
1512.1377648687912
 20
3889.2133385788252
 11
1464.7057778280396
 21
3754.495222024771
  0
LINE
  8
_0-0_
  6
CONTINUOUS
 62
    4
 10
1484.1431656553204
 20
3903.0457195437748
 11
1436.3422458390198
 21
3767.2811799797964
  0
LINE
  8
_0-0_
  6
CONTINUOUS
 62
    7
 10
1213.0928825841629
 20
3867.9169353640873
 11
1469.2809401485636
 21
3752.4330585429298
  0
LINE
  8
_0-0_
  6
CONTINUOUS
 62
    7
 10
1253.9919634277021
 20
3984.0785498594419
 11
1213.0928825841629
 21
3867.9169353640873
  0
LINE
  8
_0-0_
  6
CONTINUOUS
 62
    7
 10
1253.9919634277021
 20
3984.0785498594419
 11
1499.2352627573052
 21
3897.7319493526852
  0
LINE
  8
_0-0_
  6
CONTINUOUS
 62
    7
 10
1258.9553588299395
 20
3998.1751965549656
 11
1213.0928825841629
 21
3867.9169353640873
  0
LINE
  8
_0-0_
  6
CONTINUOUS
 62
    7
 10
1256.9939033559122
 20
4004.008590373589
 11
1243.0472051929046
 21
4013.2160736136648
  0
LINE
  8
_0-0_
  6
CONTINUOUS
 62
    7
 10
1258.9553588299395
 20
3998.1751965549656
 11
1213.0928825841629
 21
3867.9169353640873
  0
LINE
  8
_0-0_
  6
CONTINUOUS
 62
    4
 10
1255.9502021840372
 20
4004.6972153999827
 11
1208.5179677034621
 21
3869.9790988459285
  0
LINE
  8
_0-0_
  6
CONTINUOUS
 62
    4
 10
1227.9553555307421
 20
4018.5295963649323
 11
1180.1544357144421
 21
3882.765056800954
  0
LINE
  8
_0-0_
  6
CONTINUOUS
 62
    7
 10
956.9053198994078
 20
3983.4008121852448
 11
1213.0928825841629
 21
3867.9169353640873
  0
LINE
  8
_0-0_
  6
CONTINUOUS
 62
    7
 10
997.80415330312451
 20
4099.5626741204214
 11
956.9053198994078
 21
3983.4008121852448
  0
LINE
  8
_0-0_
  6
CONTINUOUS
 62
    7
 10
997.80415330312451
 20
4099.5626741204214
 11
1243.0472051929046
 21
4013.2160736136648
  0
LINE
  8
_0-0_
  6
CONTINUOUS
 62
    7
 10
1002.7673012655396
 20
4113.6593208159456
 11
956.9053198994078
 21
3983.4008121852448
  0
LINE
  8
_0-0_
  6
CONTINUOUS
 62
    7
 10
1000.8058457915115
 20
4119.4924671947465
 11
986.85964250814948
 21
4128.6997029949989
  0
LINE
  8
_0-0_
  6
CONTINUOUS
 62
    7
 10
1002.7673012655396
 20
4113.6593208159456
 11
956.9053198994078
 21
3983.4008121852448
  0
LINE
  8
_0-0_
  6
CONTINUOUS
 62
    4
 10
999.76239205945888
 20
4120.1808447813173
 11
952.32991013906201
 21
3985.4629756670856
  0
LINE
  8
_0-0_
  6
CONTINUOUS
 62
    4
 10
971.76779284598808
 20
4134.0132257462665
 11
923.96687302968701
 21
3998.2489336221106
  0
LINE
  8
_0-0_
  6
CONTINUOUS
 62
    7
 10
700.71726233500783
 20
4098.8846890064015
 11
956.9053198994078
 21
3983.4008121852448
  0
LINE
  8
_0-0_
  6
CONTINUOUS
 62
    7
 10
741.61609573872454
 20
4215.0463035017565
 11
700.71726233500783
 21
4098.8846890064015
  0
LINE
  8
_0-0_
  6
CONTINUOUS
 62
    7
 10
741.61609573872454
 20
4215.0463035017565
 11
986.85964250814948
 21
4128.6997029949989
  0
LINE
  8
_0-0_
  6
CONTINUOUS
 62
    7
 10
746.57949114096198
 20
4229.1429501972798
 11
700.71726233500783
 21
4098.8846890064015
  0
LINE
  8
_0-0_
  6
CONTINUOUS
 62
    7
 10
744.61828310675628
 20
4234.9760965760806
 11
730.67133750392713
 21
4244.1838272559789
  0
LINE
  8
_0-0_
  6
CONTINUOUS
 62
    7
 10
746.57949114096198
 20
4229.1429501972798
 11
700.71726233500783
 21
4098.8846890064015
  0
LINE
  8
_0-0_
  6
CONTINUOUS
 62
    4
 10
743.57458193488128
 20
4235.6647216024739
 11
696.14210001448441
 21
4100.9468524882423
  0
LINE
  8
_0-0_
  6
CONTINUOUS
 62
    4
 10
715.5794878417646
 20
4249.4973500072465
 11
667.77906290510941
 21
4113.7325630034456
  0
LINE
  8
_0-0_
  6
CONTINUOUS
 62
    7
 10
444.52969965025318
 20
4214.368565827559
 11
700.71726233500783
 21
4098.8846890064015
  0
LINE
  8
_0-0_
  6
CONTINUOUS
 62
    7
 10
485.42828561414638
 20
4330.5304277627356
 11
730.67133750392713
 21
4244.1838272559789
  0
LINE
  8
_0-0_
  6
CONTINUOUS
 62
    7
 10
3779.8472804146109
 20
2817.2441464863423
 11
3780.0600786620776
 21
2817.0763822865956
  0
LINE
  8
_0-0_
  6
CONTINUOUS
 62
    7
 10
3780.0600786620776
 20
2817.0763822865956
 11
3780.2788154652862
 21
2816.9185156797544
  0
LINE
  8
_0-0_
  6
CONTINUOUS
 62
    7
 10
3780.2788154652862
 20
2816.9185156797544
 11
3780.5069549817563
 21
2816.7700517861731
  0
LINE
  8
_0-0_
  6
CONTINUOUS
 62
    7
 10
3780.5069549817563
 20
2816.7700517861731
 11
3780.7459818504221
 21
2816.6304957262073
  0
LINE
  8
_0-0_
  6
CONTINUOUS
 62
    7
 10
3780.7459818504221
 20
2816.6304957262073
 11
3780.9988653491555
 21
2816.4998474998561
  0
LINE
  8
_0-0_
  6
CONTINUOUS
 62
    7
 10
3780.9988653491555
 20
2816.4998474998561
 11
3781.2675849965362
 21
2816.3761275885381
  0
LINE
  8
_0-0_
  6
CONTINUOUS
 62
    7
 10
3781.2675849965362
 20
2816.3761275885381
 11
3781.553625431503
 21
2816.2598308718998
  0
LINE
  8
_0-0_
  6
CONTINUOUS
 62
    7
 10
3781.553625431503
 20
2816.2598308718998
 11
3781.8594610522805
 21
2816.1504624702952
  0
LINE
  8
_0-0_
  6
CONTINUOUS
 62
    7
 10
3781.8594610522805
 20
2816.1504624702952
 11
3782.1860816181584
 21
2816.0470326244335
  0
LINE
  8
_0-0_
  6
CONTINUOUS
 62
    7
 10
3782.1860816181584
 20
2816.0470326244335
 11
3782.5354666477192
 21
2815.9490464546702
  0
LINE
  8
_0-0_
  6
CONTINUOUS
 62
    7
 10
3782.5354666477192
 20
2815.9490464546702
 11
3782.9081110206071
 21
2815.8565039610044
  0
LINE
  8
_0-0_
  6
CONTINUOUS
 62
    7
 10
3782.9081110206071
 20
2815.8565039610044
 11
3783.3059942554055
 21
2815.7679205045015
  0
LINE
  8
_0-0_
  6
CONTINUOUS
 62
    7
 10
3783.3059942554055
 20
2815.7679205045015
 11
3783.7296112317563
 21
2815.6842858444502
  0
LINE
  8
_0-0_
  6
CONTINUOUS
 62
    7
 10
3783.7296112317563
 20
2815.6842858444502
 11
3784.1799517089526
 21
2815.6041153419169
  0
LINE
  8
_0-0_
  6
CONTINUOUS
 62
    7
 10
3784.1799517089526
 20
2815.6041153419169
 11
3784.657015686993
 21
2815.5269141172544
  0
LINE
  8
_0-0_
  6
CONTINUOUS
 62
    7
 10
3784.657015686993
 20
2815.5269141172544
 11
3785.1627826844597
 21
2815.4531770501089
  0
LINE
  8
_0-0_
  6
CONTINUOUS
 62
    7
 10
3785.1627826844597
 20
2815.4531770501089
 11
3785.695768062415
 21
2815.3814195015452
  0
LINE
  8
_0-0_
  6
CONTINUOUS
 62
    7
 10
3785.695768062415
 20
2815.3814195015452
 11
3786.2574564597971
 21
2815.3121363512073
  0
LINE
  8
_0-0_
  6
CONTINUOUS
 62
    7
 10
3786.2574564597971
 20
2815.3121363512073
 11
3786.8473529969597
 21
2815.2443378398048
  0
LINE
  8
_0-0_
  6
CONTINUOUS
 62
    7
 10
3808.8472276274488
 20
2815.2443378398048
 11
3809.3881310797292
 21
2815.3423240095685
  0
LINE
  8
_0-0_
  6
CONTINUOUS
 62
    7
 10
3809.3881310797292
 20
2815.3423240095685
 11
3809.9191369391042
 21
2815.447238494366
  0
LINE
  8
_0-0_
  6
CONTINUOUS
 62
    7
 10
3809.9191369391042
 20
2815.447238494366
 11
3810.438265686993
 21
2815.5595761738423
  0
LINE
  8
_0-0_
  6
CONTINUOUS
 62
    7
 10
3810.438265686993
 20
2815.5595761738423
 11
3810.9445275641042
 21
2815.6783472887073
  0
LINE
  8
_0-0_
  6
CONTINUOUS
 62
    7
 10
3810.9445275641042
 20
2815.6783472887073
 11
3811.4349532925671
 21
2815.8040467186061
  0
LINE
  8
_0-0_
  6
CONTINUOUS
 62
    7
 10
3811.4349532925671
 20
2815.8040467186061
 11
3811.9085531130904
 21
2815.9366744635381
  0
LINE
  8
_0-0_
  6
CONTINUOUS
 62
    7
 10
3811.9085531130904
 20
2815.9366744635381
 11
3812.3628526274488
 21
2816.0757356438589
  0
LINE
  8
_0-0_
  6
CONTINUOUS
 62
    7
 10
3812.3628526274488
 20
2816.0757356438589
 11
3812.7958723170605
 21
2816.2222200188589
  0
LINE
  8
_0-0_
  6
CONTINUOUS
 62
    7
 10
3812.7958723170605
 20
2816.2222200188589
 11
3813.2066224226346
 21
2816.3756327088931
  0
LINE
  8
_0-0_
  6
CONTINUOUS
 62
    7
 10
3813.2066224226346
 20
2816.3756327088931
 11
3813.5921336663005
 21
2816.5354788343157
  0
LINE
  8
_0-0_
  6
CONTINUOUS
 62
    7
 10
3813.5921336663005
 20
2816.5354788343157
 11
3813.9509214091213
 21
2816.7027481544169
  0
LINE
  8
_0-0_
  6
CONTINUOUS
 62
    7
 10
3813.9509214091213
 20
2816.7027481544169
 11
3814.2805112528713
 21
2816.8764509099065
  0
LINE
  8
_0-0_
  6
CONTINUOUS
 62
    7
 10
3814.2805112528713
 20
2816.8764509099065
 11
3814.5804083179055
 21
2817.0570819804298
  0
LINE
  8
_0-0_
  6
CONTINUOUS
 62
    7
 10
3814.5804083179055
 20
2817.0570819804298
 11
3814.8476433263513
 21
2817.2441464863423
  0
LINE
  8
_0-0_
  6
CONTINUOUS
 62
    7
 10
3779.8472804146109
 20
2956.2444566109202
 11
3779.8472804146109
 21
2817.2441464863423
  0
LINE
  8
_0-0_
  6
CONTINUOUS
 62
    7
 10
3786.8473529969597
 20
2815.2443378398048
 11
3808.8472276274488
 21
2815.2443378398048
  0
LINE
  8
_0-0_
  6
CONTINUOUS
 62
    7
 10
3786.8473529969597
 20
2947.2445753820352
 11
3786.8473529969597
 21
2815.2443378398048
  0
LINE
  8
_0-0_
  6
CONTINUOUS
 62
    7
 10
3786.8473529969597
 20
2947.2445753820352
 11
3910.8473661937487
 21
2947.2445753820352
  0
LINE
  8
_0-0_
  6
CONTINUOUS
 62
    7
 10
3910.8473661937487
 20
2947.2445753820352
 11
3910.8473661937487
 21
2918.2441332895519
  0
LINE
  8
_0-0_
  6
CONTINUOUS
 62
    7
 10
3779.8472804146109
 20
2956.2444566109202
 11
3907.8474057841213
 21
2956.2444566109202
  0
LINE
  8
_0-0_
  6
CONTINUOUS
 62
    7
 10
3907.8474057841213
 20
2956.2444566109202
 11
3910.8473661937487
 21
2947.2445753820352
  0
LINE
  8
_0-0_
  6
CONTINUOUS
 62
    4
 10
1768.3258224331921
 20
3773.7294617576686
 11
1720.8935879526177
 21
3639.0113452036144
  0
LINE
  8
_0-0_
  6
CONTINUOUS
 62
    4
 10
1740.3309757798979
 20
3787.5618427226173
 11
1692.530055963598
 21
3651.7973031586394
  0
LINE
  8
_0-0_
  6
CONTINUOUS
 62
    7
 10
3814.8476433263513
 20
2817.2441464863423
 11
3910.8473661937487
 21
2918.2441332895519
  0
LINE
  8
_0-0_
  6
CONTINUOUS
 62
    7
 10
3910.8473661937487
 20
3054.8925278999827
 11
3910.8473661937487
 21
3038.8925740887494
  0
LINE
  8
_0-0_
  6
CONTINUOUS
 62
    7
 10
3779.8472804146109
 20
3049.8922639641714
 11
3779.8472804146109
 21
2922.8922903577532
  0
LINE
  8
_0-0_
  6
CONTINUOUS
 62
    7
 10
3815.8468053301513
 20
3052.2785736136648
 11
3805.8472672178209
 21
3052.2785736136648
  0
LINE
  8
_0-0_
  6
CONTINUOUS
 62
    7
 10
3815.8468053301513
 20
3054.8925278999827
 11
3815.8468053301513
 21
3052.2785736136648
  0
LINE
  8
_0-0_
  6
CONTINUOUS
 62
    7
 10
3805.8472672178209
 20
3054.8925278999827
 11
3805.8472672178209
 21
3052.2785736136648
  0
LINE
  8
_0-0_
  6
CONTINUOUS
 62
    7
 10
3815.8468053301513
 20
3054.8925278999827
 11
3910.8473661937487
 21
3054.8925278999827
  0
LINE
  8
_0-0_
  6
CONTINUOUS
 62
    7
 10
3794.847082462753
 20
3038.8925740887494
 11
3779.8472804146109
 21
2956.2444566109202
  0
LINE
  8
_0-0_
  6
CONTINUOUS
 62
    7
 10
3910.8473661937487
 20
3159.6917057399323
 11
3794.847082462753
 21
3159.6917057399323
  0
LINE
  8
_0-0_
  6
CONTINUOUS
 62
    7
 10
3910.8473661937487
 20
3175.6916595511648
 11
3910.8473661937487
 21
3159.6917057399323
  0
LINE
  8
_0-0_
  6
CONTINUOUS
 62
    7
 10
3815.8468053301513
 20
3173.0777052648477
 11
3805.8472672178209
 21
3173.0777052648477
  0
LINE
  8
_0-0_
  6
CONTINUOUS
 62
    7
 10
3815.8468053301513
 20
3175.6916595511648
 11
3815.8468053301513
 21
3173.0777052648477
  0
LINE
  8
_0-0_
  6
CONTINUOUS
 62
    7
 10
3805.8472672178209
 20
3175.6916595511648
 11
3805.8472672178209
 21
3173.0777052648477
  0
LINE
  8
_0-0_
  6
CONTINUOUS
 62
    7
 10
3784.8470494707763
 20
3175.6916595511648
 11
3805.8472672178209
 21
3175.6916595511648
  0
LINE
  8
_0-0_
  6
CONTINUOUS
 62
    7
 10
3815.8468053301513
 20
3175.6916595511648
 11
3910.8473661937487
 21
3175.6916595511648
  0
LINE
  8
_0-0_
  6
CONTINUOUS
 62
    7
 10
3779.8472804146109
 20
3170.6913956153544
 11
3779.8472804146109
 21
3054.8925278999827
  0
LINE
  8
_0-0_
  6
CONTINUOUS
 62
    7
 10
3794.847082462753
 20
3159.6917057399323
 11
3779.8472804146109
 21
3049.8922639641714
  0
LINE
  8
_0-0_
  6
CONTINUOUS
 62
    7
 10
3779.8472804146109
 20
3054.8925278999827
 11
3779.8472804146109
 21
3049.8942434827532
  0
LINE
  8
_0-0_
  6
CONTINUOUS
 62
    7
 10
3910.8473661937487
 20
3275.1758300009119
 11
3794.847082462753
 21
3275.1758300009119
  0
LINE
  8
_0-0_
  6
CONTINUOUS
 62
    7
 10
3910.8473661937487
 20
3291.1757838121448
 11
3910.8473661937487
 21
3275.1758300009119
  0
LINE
  8
_0-0_
  6
CONTINUOUS
 62
    7
 10
3815.8468053301513
 20
3288.5618295258273
 11
3805.8472672178209
 21
3288.5618295258273
  0
LINE
  8
_0-0_
  6
CONTINUOUS
 62
    7
 10
3815.8468053301513
 20
3291.1757838121448
 11
3815.8468053301513
 21
3288.5618295258273
  0
LINE
  8
_0-0_
  6
CONTINUOUS
 62
    7
 10
3805.8472672178209
 20
3291.1757838121448
 11
3805.8472672178209
 21
3288.5618295258273
  0
LINE
  8
_0-0_
  6
CONTINUOUS
 62
    7
 10
3784.8470494707763
 20
3291.1757838121448
 11
3805.8472672178209
 21
3291.1757838121448
  0
LINE
  8
_0-0_
  6
CONTINUOUS
 62
    7
 10
3815.8468053301513
 20
3291.1757838121448
 11
3910.8473661937487
 21
3291.1757838121448
  0
LINE
  8
_0-0_
  6
CONTINUOUS
 62
    7
 10
3910.8473661937487
 20
3390.659459382246
 11
3794.847082462753
 21
3390.659459382246
  0
LINE
  8
_0-0_
  6
CONTINUOUS
 62
    7
 10
3910.8473661937487
 20
3406.6594131934794
 11
3910.8473661937487
 21
3390.659459382246
  0
LINE
  8
_0-0_
  6
CONTINUOUS
 62
    7
 10
3815.8468053301513
 20
3404.0454589071619
 11
3805.8472672178209
 21
3404.0454589071619
  0
LINE
  8
_0-0_
  6
CONTINUOUS
 62
    7
 10
3815.8468053301513
 20
3406.6594131934794
 11
3815.8468053301513
 21
3404.0454589071619
  0
LINE
  8
_0-0_
  6
CONTINUOUS
 62
    7
 10
3805.8472672178209
 20
3406.6594131934794
 11
3805.8472672178209
 21
3404.0454589071619
  0
LINE
  8
_0-0_
  6
CONTINUOUS
 62
    7
 10
3784.8470494707763
 20
3406.6594131934794
 11
3805.8472672178209
 21
3406.6594131934794
  0
LINE
  8
_0-0_
  6
CONTINUOUS
 62
    7
 10
3815.8468053301513
 20
3406.6594131934794
 11
3910.8473661937487
 21
3406.6594131934794
  0
LINE
  8
_0-0_
  6
CONTINUOUS
 62
    7
 10
3910.8473661937487
 20
3506.1433362034036
 11
3794.847082462753
 21
3506.1433362034036
  0
LINE
  8
_0-0_
  6
CONTINUOUS
 62
    7
 10
3910.8473661937487
 20
3522.1432900146365
 11
3910.8473661937487
 21
3506.1433362034036
  0
LINE
  8
_0-0_
  6
CONTINUOUS
 62
    7
 10
3815.8468053301513
 20
3519.5293357283185
 11
3805.8472672178209
 21
3519.5293357283185
  0
LINE
  8
_0-0_
  6
CONTINUOUS
 62
    7
 10
3815.8468053301513
 20
3522.1432900146365
 11
3815.8468053301513
 21
3519.5293357283185
  0
LINE
  8
_0-0_
  6
CONTINUOUS
 62
    7
 10
3805.8472672178209
 20
3522.1432900146365
 11
3805.8472672178209
 21
3519.5293357283185
  0
LINE
  8
_0-0_
  6
CONTINUOUS
 62
    7
 10
3784.8470494707763
 20
3522.1432900146365
 11
3805.8472672178209
 21
3522.1432900146365
  0
LINE
  8
_0-0_
  6
CONTINUOUS
 62
    7
 10
3815.8468053301513
 20
3522.1432900146365
 11
3910.8473661937487
 21
3522.1432900146365
  0
LINE
  8
_0-0_
  6
CONTINUOUS
 62
    7
 10
3910.8473661937487
 20
3621.6272130245602
 11
3794.847082462753
 21
3621.6272130245602
  0
LINE
  8
_0-0_
  6
CONTINUOUS
 62
    7
 10
3910.8473661937487
 20
3637.6271668357936
 11
3910.8473661937487
 21
3621.6272130245602
  0
LINE
  8
_0-0_
  6
CONTINUOUS
 62
    7
 10
3815.8468053301513
 20
3635.0132125494756
 11
3805.8472672178209
 21
3635.0132125494756
  0
LINE
  8
_0-0_
  6
CONTINUOUS
 62
    7
 10
3815.8468053301513
 20
3637.6271668357936
 11
3815.8468053301513
 21
3635.0132125494756
  0
LINE
  8
_0-0_
  6
CONTINUOUS
 62
    7
 10
3805.8472672178209
 20
3637.6271668357936
 11
3805.8472672178209
 21
3635.0132125494756
  0
LINE
  8
_0-0_
  6
CONTINUOUS
 62
    7
 10
3784.8470494707763
 20
3637.6271668357936
 11
3805.8472672178209
 21
3637.6271668357936
  0
LINE
  8
_0-0_
  6
CONTINUOUS
 62
    7
 10
3815.8468053301513
 20
3637.6271668357936
 11
3910.8473661937487
 21
3637.6271668357936
  0
LINE
  8
_0-0_
  6
CONTINUOUS
 62
    7
 10
3910.8473661937487
 20
3737.1110898457173
 11
3794.847082462753
 21
3737.1110898457173
  0
LINE
  8
_0-0_
  6
CONTINUOUS
 62
    7
 10
3910.8473661937487
 20
3753.1110436569502
 11
3910.8473661937487
 21
3737.1110898457173
  0
LINE
  8
_0-0_
  6
CONTINUOUS
 62
    7
 10
3815.8468053301513
 20
3750.4970893706327
 11
3805.8472672178209
 21
3750.4970893706327
  0
LINE
  8
_0-0_
  6
CONTINUOUS
 62
    7
 10
3815.8468053301513
 20
3753.1110436569502
 11
3815.8468053301513
 21
3750.4970893706327
  0
LINE
  8
_0-0_
  6
CONTINUOUS
 62
    7
 10
3805.8472672178209
 20
3753.1110436569502
 11
3805.8472672178209
 21
3750.4970893706327
  0
LINE
  8
_0-0_
  6
CONTINUOUS
 62
    7
 10
3784.8470494707763
 20
3753.1110436569502
 11
3805.8472672178209
 21
3753.1110436569502
  0
LINE
  8
_0-0_
  6
CONTINUOUS
 62
    7
 10
3815.8468053301513
 20
3753.1110436569502
 11
3910.8473661937487
 21
3753.1110436569502
  0
LINE
  8
_0-0_
  6
CONTINUOUS
 62
    7
 10
3910.8473661937487
 20
3852.5949666668744
 11
3794.847082462753
 21
3852.5949666668744
  0
LINE
  8
_0-0_
  6
CONTINUOUS
 62
    7
 10
3910.8473661937487
 20
3868.5949204781077
 11
3910.8473661937487
 21
3852.5949666668744
  0
LINE
  8
_0-0_
  6
CONTINUOUS
 62
    7
 10
3815.8468053301513
 20
3865.9809661917898
 11
3805.8472672178209
 21
3865.9809661917898
  0
LINE
  8
_0-0_
  6
CONTINUOUS
 62
    7
 10
3815.8468053301513
 20
3868.5949204781077
 11
3815.8468053301513
 21
3865.9809661917898
  0
LINE
  8
_0-0_
  6
CONTINUOUS
 62
    7
 10
3805.8472672178209
 20
3868.5949204781077
 11
3805.8472672178209
 21
3865.9809661917898
  0
LINE
  8
_0-0_
  6
CONTINUOUS
 62
    7
 10
3784.8470494707763
 20
3868.5949204781077
 11
3805.8472672178209
 21
3868.5949204781077
  0
LINE
  8
_0-0_
  6
CONTINUOUS
 62
    7
 10
3815.8468053301513
 20
3868.5949204781077
 11
3910.8473661937487
 21
3868.5949204781077
  0
LINE
  8
_0-0_
  6
CONTINUOUS
 62
    7
 10
3910.8473661937487
 20
3968.0785960482085
 11
3794.847082462753
 21
3968.0785960482085
  0
LINE
  8
_0-0_
  6
CONTINUOUS
 62
    7
 10
3910.8473661937487
 20
3984.0785498594419
 11
3910.8473661937487
 21
3968.0785960482085
  0
LINE
  8
_0-0_
  6
CONTINUOUS
 62
    7
 10
3815.8468053301513
 20
3981.4645955731244
 11
3805.8472672178209
 21
3981.4645955731244
  0
LINE
  8
_0-0_
  6
CONTINUOUS
 62
    7
 10
3815.8468053301513
 20
3984.0785498594419
 11
3815.8468053301513
 21
3981.4645955731244
  0
LINE
  8
_0-0_
  6
CONTINUOUS
 62
    7
 10
3805.8472672178209
 20
3984.0785498594419
 11
3805.8472672178209
 21
3981.4645955731244
  0
LINE
  8
_0-0_
  6
CONTINUOUS
 62
    7
 10
3784.8470494707763
 20
3984.0785498594419
 11
3805.8472672178209
 21
3984.0785498594419
  0
LINE
  8
_0-0_
  6
CONTINUOUS
 62
    7
 10
3815.8468053301513
 20
3984.0785498594419
 11
3910.8473661937487
 21
3984.0785498594419
  0
LINE
  8
_0-0_
  6
CONTINUOUS
 62
    7
 10
3910.8473661937487
 20
4083.562720309189
 11
3794.847082462753
 21
4083.562720309189
  0
LINE
  8
_0-0_
  6
CONTINUOUS
 62
    7
 10
3910.8473661937487
 20
4099.5626741204214
 11
3910.8473661937487
 21
4083.562720309189
  0
LINE
  8
_0-0_
  6
CONTINUOUS
 62
    7
 10
3815.8468053301513
 20
4096.9487198341039
 11
3805.8472672178209
 21
4096.9487198341039
  0
LINE
  8
_0-0_
  6
CONTINUOUS
 62
    7
 10
3815.8468053301513
 20
4099.5626741204214
 11
3815.8468053301513
 21
4096.9487198341039
  0
LINE
  8
_0-0_
  6
CONTINUOUS
 62
    7
 10
3805.8472672178209
 20
4099.5626741204214
 11
3805.8472672178209
 21
4096.9487198341039
  0
LINE
  8
_0-0_
  6
CONTINUOUS
 62
    7
 10
3784.8470494707763
 20
4099.5626741204214
 11
3805.8472672178209
 21
4099.5626741204214
  0
LINE
  8
_0-0_
  6
CONTINUOUS
 62
    7
 10
3815.8468053301513
 20
4099.5626741204214
 11
3910.8473661937487
 21
4099.5626741204214
  0
LINE
  8
_0-0_
  6
CONTINUOUS
 62
    7
 10
3910.8473661937487
 20
4199.0463496905231
 11
3794.847082462753
 21
4199.0463496905231
  0
LINE
  8
_0-0_
  6
CONTINUOUS
 62
    7
 10
3910.8473661937487
 20
4215.0463035017565
 11
3910.8473661937487
 21
4199.0463496905231
  0
LINE
  8
_0-0_
  6
CONTINUOUS
 62
    7
 10
3815.8468053301513
 20
4212.432349215439
 11
3805.8472672178209
 21
4212.432349215439
  0
LINE
  8
_0-0_
  6
CONTINUOUS
 62
    7
 10
3815.8468053301513
 20
4215.0463035017565
 11
3815.8468053301513
 21
4212.432349215439
  0
LINE
  8
_0-0_
  6
CONTINUOUS
 62
    7
 10
3805.8472672178209
 20
4215.0463035017565
 11
3805.8472672178209
 21
4212.432349215439
  0
LINE
  8
_0-0_
  6
CONTINUOUS
 62
    7
 10
3784.8470494707763
 20
4215.0463035017565
 11
3805.8472672178209
 21
4215.0463035017565
  0
LINE
  8
_0-0_
  6
CONTINUOUS
 62
    7
 10
3815.8468053301513
 20
4215.0463035017565
 11
3910.8473661937487
 21
4215.0463035017565
  0
LINE
  8
_0-0_
  6
CONTINUOUS
 62
    7
 10
3910.8473661937487
 20
4314.5304739515032
 11
3794.847082462753
 21
4314.5304739515032
  0
LINE
  8
_0-0_
  6
CONTINUOUS
 62
    7
 10
3910.8473661937487
 20
4330.5304277627356
 11
3910.8473661937487
 21
4314.5304739515032
  0
LINE
  8
_0-0_
  6
CONTINUOUS
 62
    7
 10
3815.8468053301513
 20
4327.9164734764181
 11
3805.8472672178209
 21
4327.9164734764181
  0
LINE
  8
_0-0_
  6
CONTINUOUS
 62
    7
 10
3815.8468053301513
 20
4330.5304277627356
 11
3815.8468053301513
 21
4327.9164734764181
  0
LINE
  8
_0-0_
  6
CONTINUOUS
 62
    7
 10
3805.8472672178209
 20
4330.5304277627356
 11
3805.8472672178209
 21
4327.9164734764181
  0
LINE
  8
_0-0_
  6
CONTINUOUS
 62
    7
 10
3784.8470494707763
 20
4330.5304277627356
 11
3805.8472672178209
 21
4330.5304277627356
  0
LINE
  8
_0-0_
  6
CONTINUOUS
 62
    7
 10
3815.8468053301513
 20
4330.5304277627356
 11
3910.8473661937487
 21
4330.5304277627356
  0
LINE
  8
_0-0_
  6
CONTINUOUS
 62
    7
 10
3910.8473661937487
 20
4430.0141033328373
 11
3794.847082462753
 21
4430.0141033328373
  0
LINE
  8
_0-0_
  6
CONTINUOUS
 62
    7
 10
3910.8473661937487
 20
4446.0140571440706
 11
3910.8473661937487
 21
4430.0141033328373
  0
LINE
  8
_0-0_
  6
CONTINUOUS
 62
    7
 10
3815.8468053301513
 20
4443.4001028577532
 11
3805.8472672178209
 21
4443.4001028577532
  0
LINE
  8
_0-0_
  6
CONTINUOUS
 62
    7
 10
3815.8468053301513
 20
4446.0140571440706
 11
3815.8468053301513
 21
4443.4001028577532
  0
LINE
  8
_0-0_
  6
CONTINUOUS
 62
    7
 10
3805.8472672178209
 20
4446.0140571440706
 11
3805.8472672178209
 21
4443.4001028577532
  0
LINE
  8
_0-0_
  6
CONTINUOUS
 62
    7
 10
3784.8470494707763
 20
4446.0140571440706
 11
3805.8472672178209
 21
4446.0140571440706
  0
LINE
  8
_0-0_
  6
CONTINUOUS
 62
    7
 10
3815.8468053301513
 20
4446.0140571440706
 11
3910.8473661937487
 21
4446.0140571440706
  0
LINE
  8
_0-0_
  6
CONTINUOUS
 62
    7
 10
3779.8472804146109
 20
4446.0138097042473
 11
3779.8472804146109
 21
3170.6913956153544
  0
LINE
  8
_0-0_
  6
CONTINUOUS
 62
    7
 10
3794.847082462753
 20
3275.1758300009119
 11
3779.8472804146109
 21
3170.6913956153544
  0
LINE
  8
_0-0_
  6
CONTINUOUS
 62
    7
 10
3794.847082462753
 20
3390.659459382246
 11
3779.8472804146109
 21
3286.175519876334
  0
LINE
  8
_0-0_
  6
CONTINUOUS
 62
    7
 10
3794.847082462753
 20
3506.1433362034036
 11
3779.8472804146109
 21
3401.6591492576686
  0
LINE
  8
_0-0_
  6
CONTINUOUS
 62
    7
 10
3794.847082462753
 20
3621.6272130245602
 11
3779.8472804146109
 21
3517.1430260788252
  0
LINE
  8
_0-0_
  6
CONTINUOUS
 62
    7
 10
3794.847082462753
 20
3737.1110898457173
 11
3779.8472804146109
 21
3637.6271668357936
  0
LINE
  8
_0-0_
  6
CONTINUOUS
 62
    7
 10
3794.847082462753
 20
3852.5949666668744
 11
3779.8472804146109
 21
3748.1107797211394
  0
LINE
  8
_0-0_
  6
CONTINUOUS
 62
    7
 10
3794.847082462753
 20
3968.0785960482085
 11
3779.8472804146109
 21
3863.5946565422964
  0
LINE
  8
_0-0_
  6
CONTINUOUS
 62
    7
 10
3794.847082462753
 20
4083.562720309189
 11
3779.8472804146109
 21
3979.078285923631
  0
LINE
  8
_0-0_
  6
CONTINUOUS
 62
    7
 10
3794.847082462753
 20
4199.0463496905231
 11
3779.8472804146109
 21
4094.5624101846106
  0
LINE
  8
_0-0_
  6
CONTINUOUS
 62
    7
 10
3794.847082462753
 20
4314.5304739515032
 11
3779.8472804146109
 21
4210.0460395659456
  0
LINE
  8
_0-0_
  6
CONTINUOUS
 62
    7
 10
3794.847082462753
 20
4430.0141033328373
 11
3779.8472804146109
 21
4325.5301638269257
  0
LINE
  8
_0-0_
  6
CONTINUOUS
 62
    7
 10
3910.8473661937487
 20
2948.2442322654811
 11
4216.8472870130063
 21
2948.2442322654811
  0
LINE
  8
_0-0_
  6
CONTINUOUS
 62
    7
 10
3910.8473661937487
 20
2918.2441332895519
 11
4216.8472870130063
 21
2918.2441332895519
  0
LINE
  8
_0-0_
  6
CONTINUOUS
 62
    7
 10
3910.8473661937487
 20
2948.2442322654811
 11
3910.8473661937487
 21
2918.2441332895519
  0
LINE
  8
_0-0_
  6
CONTINUOUS
 62
    7
 10
4033.8472276274488
 20
2950.2440409120181
 11
4093.8474255793071
 21
2950.2440409120181
  0
LINE
  8
_0-0_
  6
CONTINUOUS
 62
    7
 10
4033.8472276274488
 20
2950.2440409120181
 11
4033.8472276274488
 21
2948.2442322654811
  0
LINE
  8
_0-0_
  6
CONTINUOUS
 62
    7
 10
4093.8474255793071
 20
2950.2440409120181
 11
4093.8474255793071
 21
2948.2442322654811
  0
LINE
  8
_0-0_
  6
CONTINUOUS
 62
    7
 10
4216.8472870130063
 20
2948.2442322654811
 11
4216.8472870130063
 21
2918.2441332895519
  0
LINE
  8
_0-0_
  6
CONTINUOUS
 62
    7
 10
4522.8472078322629
 20
2948.2442322654811
 11
4828.8471286515205
 21
2948.2442322654811
  0
LINE
  8
_0-0_
  6
CONTINUOUS
 62
    7
 10
4522.8472078322629
 20
2918.2441332895519
 11
4828.8471286515205
 21
2918.2441332895519
  0
LINE
  8
_0-0_
  6
CONTINUOUS
 62
    7
 10
4645.847069265963
 20
2950.2440409120181
 11
4705.8472672178214
 21
2950.2440409120181
  0
LINE
  8
_0-0_
  6
CONTINUOUS
 62
    7
 10
4645.847069265963
 20
2950.2440409120181
 11
4645.847069265963
 21
2948.2442322654811
  0
LINE
  8
_0-0_
  6
CONTINUOUS
 62
    7
 10
4705.8472672178214
 20
2950.2440409120181
 11
4705.8472672178214
 21
2948.2442322654811
  0
LINE
  8
_0-0_
  6
CONTINUOUS
 62
    7
 10
4522.8472078322629
 20
2948.2442322654811
 11
4522.8472078322629
 21
2918.2441332895519
  0
LINE
  8
_0-0_
  6
CONTINUOUS
 62
    7
 10
4828.8471286515205
 20
2948.2442322654811
 11
5134.8470494707763
 21
2948.2442322654811
  0
LINE
  8
_0-0_
  6
CONTINUOUS
 62
    7
 10
4828.8471286515205
 20
2918.2441332895519
 11
5134.8470494707763
 21
2918.2441332895519
  0
LINE
  8
_0-0_
  6
CONTINUOUS
 62
    7
 10
4951.8469900852197
 20
2950.2440409120181
 11
5011.847188037078
 21
2950.2440409120181
  0
LINE
  8
_0-0_
  6
CONTINUOUS
 62
    7
 10
4951.8469900852197
 20
2950.2440409120181
 11
4951.8469900852197
 21
2948.2442322654811
  0
LINE
  8
_0-0_
  6
CONTINUOUS
 62
    7
 10
5011.847188037078
 20
2950.2440409120181
 11
5011.847188037078
 21
2948.2442322654811
  0
LINE
  8
_0-0_
  6
CONTINUOUS
 62
    7
 10
4828.8471286515205
 20
2948.2442322654811
 11
4828.8471286515205
 21
2918.2441332895519
  0
LINE
  8
_0-0_
  6
CONTINUOUS
 62
    7
 10
5134.8470494707763
 20
2948.2442322654811
 11
5440.8469702900329
 21
2948.2442322654811
  0
LINE
  8
_0-0_
  6
CONTINUOUS
 62
    7
 10
5134.8470494707763
 20
2918.2441332895519
 11
5440.8469702900329
 21
2918.2441332895519
  0
LINE
  8
_0-0_
  6
CONTINUOUS
 62
    7
 10
5257.8469109044763
 20
2950.2440409120181
 11
5317.8471088563329
 21
2950.2440409120181
  0
LINE
  8
_0-0_
  6
CONTINUOUS
 62
    7
 10
5257.8469109044763
 20
2950.2440409120181
 11
5257.8469109044763
 21
2948.2442322654811
  0
LINE
  8
_0-0_
  6
CONTINUOUS
 62
    7
 10
5317.8471088563329
 20
2950.2440409120181
 11
5317.8471088563329
 21
2948.2442322654811
  0
LINE
  8
_0-0_
  6
CONTINUOUS
 62
    7
 10
5134.8470494707763
 20
2948.2442322654811
 11
5134.8470494707763
 21
2918.2441332895519
  0
LINE
  8
_0-0_
  6
CONTINUOUS
 62
    7
 10
5440.8469702900329
 20
2948.2442322654811
 11
5746.8468911092896
 21
2948.2442322654811
  0
LINE
  8
_0-0_
  6
CONTINUOUS
 62
    7
 10
5440.8469702900329
 20
2918.2441332895519
 11
5746.8468911092896
 21
2918.2441332895519
  0
LINE
  8
_0-0_
  6
CONTINUOUS
 62
    7
 10
5563.846831723733
 20
2950.2440409120181
 11
5623.8470296755913
 21
2950.2440409120181
  0
LINE
  8
_0-0_
  6
CONTINUOUS
 62
    7
 10
5563.846831723733
 20
2950.2440409120181
 11
5563.846831723733
 21
2948.2442322654811
  0
LINE
  8
_0-0_
  6
CONTINUOUS
 62
    7
 10
5623.8470296755913
 20
2950.2440409120181
 11
5623.8470296755913
 21
2948.2442322654811
  0
LINE
  8
_0-0_
  6
CONTINUOUS
 62
    7
 10
5440.8469702900329
 20
2948.2442322654811
 11
5440.8469702900329
 21
2918.2441332895519
  0
LINE
  8
_0-0_
  6
CONTINUOUS
 62
    7
 10
5746.8468911092896
 20
2948.2442322654811
 11
6052.846811928548
 21
2948.2442322654811
  0
LINE
  8
_0-0_
  6
CONTINUOUS
 62
    7
 10
5746.8468911092896
 20
2918.2441332895519
 11
6052.846811928548
 21
2918.2441332895519
  0
LINE
  8
_0-0_
  6
CONTINUOUS
 62
    7
 10
5869.8467525429896
 20
2950.2440409120181
 11
5929.846950494848
 21
2950.2440409120181
  0
LINE
  8
_0-0_
  6
CONTINUOUS
 62
    7
 10
5869.8467525429896
 20
2950.2440409120181
 11
5869.8467525429896
 21
2948.2442322654811
  0
LINE
  8
_0-0_
  6
CONTINUOUS
 62
    7
 10
5929.846950494848
 20
2950.2440409120181
 11
5929.846950494848
 21
2948.2442322654811
  0
LINE
  8
_0-0_
  6
CONTINUOUS
 62
    7
 10
5746.8468911092896
 20
2948.2442322654811
 11
5746.8468911092896
 21
2918.2441332895519
  0
LINE
  8
_0-0_
  6
CONTINUOUS
 62
    7
 10
6052.846811928548
 20
2948.2442322654811
 11
6358.8467327478047
 21
2948.2442322654811
  0
LINE
  8
_0-0_
  6
CONTINUOUS
 62
    7
 10
6052.846811928548
 20
2918.2441332895519
 11
6358.8467327478047
 21
2918.2441332895519
  0
LINE
  8
_0-0_
  6
CONTINUOUS
 62
    7
 10
6175.8466733622463
 20
2950.2440409120181
 11
6235.8468713141046
 21
2950.2440409120181
  0
LINE
  8
_0-0_
  6
CONTINUOUS
 62
    7
 10
6175.8466733622463
 20
2950.2440409120181
 11
6175.8466733622463
 21
2948.2442322654811
  0
LINE
  8
_0-0_
  6
CONTINUOUS
 62
    7
 10
6235.8468713141046
 20
2950.2440409120181
 11
6235.8468713141046
 21
2948.2442322654811
  0
LINE
  8
_0-0_
  6
CONTINUOUS
 62
    7
 10
6052.846811928548
 20
2948.2442322654811
 11
6052.846811928548
 21
2918.2441332895519
  0
LINE
  8
_0-0_
  6
CONTINUOUS
 62
    7
 10
6358.8467327478047
 20
2948.2442322654811
 11
6664.8466535670605
 21
2948.2442322654811
  0
LINE
  8
_0-0_
  6
CONTINUOUS
 62
    7
 10
6358.8467327478047
 20
2918.2441332895519
 11
6664.8466535670605
 21
2918.2441332895519
  0
LINE
  8
_0-0_
  6
CONTINUOUS
 62
    7
 10
6481.8465941815048
 20
2950.2440409120181
 11
6541.8467921333604
 21
2950.2440409120181
  0
LINE
  8
_0-0_
  6
CONTINUOUS
 62
    7
 10
6481.8465941815048
 20
2950.2440409120181
 11
6481.8465941815048
 21
2948.2442322654811
  0
LINE
  8
_0-0_
  6
CONTINUOUS
 62
    7
 10
6541.8467921333604
 20
2950.2440409120181
 11
6541.8467921333604
 21
2948.2442322654811
  0
LINE
  8
_0-0_
  6
CONTINUOUS
 62
    7
 10
6358.8467327478047
 20
2948.2442322654811
 11
6358.8467327478047
 21
2918.2441332895519
  0
LINE
  8
_0-0_
  6
CONTINUOUS
 62
    7
 10
6664.8466535670605
 20
2948.2442322654811
 11
6970.8465743863162
 21
2948.2442322654811
  0
LINE
  8
_0-0_
  6
CONTINUOUS
 62
    7
 10
6664.8466535670605
 20
2918.2441332895519
 11
6970.8465743863162
 21
2918.2441332895519
  0
LINE
  8
_0-0_
  6
CONTINUOUS
 62
    7
 10
6787.8465150007605
 20
2950.2440409120181
 11
6847.8467129526189
 21
2950.2440409120181
  0
LINE
  8
_0-0_
  6
CONTINUOUS
 62
    7
 10
6787.8465150007605
 20
2950.2440409120181
 11
6787.8465150007605
 21
2948.2442322654811
  0
LINE
  8
_0-0_
  6
CONTINUOUS
 62
    7
 10
6847.8467129526189
 20
2950.2440409120181
 11
6847.8467129526189
 21
2948.2442322654811
  0
LINE
  8
_0-0_
  6
CONTINUOUS
 62
    7
 10
6664.8466535670605
 20
2948.2442322654811
 11
6664.8466535670605
 21
2918.2441332895519
  0
LINE
  8
_0-0_
  6
CONTINUOUS
 62
    7
 10
6970.8465743863162
 20
2948.2442322654811
 11
7276.8469900852187
 21
2948.2442322654811
  0
LINE
  8
_0-0_
  6
CONTINUOUS
 62
    7
 10
6970.8465743863162
 20
2918.2441332895519
 11
7276.8469900852187
 21
2918.2441332895519
  0
LINE
  8
_0-0_
  6
CONTINUOUS
 62
    7
 10
7093.8464358200163
 20
2950.2440409120181
 11
7153.8466337718746
 21
2950.2440409120181
  0
LINE
  8
_0-0_
  6
CONTINUOUS
 62
    7
 10
7093.8464358200163
 20
2950.2440409120181
 11
7093.8464358200163
 21
2948.2442322654811
  0
LINE
  8
_0-0_
  6
CONTINUOUS
 62
    7
 10
7153.8466337718746
 20
2950.2440409120181
 11
7153.8466337718746
 21
2948.2442322654811
  0
LINE
  8
_0-0_
  6
CONTINUOUS
 62
    7
 10
6970.8465743863162
 20
2948.2442322654811
 11
6970.8465743863162
 21
2918.2441332895519
  0
LINE
  8
_0-0_
  6
CONTINUOUS
 62
    7
 10
7276.8469900852187
 20
2948.2442322654811
 11
7276.8469900852187
 21
2918.2441332895519
  0
LINE
  8
_0-0_
  6
CONTINUOUS
 62
    7
 10
7888.846831723733
 20
2948.2442322654811
 11
7888.846831723733
 21
2918.2441332895519
  0
LINE
  8
_0-0_
  6
CONTINUOUS
 62
    7
 10
7582.8469109044772
 20
2948.2442322654811
 11
7888.846831723733
 21
2948.2442322654811
  0
LINE
  8
_0-0_
  6
CONTINUOUS
 62
    7
 10
7582.8469109044772
 20
2918.2441332895519
 11
7888.846831723733
 21
2918.2441332895519
  0
LINE
  8
_0-0_
  6
CONTINUOUS
 62
    7
 10
7705.8462774585314
 20
2950.2440409120181
 11
7765.8464754103879
 21
2950.2440409120181
  0
LINE
  8
_0-0_
  6
CONTINUOUS
 62
    7
 10
7705.8462774585314
 20
2950.2440409120181
 11
7705.8462774585314
 21
2948.2442322654811
  0
LINE
  8
_0-0_
  6
CONTINUOUS
 62
    7
 10
7765.8464754103879
 20
2950.2440409120181
 11
7765.8464754103879
 21
2948.2442322654811
  0
LINE
  8
_0-0_
  6
CONTINUOUS
 62
    7
 10
7582.8469109044772
 20
2948.2442322654811
 11
7582.8469109044772
 21
2918.2441332895519
  0
LINE
  8
_0-0_
  6
CONTINUOUS
 62
    7
 10
8019.8464226232272
 20
2817.2441464863423
 11
8019.6336243757605
 21
2817.0763822865956
  0
LINE
  8
_0-0_
  6
CONTINUOUS
 62
    7
 10
8019.6336243757605
 20
2817.0763822865956
 11
8019.4148875725496
 21
2816.9185156797544
  0
LINE
  8
_0-0_
  6
CONTINUOUS
 62
    7
 10
8019.4148875725496
 20
2816.9185156797544
 11
8019.1862531764355
 21
2816.7700517861731
  0
LINE
  8
_0-0_
  6
CONTINUOUS
 62
    7
 10
8019.1862531764355
 20
2816.7700517861731
 11
8018.9477211874146
 21
2816.6304957262073
  0
LINE
  8
_0-0_
  6
CONTINUOUS
 62
    7
 10
8018.9477211874146
 20
2816.6304957262073
 11
8018.6953325683271
 21
2816.4998474998561
  0
LINE
  8
_0-0_
  6
CONTINUOUS
 62
    7
 10
8018.6953325683271
 20
2816.4998474998561
 11
8018.4261180412996
 21
2816.3761275885381
  0
LINE
  8
_0-0_
  6
CONTINUOUS
 62
    7
 10
8018.4261180412996
 20
2816.3761275885381
 11
8018.1400776063329
 21
2816.2598308718998
  0
LINE
  8
_0-0_
  6
CONTINUOUS
 62
    7
 10
8018.1400776063329
 20
2816.2598308718998
 11
8017.834241985558
 21
2816.1504624702952
  0
LINE
  8
_0-0_
  6
CONTINUOUS
 62
    7
 10
8017.834241985558
 20
2816.1504624702952
 11
8017.5076214196797
 21
2816.0470326244335
  0
LINE
  8
_0-0_
  6
CONTINUOUS
 62
    7
 10
8017.5076214196797
 20
2816.0470326244335
 11
8017.1582363901189
 21
2815.9490464546702
  0
LINE
  8
_0-0_
  6
CONTINUOUS
 62
    7
 10
8017.1582363901189
 20
2815.9490464546702
 11
8016.7850971375829
 21
2815.8565039610044
  0
LINE
  8
_0-0_
  6
CONTINUOUS
 62
    7
 10
8016.7850971375829
 20
2815.8565039610044
 11
8016.3872139027881
 21
2815.7679205045015
  0
LINE
  8
_0-0_
  6
CONTINUOUS
 62
    7
 10
8016.3872139027881
 20
2815.7679205045015
 11
8015.9635969264355
 21
2815.6842858444502
  0
LINE
  8
_0-0_
  6
CONTINUOUS
 62
    7
 10
8015.9635969264355
 20
2815.6842858444502
 11
8015.5142462085314
 21
2815.6041153419169
  0
LINE
  8
_0-0_
  6
CONTINUOUS
 62
    7
 10
8015.5142462085314
 20
2815.6041153419169
 11
8015.0371822304896
 21
2815.5269141172544
  0
LINE
  8
_0-0_
  6
CONTINUOUS
 62
    7
 10
8015.0371822304896
 20
2815.5269141172544
 11
8014.530425473733
 21
2815.4531770501089
  0
LINE
  8
_0-0_
  6
CONTINUOUS
 62
    7
 10
8014.530425473733
 20
2815.4531770501089
 11
8013.997934975423
 21
2815.3814195015452
  0
LINE
  8
_0-0_
  6
CONTINUOUS
 62
    7
 10
8013.997934975423
 20
2815.3814195015452
 11
8013.4357516983964
 21
2815.3121363512073
  0
LINE
  8
_0-0_
  6
CONTINUOUS
 62
    7
 10
8013.4357516983964
 20
2815.3121363512073
 11
8012.845855161233
 21
2815.2443378398048
  0
LINE
  8
_0-0_
  6
CONTINUOUS
 62
    7
 10
7990.8464754103879
 20
2815.2443378398048
 11
7990.305077078463
 21
2815.3423240095685
  0
LINE
  8
_0-0_
  6
CONTINUOUS
 62
    7
 10
7990.305077078463
 20
2815.3423240095685
 11
7989.774566098733
 21
2815.447238494366
  0
LINE
  8
_0-0_
  6
CONTINUOUS
 62
    7
 10
7989.774566098733
 20
2815.447238494366
 11
7989.2559322304896
 21
2815.5595761738423
  0
LINE
  8
_0-0_
  6
CONTINUOUS
 62
    7
 10
7989.2559322304896
 20
2815.5595761738423
 11
7988.749175473733
 21
2815.6783472887073
  0
LINE
  8
_0-0_
  6
CONTINUOUS
 62
    7
 10
7988.749175473733
 20
2815.6783472887073
 11
7988.2582548656246
 21
2815.8040467186061
  0
LINE
  8
_0-0_
  6
CONTINUOUS
 62
    7
 10
7988.2582548656246
 20
2815.8040467186061
 11
7987.7851499247463
 21
2815.9366744635381
  0
LINE
  8
_0-0_
  6
CONTINUOUS
 62
    7
 10
7987.7851499247463
 20
2815.9366744635381
 11
7987.3308504103879
 21
2816.0757356438589
  0
LINE
  8
_0-0_
  6
CONTINUOUS
 62
    7
 10
7987.3308504103879
 20
2816.0757356438589
 11
7986.898325600423
 21
2816.2222200188589
  0
LINE
  8
_0-0_
  6
CONTINUOUS
 62
    7
 10
7986.898325600423
 20
2816.2222200188589
 11
7986.486585735558
 21
2816.3756327088931
  0
LINE
  8
_0-0_
  6
CONTINUOUS
 62
    7
 10
7986.486585735558
 20
2816.3756327088931
 11
7986.1015693715381
 21
2816.5354788343157
  0
LINE
  8
_0-0_
  6
CONTINUOUS
 62
    7
 10
7986.1015693715381
 20
2816.5354788343157
 11
7985.7422867490714
 21
2816.7027481544169
  0
LINE
  8
_0-0_
  6
CONTINUOUS
 62
    7
 10
7985.7422867490714
 20
2816.7027481544169
 11
7985.4136866646104
 21
2816.8764509099065
  0
LINE
  8
_0-0_
  6
CONTINUOUS
 62
    7
 10
7985.4136866646104
 20
2816.8764509099065
 11
7985.1127998402881
 21
2817.0570819804298
  0
LINE
  8
_0-0_
  6
CONTINUOUS
 62
    7
 10
7985.1127998402881
 20
2817.0570819804298
 11
7984.8455648318413
 21
2817.2441464863423
  0
LINE
  8
_0-0_
  6
CONTINUOUS
 62
    7
 10
8019.8464226232272
 20
2956.2444566109202
 11
8019.8464226232272
 21
2817.2441464863423
  0
LINE
  8
_0-0_
  6
CONTINUOUS
 62
    7
 10
8012.845855161233
 20
2815.2443378398048
 11
7990.8464754103879
 21
2815.2443378398048
  0
LINE
  8
_0-0_
  6
CONTINUOUS
 62
    7
 10
8012.845855161233
 20
2947.2445753820352
 11
8012.845855161233
 21
2815.2443378398048
  0
LINE
  8
_0-0_
  6
CONTINUOUS
 62
    7
 10
8012.845855161233
 20
2947.2445753820352
 11
7888.846831723733
 21
2947.2445753820352
  0
LINE
  8
_0-0_
  6
CONTINUOUS
 62
    7
 10
7888.846831723733
 20
2947.2445753820352
 11
7888.846831723733
 21
2918.2441332895519
  0
LINE
  8
_0-0_
  6
CONTINUOUS
 62
    7
 10
8019.8464226232272
 20
2956.2444566109202
 11
7891.8458023740714
 21
2956.2444566109202
  0
LINE
  8
_0-0_
  6
CONTINUOUS
 62
    7
 10
7891.8458023740714
 20
2956.2444566109202
 11
7888.846831723733
 21
2947.2445753820352
  0
LINE
  8
_0-0_
  6
CONTINUOUS
 62
    7
 10
7984.8455648318413
 20
2817.2441464863423
 11
7888.846831723733
 21
2918.2441332895519
  0
LINE
  8
_0-0_
  6
CONTINUOUS
 62
    7
 10
7888.846831723733
 20
3038.8925740887494
 11
8004.8466205750829
 21
3038.8925740887494
  0
LINE
  8
_0-0_
  6
CONTINUOUS
 62
    7
 10
7888.846831723733
 20
3054.8925278999827
 11
7888.846831723733
 21
3038.8925740887494
  0
LINE
  8
_0-0_
  6
CONTINUOUS
 62
    7
 10
8019.8464226232272
 20
3049.8922639641714
 11
8019.8464226232272
 21
2922.8922903577532
  0
LINE
  8
_0-0_
  6
CONTINUOUS
 62
    7
 10
7983.8468977076855
 20
3052.2785736136648
 11
7993.8464358200163
 21
3052.2785736136648
  0
LINE
  8
_0-0_
  6
CONTINUOUS
 62
    7
 10
7983.8468977076855
 20
3054.8925278999827
 11
7983.8468977076855
 21
3052.2785736136648
  0
LINE
  8
_0-0_
  6
CONTINUOUS
 62
    7
 10
7993.8464358200163
 20
3054.8925278999827
 11
7993.8464358200163
 21
3052.2785736136648
  0
LINE
  8
_0-0_
  6
CONTINUOUS
 62
    7
 10
8014.8471484467063
 20
3054.8925278999827
 11
7993.8464358200163
 21
3054.8925278999827
  0
LINE
  8
_0-0_
  6
CONTINUOUS
 62
    7
 10
7983.8468977076855
 20
3054.8925278999827
 11
7888.846831723733
 21
3054.8925278999827
  0
LINE
  8
_0-0_
  6
CONTINUOUS
 62
    7
 10
8004.8466205750829
 20
3038.8925740887494
 11
8019.8464226232272
 21
2956.2444566109202
  0
LINE
  8
_0-0_
  6
CONTINUOUS
 62
    7
 10
7888.846831723733
 20
3159.6917057399323
 11
8004.8466205750829
 21
3159.6917057399323
  0
LINE
  8
_0-0_
  6
CONTINUOUS
 62
    7
 10
7888.846831723733
 20
3175.6916595511648
 11
7888.846831723733
 21
3159.6917057399323
  0
LINE
  8
_0-0_
  6
CONTINUOUS
 62
    7
 10
7983.8468977076855
 20
3173.0777052648477
 11
7993.8464358200163
 21
3173.0777052648477
  0
LINE
  8
_0-0_
  6
CONTINUOUS
 62
    7
 10
7983.8468977076855
 20
3175.6916595511648
 11
7983.8468977076855
 21
3173.0777052648477
  0
LINE
  8
_0-0_
  6
CONTINUOUS
 62
    7
 10
7993.8464358200163
 20
3175.6916595511648
 11
7993.8464358200163
 21
3173.0777052648477
  0
LINE
  8
_0-0_
  6
CONTINUOUS
 62
    7
 10
8014.8471484467063
 20
3175.6916595511648
 11
7993.8464358200163
 21
3175.6916595511648
  0
LINE
  8
_0-0_
  6
CONTINUOUS
 62
    7
 10
7983.8468977076855
 20
3175.6916595511648
 11
7888.846831723733
 21
3175.6916595511648
  0
LINE
  8
_0-0_
  6
CONTINUOUS
 62
    7
 10
8019.8464226232272
 20
3170.6913956153544
 11
8019.8464226232272
 21
3054.8925278999827
  0
LINE
  8
_0-0_
  6
CONTINUOUS
 62
    7
 10
8004.8466205750829
 20
3159.6917057399323
 11
8019.8464226232272
 21
3049.8922639641714
  0
LINE
  8
_0-0_
  6
CONTINUOUS
 62
    7
 10
8019.8464226232272
 20
3054.8925278999827
 11
8019.8464226232272
 21
3049.8942434827532
  0
LINE
  8
_0-0_
  6
CONTINUOUS
 62
    7
 10
7888.846831723733
 20
3275.1758300009119
 11
8004.8466205750829
 21
3275.1758300009119
  0
LINE
  8
_0-0_
  6
CONTINUOUS
 62
    7
 10
7888.846831723733
 20
3291.1757838121448
 11
7888.846831723733
 21
3275.1758300009119
  0
LINE
  8
_0-0_
  6
CONTINUOUS
 62
    7
 10
7983.8468977076855
 20
3288.5618295258273
 11
7993.8464358200163
 21
3288.5618295258273
  0
LINE
  8
_0-0_
  6
CONTINUOUS
 62
    7
 10
7983.8468977076855
 20
3291.1757838121448
 11
7983.8468977076855
 21
3288.5618295258273
  0
LINE
  8
_0-0_
  6
CONTINUOUS
 62
    7
 10
7993.8464358200163
 20
3291.1757838121448
 11
7993.8464358200163
 21
3288.5618295258273
  0
LINE
  8
_0-0_
  6
CONTINUOUS
 62
    7
 10
8014.8471484467063
 20
3291.1757838121448
 11
7993.8464358200163
 21
3291.1757838121448
  0
LINE
  8
_0-0_
  6
CONTINUOUS
 62
    7
 10
7983.8468977076855
 20
3291.1757838121448
 11
7888.846831723733
 21
3291.1757838121448
  0
LINE
  8
_0-0_
  6
CONTINUOUS
 62
    7
 10
7888.846831723733
 20
3390.659459382246
 11
8004.8466205750829
 21
3390.659459382246
  0
LINE
  8
_0-0_
  6
CONTINUOUS
 62
    7
 10
7888.846831723733
 20
3406.6594131934794
 11
7888.846831723733
 21
3390.659459382246
  0
LINE
  8
_0-0_
  6
CONTINUOUS
 62
    7
 10
7983.8468977076855
 20
3404.0454589071619
 11
7993.8464358200163
 21
3404.0454589071619
  0
LINE
  8
_0-0_
  6
CONTINUOUS
 62
    7
 10
7983.8468977076855
 20
3406.6594131934794
 11
7983.8468977076855
 21
3404.0454589071619
  0
LINE
  8
_0-0_
  6
CONTINUOUS
 62
    7
 10
7993.8464358200163
 20
3406.6594131934794
 11
7993.8464358200163
 21
3404.0454589071619
  0
LINE
  8
_0-0_
  6
CONTINUOUS
 62
    7
 10
8014.8471484467063
 20
3406.6594131934794
 11
7993.8464358200163
 21
3406.6594131934794
  0
LINE
  8
_0-0_
  6
CONTINUOUS
 62
    7
 10
7983.8468977076855
 20
3406.6594131934794
 11
7888.846831723733
 21
3406.6594131934794
  0
LINE
  8
_0-0_
  6
CONTINUOUS
 62
    7
 10
7888.846831723733
 20
3506.1433362034036
 11
8004.8466205750829
 21
3506.1433362034036
  0
LINE
  8
_0-0_
  6
CONTINUOUS
 62
    7
 10
7888.846831723733
 20
3522.1432900146365
 11
7888.846831723733
 21
3506.1433362034036
  0
LINE
  8
_0-0_
  6
CONTINUOUS
 62
    7
 10
7983.8468977076855
 20
3519.5293357283185
 11
7993.8464358200163
 21
3519.5293357283185
  0
LINE
  8
_0-0_
  6
CONTINUOUS
 62
    7
 10
7983.8468977076855
 20
3522.1432900146365
 11
7983.8468977076855
 21
3519.5293357283185
  0
LINE
  8
_0-0_
  6
CONTINUOUS
 62
    7
 10
7993.8464358200163
 20
3522.1432900146365
 11
7993.8464358200163
 21
3519.5293357283185
  0
LINE
  8
_0-0_
  6
CONTINUOUS
 62
    7
 10
8014.8471484467063
 20
3522.1432900146365
 11
7993.8464358200163
 21
3522.1432900146365
  0
LINE
  8
_0-0_
  6
CONTINUOUS
 62
    7
 10
7983.8468977076855
 20
3522.1432900146365
 11
7888.846831723733
 21
3522.1432900146365
  0
LINE
  8
_0-0_
  6
CONTINUOUS
 62
    7
 10
7888.846831723733
 20
3621.6272130245602
 11
8004.8466205750829
 21
3621.6272130245602
  0
LINE
  8
_0-0_
  6
CONTINUOUS
 62
    7
 10
7888.846831723733
 20
3637.6271668357936
 11
7888.846831723733
 21
3621.6272130245602
  0
LINE
  8
_0-0_
  6
CONTINUOUS
 62
    7
 10
7983.8468977076855
 20
3635.0132125494756
 11
7993.8464358200163
 21
3635.0132125494756
  0
LINE
  8
_0-0_
  6
CONTINUOUS
 62
    7
 10
7983.8468977076855
 20
3637.6271668357936
 11
7983.8468977076855
 21
3635.0132125494756
  0
LINE
  8
_0-0_
  6
CONTINUOUS
 62
    7
 10
7993.8464358200163
 20
3637.6271668357936
 11
7993.8464358200163
 21
3635.0132125494756
  0
LINE
  8
_0-0_
  6
CONTINUOUS
 62
    7
 10
8014.8471484467063
 20
3637.6271668357936
 11
7993.8464358200163
 21
3637.6271668357936
  0
LINE
  8
_0-0_
  6
CONTINUOUS
 62
    7
 10
7983.8468977076855
 20
3637.6271668357936
 11
7888.846831723733
 21
3637.6271668357936
  0
LINE
  8
_0-0_
  6
CONTINUOUS
 62
    7
 10
7888.846831723733
 20
3737.1110898457173
 11
8004.8466205750829
 21
3737.1110898457173
  0
LINE
  8
_0-0_
  6
CONTINUOUS
 62
    7
 10
7888.846831723733
 20
3753.1110436569502
 11
7888.846831723733
 21
3737.1110898457173
  0
LINE
  8
_0-0_
  6
CONTINUOUS
 62
    7
 10
7983.8468977076855
 20
3750.4970893706327
 11
7993.8464358200163
 21
3750.4970893706327
  0
LINE
  8
_0-0_
  6
CONTINUOUS
 62
    7
 10
7983.8468977076855
 20
3753.1110436569502
 11
7983.8468977076855
 21
3750.4970893706327
  0
LINE
  8
_0-0_
  6
CONTINUOUS
 62
    7
 10
7993.8464358200163
 20
3753.1110436569502
 11
7993.8464358200163
 21
3750.4970893706327
  0
LINE
  8
_0-0_
  6
CONTINUOUS
 62
    7
 10
8014.8471484467063
 20
3753.1110436569502
 11
7993.8464358200163
 21
3753.1110436569502
  0
LINE
  8
_0-0_
  6
CONTINUOUS
 62
    7
 10
7983.8468977076855
 20
3753.1110436569502
 11
7888.846831723733
 21
3753.1110436569502
  0
LINE
  8
_0-0_
  6
CONTINUOUS
 62
    7
 10
7888.846831723733
 20
3852.5949666668744
 11
8004.8466205750829
 21
3852.5949666668744
  0
LINE
  8
_0-0_
  6
CONTINUOUS
 62
    7
 10
7888.846831723733
 20
3868.5949204781077
 11
7888.846831723733
 21
3852.5949666668744
  0
LINE
  8
_0-0_
  6
CONTINUOUS
 62
    7
 10
7983.8468977076855
 20
3865.9809661917898
 11
7993.8464358200163
 21
3865.9809661917898
  0
LINE
  8
_0-0_
  6
CONTINUOUS
 62
    7
 10
7983.8468977076855
 20
3868.5949204781077
 11
7983.8468977076855
 21
3865.9809661917898
  0
LINE
  8
_0-0_
  6
CONTINUOUS
 62
    7
 10
7993.8464358200163
 20
3868.5949204781077
 11
7993.8464358200163
 21
3865.9809661917898
  0
LINE
  8
_0-0_
  6
CONTINUOUS
 62
    7
 10
8014.8471484467063
 20
3868.5949204781077
 11
7993.8464358200163
 21
3868.5949204781077
  0
LINE
  8
_0-0_
  6
CONTINUOUS
 62
    7
 10
7983.8468977076855
 20
3868.5949204781077
 11
7888.846831723733
 21
3868.5949204781077
  0
LINE
  8
_0-0_
  6
CONTINUOUS
 62
    7
 10
7888.846831723733
 20
3968.0785960482085
 11
8004.8466205750829
 21
3968.0785960482085
  0
LINE
  8
_0-0_
  6
CONTINUOUS
 62
    7
 10
7888.846831723733
 20
3984.0785498594419
 11
7888.846831723733
 21
3968.0785960482085
  0
LINE
  8
_0-0_
  6
CONTINUOUS
 62
    7
 10
7983.8468977076855
 20
3981.4645955731244
 11
7993.8464358200163
 21
3981.4645955731244
  0
LINE
  8
_0-0_
  6
CONTINUOUS
 62
    7
 10
7983.8468977076855
 20
3984.0785498594419
 11
7983.8468977076855
 21
3981.4645955731244
  0
LINE
  8
_0-0_
  6
CONTINUOUS
 62
    7
 10
7993.8464358200163
 20
3984.0785498594419
 11
7993.8464358200163
 21
3981.4645955731244
  0
LINE
  8
_0-0_
  6
CONTINUOUS
 62
    7
 10
8014.8471484467063
 20
3984.0785498594419
 11
7993.8464358200163
 21
3984.0785498594419
  0
LINE
  8
_0-0_
  6
CONTINUOUS
 62
    7
 10
7983.8468977076855
 20
3984.0785498594419
 11
7888.846831723733
 21
3984.0785498594419
  0
LINE
  8
_0-0_
  6
CONTINUOUS
 62
    7
 10
7888.846831723733
 20
4083.562720309189
 11
8004.8466205750829
 21
4083.562720309189
  0
LINE
  8
_0-0_
  6
CONTINUOUS
 62
    7
 10
7888.846831723733
 20
4099.5626741204214
 11
7888.846831723733
 21
4083.562720309189
  0
LINE
  8
_0-0_
  6
CONTINUOUS
 62
    7
 10
7983.8468977076855
 20
4096.9487198341039
 11
7993.8464358200163
 21
4096.9487198341039
  0
LINE
  8
_0-0_
  6
CONTINUOUS
 62
    7
 10
7983.8468977076855
 20
4099.5626741204214
 11
7983.8468977076855
 21
4096.9487198341039
  0
LINE
  8
_0-0_
  6
CONTINUOUS
 62
    7
 10
7993.8464358200163
 20
4099.5626741204214
 11
7993.8464358200163
 21
4096.9487198341039
  0
LINE
  8
_0-0_
  6
CONTINUOUS
 62
    7
 10
8014.8471484467063
 20
4099.5626741204214
 11
7993.8464358200163
 21
4099.5626741204214
  0
LINE
  8
_0-0_
  6
CONTINUOUS
 62
    7
 10
7983.8468977076855
 20
4099.5626741204214
 11
7888.846831723733
 21
4099.5626741204214
  0
LINE
  8
_0-0_
  6
CONTINUOUS
 62
    7
 10
7888.846831723733
 20
4199.0463496905231
 11
8004.8466205750829
 21
4199.0463496905231
  0
LINE
  8
_0-0_
  6
CONTINUOUS
 62
    7
 10
7888.846831723733
 20
4215.0463035017565
 11
7888.846831723733
 21
4199.0463496905231
  0
LINE
  8
_0-0_
  6
CONTINUOUS
 62
    7
 10
7983.8468977076855
 20
4212.432349215439
 11
7993.8464358200163
 21
4212.432349215439
  0
LINE
  8
_0-0_
  6
CONTINUOUS
 62
    7
 10
7983.8468977076855
 20
4215.0463035017565
 11
7983.8468977076855
 21
4212.432349215439
  0
LINE
  8
_0-0_
  6
CONTINUOUS
 62
    7
 10
7993.8464358200163
 20
4215.0463035017565
 11
7993.8464358200163
 21
4212.432349215439
  0
LINE
  8
_0-0_
  6
CONTINUOUS
 62
    7
 10
8014.8471484467063
 20
4215.0463035017565
 11
7993.8464358200163
 21
4215.0463035017565
  0
LINE
  8
_0-0_
  6
CONTINUOUS
 62
    7
 10
7983.8468977076855
 20
4215.0463035017565
 11
7888.846831723733
 21
4215.0463035017565
  0
LINE
  8
_0-0_
  6
CONTINUOUS
 62
    7
 10
7888.846831723733
 20
4314.5304739515032
 11
8004.8466205750829
 21
4314.5304739515032
  0
LINE
  8
_0-0_
  6
CONTINUOUS
 62
    7
 10
7888.846831723733
 20
4330.5304277627356
 11
7888.846831723733
 21
4314.5304739515032
  0
LINE
  8
_0-0_
  6
CONTINUOUS
 62
    7
 10
7983.8468977076855
 20
4327.9164734764181
 11
7993.8464358200163
 21
4327.9164734764181
  0
LINE
  8
_0-0_
  6
CONTINUOUS
 62
    7
 10
7983.8468977076855
 20
4330.5304277627356
 11
7983.8468977076855
 21
4327.9164734764181
  0
LINE
  8
_0-0_
  6
CONTINUOUS
 62
    7
 10
7993.8464358200163
 20
4330.5304277627356
 11
7993.8464358200163
 21
4327.9164734764181
  0
LINE
  8
_0-0_
  6
CONTINUOUS
 62
    7
 10
8014.8471484467063
 20
4330.5304277627356
 11
7993.8464358200163
 21
4330.5304277627356
  0
LINE
  8
_0-0_
  6
CONTINUOUS
 62
    7
 10
7983.8468977076855
 20
4330.5304277627356
 11
7888.846831723733
 21
4330.5304277627356
  0
LINE
  8
_0-0_
  6
CONTINUOUS
 62
    7
 10
7888.846831723733
 20
4430.0141033328373
 11
8004.8466205750829
 21
4430.0141033328373
  0
LINE
  8
_0-0_
  6
CONTINUOUS
 62
    7
 10
7888.846831723733
 20
4446.0140571440706
 11
7888.846831723733
 21
4430.0141033328373
  0
LINE
  8
_0-0_
  6
CONTINUOUS
 62
    7
 10
7983.8468977076855
 20
4443.4001028577532
 11
7993.8464358200163
 21
4443.4001028577532
  0
LINE
  8
_0-0_
  6
CONTINUOUS
 62
    7
 10
7983.8468977076855
 20
4446.0140571440706
 11
7983.8468977076855
 21
4443.4001028577532
  0
LINE
  8
_0-0_
  6
CONTINUOUS
 62
    7
 10
7993.8464358200163
 20
4446.0140571440706
 11
7993.8464358200163
 21
4443.4001028577532
  0
LINE
  8
_0-0_
  6
CONTINUOUS
 62
    7
 10
8014.8471484467063
 20
4446.0140571440706
 11
7993.8464358200163
 21
4446.0140571440706
  0
LINE
  8
_0-0_
  6
CONTINUOUS
 62
    7
 10
7983.8468977076855
 20
4446.0140571440706
 11
7888.846831723733
 21
4446.0140571440706
  0
LINE
  8
_0-0_
  6
CONTINUOUS
 62
    7
 10
8019.8464226232272
 20
4446.0138097042473
 11
8019.8464226232272
 21
3170.6913956153544
  0
LINE
  8
_0-0_
  6
CONTINUOUS
 62
    7
 10
8004.8466205750829
 20
3275.1758300009119
 11
8019.8464226232272
 21
3170.6913956153544
  0
LINE
  8
_0-0_
  6
CONTINUOUS
 62
    7
 10
8004.8466205750829
 20
3390.659459382246
 11
8019.8464226232272
 21
3286.175519876334
  0
LINE
  8
_0-0_
  6
CONTINUOUS
 62
    7
 10
8004.8466205750829
 20
3506.1433362034036
 11
8019.8464226232272
 21
3401.6591492576686
  0
LINE
  8
_0-0_
  6
CONTINUOUS
 62
    7
 10
8004.8466205750829
 20
3621.6272130245602
 11
8019.8464226232272
 21
3517.1430260788252
  0
LINE
  8
_0-0_
  6
CONTINUOUS
 62
    7
 10
8004.8466205750829
 20
3737.1110898457173
 11
8019.8464226232272
 21
3637.6271668357936
  0
LINE
  8
_0-0_
  6
CONTINUOUS
 62
    7
 10
8004.8466205750829
 20
3852.5949666668744
 11
8019.8464226232272
 21
3748.1107797211394
  0
LINE
  8
_0-0_
  6
CONTINUOUS
 62
    7
 10
8004.8466205750829
 20
3968.0785960482085
 11
8019.8464226232272
 21
3863.5946565422964
  0
LINE
  8
_0-0_
  6
CONTINUOUS
 62
    7
 10
8004.8466205750829
 20
4083.562720309189
 11
8019.8464226232272
 21
3979.078285923631
  0
LINE
  8
_0-0_
  6
CONTINUOUS
 62
    7
 10
8004.8466205750829
 20
4199.0463496905231
 11
8019.8464226232272
 21
4094.5624101846106
  0
LINE
  8
_0-0_
  6
CONTINUOUS
 62
    7
 10
8004.8466205750829
 20
4314.5304739515032
 11
8019.8464226232272
 21
4210.0460395659456
  0
LINE
  8
_0-0_
  6
CONTINUOUS
 62
    7
 10
8004.8466205750829
 20
4430.0141033328373
 11
8019.8464226232272
 21
4325.5301638269257
  0
LINE
  8
_0-0_
  6
CONTINUOUS
 62
    7
 10
7888.846831723733
 20
2948.2442322654811
 11
7888.846831723733
 21
2918.2441332895519
  0
LINE
  8
_0-0_
  6
CONTINUOUS
 62
    7
 10
7765.8464754103879
 20
2950.2440409120181
 11
7705.8462774585314
 21
2950.2440409120181
  0
LINE
  8
_0-0_
  6
CONTINUOUS
 62
    7
 10
7765.8464754103879
 20
2950.2440409120181
 11
7765.8464754103879
 21
2948.2442322654811
  0
LINE
  8
_0-0_
  6
CONTINUOUS
 62
    7
 10
7705.8462774585314
 20
2950.2440409120181
 11
7705.8462774585314
 21
2948.2442322654811
  0
LINE
  8
ADD_LINE
  6
DOT
 62
    3
 10
3910.8473661937487
 20
3038.8925740887494
 11
4127.1350100387663
 21
3038.8925740887494
  0
LINE
  8
_0-0_
  6
CONTINUOUS
 62
    7
 10
4063.847326603378
 20
3038.8925740887494
 11
4369.8472474226346
 21
3038.8925740887494
  0
LINE
  8
_0-0_
  6
CONTINUOUS
 62
    7
 10
4186.847188037078
 20
3040.8923827352869
 11
4246.8473859889355
 21
3040.8923827352869
  0
LINE
  8
_0-0_
  6
CONTINUOUS
 62
    7
 10
4186.847188037078
 20
3040.8923827352869
 11
4186.847188037078
 21
3038.8925740887494
  0
LINE
  8
_0-0_
  6
CONTINUOUS
 62
    7
 10
4246.8473859889355
 20
3040.8923827352869
 11
4246.8473859889355
 21
3038.8925740887494
  0
LINE
  8
_0-0_
  6
CONTINUOUS
 62
    7
 10
4369.8472474226346
 20
3038.8925740887494
 11
4369.8472474226346
 21
3008.8924751128206
  0
LINE
  8
_0-0_
  6
CONTINUOUS
 62
    7
 10
4675.8471682418913
 20
3038.8925740887494
 11
4981.8470890611488
 21
3038.8925740887494
  0
LINE
  8
_0-0_
  6
CONTINUOUS
 62
    7
 10
4675.8471682418913
 20
3008.8924751128206
 11
4981.8470890611488
 21
3008.8924751128206
  0
LINE
  8
_0-0_
  6
CONTINUOUS
 62
    7
 10
4798.8470296755913
 20
3040.8923827352869
 11
4858.8472276274497
 21
3040.8923827352869
  0
LINE
  8
_0-0_
  6
CONTINUOUS
 62
    7
 10
4798.8470296755913
 20
3040.8923827352869
 11
4798.8470296755913
 21
3038.8925740887494
  0
LINE
  8
_0-0_
  6
CONTINUOUS
 62
    7
 10
4858.8472276274497
 20
3040.8923827352869
 11
4858.8472276274497
 21
3038.8925740887494
  0
LINE
  8
_0-0_
  6
CONTINUOUS
 62
    7
 10
4675.8471682418913
 20
3038.8925740887494
 11
4675.8471682418913
 21
3008.8924751128206
  0
LINE
  8
_0-0_
  6
CONTINUOUS
 62
    7
 10
4981.8470890611488
 20
3038.8925740887494
 11
5287.8470098804046
 21
3038.8925740887494
  0
LINE
  8
_0-0_
  6
CONTINUOUS
 62
    7
 10
4981.8470890611488
 20
3008.8924751128206
 11
5287.8470098804046
 21
3008.8924751128206
  0
LINE
  8
_0-0_
  6
CONTINUOUS
 62
    7
 10
5104.8469504948471
 20
3040.8923827352869
 11
5164.8471484467054
 21
3040.8923827352869
  0
LINE
  8
_0-0_
  6
CONTINUOUS
 62
    7
 10
5104.8469504948471
 20
3040.8923827352869
 11
5104.8469504948471
 21
3038.8925740887494
  0
LINE
  8
_0-0_
  6
CONTINUOUS
 62
    7
 10
5164.8471484467054
 20
3040.8923827352869
 11
5164.8471484467054
 21
3038.8925740887494
  0
LINE
  8
_0-0_
  6
CONTINUOUS
 62
    7
 10
4981.8470890611488
 20
3038.8925740887494
 11
4981.8470890611488
 21
3008.8924751128206
  0
LINE
  8
_0-0_
  6
CONTINUOUS
 62
    7
 10
5287.8470098804046
 20
3038.8925740887494
 11
5593.8469306996631
 21
3038.8925740887494
  0
LINE
  8
_0-0_
  6
CONTINUOUS
 62
    7
 10
5287.8470098804046
 20
3008.8924751128206
 11
5593.8469306996631
 21
3008.8924751128206
  0
LINE
  8
_0-0_
  6
CONTINUOUS
 62
    7
 10
5410.8468713141046
 20
3040.8923827352869
 11
5470.847069265963
 21
3040.8923827352869
  0
LINE
  8
_0-0_
  6
CONTINUOUS
 62
    7
 10
5410.8468713141046
 20
3040.8923827352869
 11
5410.8468713141046
 21
3038.8925740887494
  0
LINE
  8
_0-0_
  6
CONTINUOUS
 62
    7
 10
5470.847069265963
 20
3040.8923827352869
 11
5470.847069265963
 21
3038.8925740887494
  0
LINE
  8
_0-0_
  6
CONTINUOUS
 62
    7
 10
5287.8470098804046
 20
3038.8925740887494
 11
5287.8470098804046
 21
3008.8924751128206
  0
LINE
  8
_0-0_
  6
CONTINUOUS
 62
    7
 10
5593.8469306996631
 20
3038.8925740887494
 11
5899.8468515189188
 21
3038.8925740887494
  0
LINE
  8
_0-0_
  6
CONTINUOUS
 62
    7
 10
5593.8469306996631
 20
3008.8924751128206
 11
5899.8468515189188
 21
3008.8924751128206
  0
LINE
  8
_0-0_
  6
CONTINUOUS
 62
    7
 10
5716.8467921333604
 20
3040.8923827352869
 11
5776.8469900852187
 21
3040.8923827352869
  0
LINE
  8
_0-0_
  6
CONTINUOUS
 62
    7
 10
5716.8467921333604
 20
3040.8923827352869
 11
5716.8467921333604
 21
3038.8925740887494
  0
LINE
  8
_0-0_
  6
CONTINUOUS
 62
    7
 10
5776.8469900852187
 20
3040.8923827352869
 11
5776.8469900852187
 21
3038.8925740887494
  0
LINE
  8
_0-0_
  6
CONTINUOUS
 62
    7
 10
5593.8469306996631
 20
3038.8925740887494
 11
5593.8469306996631
 21
3008.8924751128206
  0
LINE
  8
_0-0_
  6
CONTINUOUS
 62
    7
 10
5899.8468515189188
 20
3038.8925740887494
 11
6205.8467723381746
 21
3038.8925740887494
  0
LINE
  8
_0-0_
  6
CONTINUOUS
 62
    7
 10
5899.8468515189188
 20
3008.8924751128206
 11
6205.8467723381746
 21
3008.8924751128206
  0
LINE
  8
_0-0_
  6
CONTINUOUS
 62
    7
 10
6022.8467129526189
 20
3040.8923827352869
 11
6082.8469109044772
 21
3040.8923827352869
  0
LINE
  8
_0-0_
  6
CONTINUOUS
 62
    7
 10
6022.8467129526189
 20
3040.8923827352869
 11
6022.8467129526189
 21
3038.8925740887494
  0
LINE
  8
_0-0_
  6
CONTINUOUS
 62
    7
 10
6082.8469109044772
 20
3040.8923827352869
 11
6082.8469109044772
 21
3038.8925740887494
  0
LINE
  8
_0-0_
  6
CONTINUOUS
 62
    7
 10
5899.8468515189188
 20
3038.8925740887494
 11
5899.8468515189188
 21
3008.8924751128206
  0
LINE
  8
_0-0_
  6
CONTINUOUS
 62
    7
 10
6205.8467723381746
 20
3038.8925740887494
 11
6511.8466931574312
 21
3038.8925740887494
  0
LINE
  8
_0-0_
  6
CONTINUOUS
 62
    7
 10
6205.8467723381746
 20
3008.8924751128206
 11
6511.8466931574312
 21
3008.8924751128206
  0
LINE
  8
_0-0_
  6
CONTINUOUS
 62
    7
 10
6328.8466337718746
 20
3040.8923827352869
 11
6388.846831723733
 21
3040.8923827352869
  0
LINE
  8
_0-0_
  6
CONTINUOUS
 62
    7
 10
6328.8466337718746
 20
3040.8923827352869
 11
6328.8466337718746
 21
3038.8925740887494
  0
LINE
  8
_0-0_
  6
CONTINUOUS
 62
    7
 10
6388.846831723733
 20
3040.8923827352869
 11
6388.846831723733
 21
3038.8925740887494
  0
LINE
  8
_0-0_
  6
CONTINUOUS
 62
    7
 10
6205.8467723381746
 20
3038.8925740887494
 11
6205.8467723381746
 21
3008.8924751128206
  0
LINE
  8
_0-0_
  6
CONTINUOUS
 62
    7
 10
6511.8466931574312
 20
3038.8925740887494
 11
6817.8466139766897
 21
3038.8925740887494
  0
LINE
  8
_0-0_
  6
CONTINUOUS
 62
    7
 10
6511.8466931574312
 20
3008.8924751128206
 11
6817.8466139766897
 21
3008.8924751128206
  0
LINE
  8
_0-0_
  6
CONTINUOUS
 62
    7
 10
6634.8465545911313
 20
3040.8923827352869
 11
6694.8467525429896
 21
3040.8923827352869
  0
LINE
  8
_0-0_
  6
CONTINUOUS
 62
    7
 10
6634.8465545911313
 20
3040.8923827352869
 11
6634.8465545911313
 21
3038.8925740887494
  0
LINE
  8
_0-0_
  6
CONTINUOUS
 62
    7
 10
6694.8467525429896
 20
3040.8923827352869
 11
6694.8467525429896
 21
3038.8925740887494
  0
LINE
  8
_0-0_
  6
CONTINUOUS
 62
    7
 10
6511.8466931574312
 20
3038.8925740887494
 11
6511.8466931574312
 21
3008.8924751128206
  0
LINE
  8
_0-0_
  6
CONTINUOUS
 62
    7
 10
6817.8466139766897
 20
3038.8925740887494
 11
7123.8460399162996
 21
3038.8925740887494
  0
LINE
  8
_0-0_
  6
CONTINUOUS
 62
    7
 10
6817.8466139766897
 20
3008.8924751128206
 11
7123.8460399162996
 21
3008.8924751128206
  0
LINE
  8
_0-0_
  6
CONTINUOUS
 62
    7
 10
6940.8464754103879
 20
3040.8923827352869
 11
7000.8466733622463
 21
3040.8923827352869
  0
LINE
  8
_0-0_
  6
CONTINUOUS
 62
    7
 10
6940.8464754103879
 20
3040.8923827352869
 11
6940.8464754103879
 21
3038.8925740887494
  0
LINE
  8
_0-0_
  6
CONTINUOUS
 62
    7
 10
7000.8466733622463
 20
3040.8923827352869
 11
7000.8466733622463
 21
3038.8925740887494
  0
LINE
  8
_0-0_
  6
CONTINUOUS
 62
    7
 10
6817.8466139766897
 20
3038.8925740887494
 11
6817.8466139766897
 21
3008.8924751128206
  0
LINE
  8
_0-0_
  6
CONTINUOUS
 62
    7
 10
7123.8460399162996
 20
3038.8925740887494
 11
7123.8460399162996
 21
3008.8924751128206
  0
LINE
  8
_0-0_
  6
CONTINUOUS
 62
    7
 10
7429.845960735558
 20
3038.8925740887494
 11
7735.8458815548147
 21
3038.8925740887494
  0
LINE
  8
_0-0_
  6
CONTINUOUS
 62
    7
 10
7429.845960735558
 20
3008.8924751128206
 11
7735.8458815548147
 21
3008.8924751128206
  0
LINE
  8
_0-0_
  6
CONTINUOUS
 62
    7
 10
7552.8463170489022
 20
3040.8923827352869
 11
7612.8465150007605
 21
3040.8923827352869
  0
LINE
  8
_0-0_
  6
CONTINUOUS
 62
    7
 10
7552.8463170489022
 20
3040.8923827352869
 11
7552.8463170489022
 21
3038.8925740887494
  0
LINE
  8
_0-0_
  6
CONTINUOUS
 62
    7
 10
7612.8465150007605
 20
3040.8923827352869
 11
7612.8465150007605
 21
3038.8925740887494
  0
LINE
  8
_0-0_
  6
CONTINUOUS
 62
    7
 10
7429.845960735558
 20
3038.8925740887494
 11
7429.845960735558
 21
3008.8924751128206
  0
LINE
  8
_0-0_
  6
CONTINUOUS
 62
    7
 10
7858.8462378681579
 20
3040.8923827352869
 11
7858.8462378681579
 21
3038.8925740887494
  0
LINE
  8
_0-0_
  6
CONTINUOUS
 62
    7
 10
7735.8458815548147
 20
3038.8925740887494
 11
7735.8458815548147
 21
3008.8924751128206
  0
LINE
  8
_0-0_
  6
CONTINUOUS
 62
    7
 10
7735.8458815548147
 20
3008.8924751128206
 11
7888.846831723733
 21
3008.8924751128206
  0
LINE
  8
_0-0_
  6
CONTINUOUS
 62
    7
 10
7735.8458815548147
 20
3038.8925740887494
 11
7888.846831723733
 21
3038.8925740887494
  0
LINE
  8
_0-0_
  6
CONTINUOUS
 62
    7
 10
7858.8462378681579
 20
3040.8923827352869
 11
7888.846831723733
 21
3040.8923827352869
  0
LINE
  8
_0-0_
  6
CONTINUOUS
 62
    7
 10
4063.847326603378
 20
3038.8925740887494
 11
4063.847326603378
 21
3008.8924751128206
  0
LINE
  8
_0-0_
  6
CONTINUOUS
 62
    7
 10
3940.8474651696779
 20
3040.8923827352869
 11
3940.8474651696779
 21
3038.8925740887494
  0
LINE
  8
_0-0_
  6
CONTINUOUS
 62
    7
 10
4063.847326603378
 20
3038.8925740887494
 11
4063.847326603378
 21
3008.8924751128206
  0
LINE
  8
_0-0_
  6
CONTINUOUS
 62
    7
 10
3910.8473661937487
 20
3038.8925740887494
 11
4063.847326603378
 21
3038.8925740887494
  0
LINE
  8
_0-0_
  6
CONTINUOUS
 62
    7
 10
3910.8473661937487
 20
3040.8923827352869
 11
3940.8474651696779
 21
3040.8923827352869
  0
LINE
  8
_0-0_
  6
CONTINUOUS
 62
    7
 10
3910.8473661937487
 20
3008.8924751128206
 11
4063.847326603378
 21
3008.8924751128206
  0
LINE
  8
_0-0_
  6
CONTINUOUS
 62
    7
 10
3794.847082462753
 20
3038.8925740887494
 11
3910.8473661937487
 21
3038.8925740887494
  0
LINE
  8
_0-0_
  6
CONTINUOUS
 62
    7
 10
4063.847326603378
 20
3008.8924751128206
 11
4369.8472474226346
 21
3008.8924751128206
  0
LINE
  8
_0-0_
  6
CONTINUOUS
 62
    7
 10
4216.8472870130063
 20
3008.8924751128206
 11
4216.8472870130063
 21
2918.2441332895519
  0
LINE
  8
_0-0_
  6
CONTINUOUS
 62
    7
 10
4522.8472078322629
 20
3008.8924751128206
 11
4522.8472078322629
 21
2918.2441332895519
  0
LINE
  8
_0-0_
  6
CONTINUOUS
 62
    7
 10
4828.8471286515205
 20
3008.8924751128206
 11
4828.8471286515205
 21
2918.2441332895519
  0
LINE
  8
_0-0_
  6
CONTINUOUS
 62
    7
 10
5134.8470494707763
 20
3008.8924751128206
 11
5134.8470494707763
 21
2918.2441332895519
  0
LINE
  8
_0-0_
  6
CONTINUOUS
 62
    7
 10
5440.8469702900329
 20
3008.8924751128206
 11
5440.8469702900329
 21
2918.2441332895519
  0
LINE
  8
_0-0_
  6
CONTINUOUS
 62
    7
 10
5746.8468911092896
 20
3008.8924751128206
 11
5746.8468911092896
 21
2918.2441332895519
  0
LINE
  8
_0-0_
  6
CONTINUOUS
 62
    7
 10
6052.846811928548
 20
3008.8924751128206
 11
6052.846811928548
 21
2918.2441332895519
  0
LINE
  8
_0-0_
  6
CONTINUOUS
 62
    7
 10
6358.8467327478047
 20
3008.8924751128206
 11
6358.8467327478047
 21
2918.2441332895519
  0
LINE
  8
_0-0_
  6
CONTINUOUS
 62
    7
 10
6664.8466535670605
 20
3008.8924751128206
 11
6664.8466535670605
 21
2918.2441332895519
  0
LINE
  8
_0-0_
  6
CONTINUOUS
 62
    7
 10
6970.8465743863162
 20
3008.8924751128206
 11
6970.8465743863162
 21
2918.2441332895519
  0
LINE
  8
_0-0_
  6
CONTINUOUS
 62
    7
 10
7276.8469900852187
 20
3008.8924751128206
 11
7276.8469900852187
 21
2918.2441332895519
  0
LINE
  8
_0-0_
  6
CONTINUOUS
 62
    7
 10
7582.8469109044772
 20
3008.8924751128206
 11
7582.8469109044772
 21
2918.2441332895519
  0
LINE
  8
_0-0_
  6
CONTINUOUS
 62
    7
 10
3910.8473661937487
 20
3159.6917057399323
 11
3910.8473661937487
 21
3130.691263647449
  0
LINE
  8
_0-0_
  6
CONTINUOUS
 62
    7
 10
3910.8473661937487
 20
3160.6913626233782
 11
4216.8472870130063
 21
3160.6913626233782
  0
LINE
  8
_0-0_
  6
CONTINUOUS
 62
    7
 10
3910.8473661937487
 20
3130.691263647449
 11
4216.8472870130063
 21
3130.691263647449
  0
LINE
  8
_0-0_
  6
CONTINUOUS
 62
    7
 10
3910.8473661937487
 20
3160.6913626233782
 11
3910.8473661937487
 21
3130.691263647449
  0
LINE
  8
_0-0_
  6
CONTINUOUS
 62
    7
 10
4033.8472276274488
 20
3162.6911712699148
 11
4093.8474255793071
 21
3162.6911712699148
  0
LINE
  8
_0-0_
  6
CONTINUOUS
 62
    7
 10
4033.8472276274488
 20
3162.6911712699148
 11
4033.8472276274488
 21
3160.6913626233782
  0
LINE
  8
_0-0_
  6
CONTINUOUS
 62
    7
 10
4093.8474255793071
 20
3162.6911712699148
 11
4093.8474255793071
 21
3160.6913626233782
  0
LINE
  8
_0-0_
  6
CONTINUOUS
 62
    7
 10
4216.8472870130063
 20
3160.6913626233782
 11
4216.8472870130063
 21
3130.691263647449
  0
LINE
  8
_0-0_
  6
CONTINUOUS
 62
    7
 10
4522.8472078322629
 20
3160.6913626233782
 11
4828.8471286515205
 21
3160.6913626233782
  0
LINE
  8
_0-0_
  6
CONTINUOUS
 62
    7
 10
4522.8472078322629
 20
3130.691263647449
 11
4828.8471286515205
 21
3130.691263647449
  0
LINE
  8
_0-0_
  6
CONTINUOUS
 62
    7
 10
4645.847069265963
 20
3162.6911712699148
 11
4705.8472672178214
 21
3162.6911712699148
  0
LINE
  8
_0-0_
  6
CONTINUOUS
 62
    7
 10
4645.847069265963
 20
3162.6911712699148
 11
4645.847069265963
 21
3160.6913626233782
  0
LINE
  8
_0-0_
  6
CONTINUOUS
 62
    7
 10
4705.8472672178214
 20
3162.6911712699148
 11
4705.8472672178214
 21
3160.6913626233782
  0
LINE
  8
_0-0_
  6
CONTINUOUS
 62
    7
 10
4522.8472078322629
 20
3160.6913626233782
 11
4522.8472078322629
 21
3130.691263647449
  0
LINE
  8
_0-0_
  6
CONTINUOUS
 62
    7
 10
4828.8471286515205
 20
3160.6913626233782
 11
5134.8470494707763
 21
3160.6913626233782
  0
LINE
  8
_0-0_
  6
CONTINUOUS
 62
    7
 10
4828.8471286515205
 20
3130.691263647449
 11
5134.8470494707763
 21
3130.691263647449
  0
LINE
  8
_0-0_
  6
CONTINUOUS
 62
    7
 10
4951.8469900852197
 20
3162.6911712699148
 11
5011.847188037078
 21
3162.6911712699148
  0
LINE
  8
_0-0_
  6
CONTINUOUS
 62
    7
 10
4951.8469900852197
 20
3162.6911712699148
 11
4951.8469900852197
 21
3160.6913626233782
  0
LINE
  8
_0-0_
  6
CONTINUOUS
 62
    7
 10
5011.847188037078
 20
3162.6911712699148
 11
5011.847188037078
 21
3160.6913626233782
  0
LINE
  8
_0-0_
  6
CONTINUOUS
 62
    7
 10
4828.8471286515205
 20
3160.6913626233782
 11
4828.8471286515205
 21
3130.691263647449
  0
LINE
  8
_0-0_
  6
CONTINUOUS
 62
    7
 10
5134.8470494707763
 20
3160.6913626233782
 11
5440.8469702900329
 21
3160.6913626233782
  0
LINE
  8
_0-0_
  6
CONTINUOUS
 62
    7
 10
5134.8470494707763
 20
3130.691263647449
 11
5440.8469702900329
 21
3130.691263647449
  0
LINE
  8
_0-0_
  6
CONTINUOUS
 62
    7
 10
5257.8469109044763
 20
3162.6911712699148
 11
5317.8471088563329
 21
3162.6911712699148
  0
LINE
  8
_0-0_
  6
CONTINUOUS
 62
    7
 10
5257.8469109044763
 20
3162.6911712699148
 11
5257.8469109044763
 21
3160.6913626233782
  0
LINE
  8
_0-0_
  6
CONTINUOUS
 62
    7
 10
5317.8471088563329
 20
3162.6911712699148
 11
5317.8471088563329
 21
3160.6913626233782
  0
LINE
  8
_0-0_
  6
CONTINUOUS
 62
    7
 10
5134.8470494707763
 20
3160.6913626233782
 11
5134.8470494707763
 21
3130.691263647449
  0
LINE
  8
_0-0_
  6
CONTINUOUS
 62
    7
 10
5440.8469702900329
 20
3160.6913626233782
 11
5746.8468911092896
 21
3160.6913626233782
  0
LINE
  8
_0-0_
  6
CONTINUOUS
 62
    7
 10
5440.8469702900329
 20
3130.691263647449
 11
5746.8468911092896
 21
3130.691263647449
  0
LINE
  8
_0-0_
  6
CONTINUOUS
 62
    7
 10
5563.846831723733
 20
3162.6911712699148
 11
5623.8470296755913
 21
3162.6911712699148
  0
LINE
  8
_0-0_
  6
CONTINUOUS
 62
    7
 10
5563.846831723733
 20
3162.6911712699148
 11
5563.846831723733
 21
3160.6913626233782
  0
LINE
  8
_0-0_
  6
CONTINUOUS
 62
    7
 10
5623.8470296755913
 20
3162.6911712699148
 11
5623.8470296755913
 21
3160.6913626233782
  0
LINE
  8
_0-0_
  6
CONTINUOUS
 62
    7
 10
5440.8469702900329
 20
3160.6913626233782
 11
5440.8469702900329
 21
3130.691263647449
  0
LINE
  8
_0-0_
  6
CONTINUOUS
 62
    7
 10
5746.8468911092896
 20
3160.6913626233782
 11
6052.846811928548
 21
3160.6913626233782
  0
LINE
  8
_0-0_
  6
CONTINUOUS
 62
    7
 10
5746.8468911092896
 20
3130.691263647449
 11
6052.846811928548
 21
3130.691263647449
  0
LINE
  8
_0-0_
  6
CONTINUOUS
 62
    7
 10
5869.8467525429896
 20
3162.6911712699148
 11
5929.846950494848
 21
3162.6911712699148
  0
LINE
  8
_0-0_
  6
CONTINUOUS
 62
    7
 10
5869.8467525429896
 20
3162.6911712699148
 11
5869.8467525429896
 21
3160.6913626233782
  0
LINE
  8
_0-0_
  6
CONTINUOUS
 62
    7
 10
5929.846950494848
 20
3162.6911712699148
 11
5929.846950494848
 21
3160.6913626233782
  0
LINE
  8
_0-0_
  6
CONTINUOUS
 62
    7
 10
5746.8468911092896
 20
3160.6913626233782
 11
5746.8468911092896
 21
3130.691263647449
  0
LINE
  8
_0-0_
  6
CONTINUOUS
 62
    7
 10
6052.846811928548
 20
3160.6913626233782
 11
6358.8467327478047
 21
3160.6913626233782
  0
LINE
  8
_0-0_
  6
CONTINUOUS
 62
    7
 10
6052.846811928548
 20
3130.691263647449
 11
6358.8467327478047
 21
3130.691263647449
  0
LINE
  8
_0-0_
  6
CONTINUOUS
 62
    7
 10
6175.8466733622463
 20
3162.6911712699148
 11
6235.8468713141046
 21
3162.6911712699148
  0
LINE
  8
_0-0_
  6
CONTINUOUS
 62
    7
 10
6175.8466733622463
 20
3162.6911712699148
 11
6175.8466733622463
 21
3160.6913626233782
  0
LINE
  8
_0-0_
  6
CONTINUOUS
 62
    7
 10
6235.8468713141046
 20
3162.6911712699148
 11
6235.8468713141046
 21
3160.6913626233782
  0
LINE
  8
_0-0_
  6
CONTINUOUS
 62
    7
 10
6052.846811928548
 20
3160.6913626233782
 11
6052.846811928548
 21
3130.691263647449
  0
LINE
  8
_0-0_
  6
CONTINUOUS
 62
    7
 10
6358.8467327478047
 20
3160.6913626233782
 11
6664.8466535670605
 21
3160.6913626233782
  0
LINE
  8
_0-0_
  6
CONTINUOUS
 62
    7
 10
6358.8467327478047
 20
3130.691263647449
 11
6664.8466535670605
 21
3130.691263647449
  0
LINE
  8
_0-0_
  6
CONTINUOUS
 62
    7
 10
6481.8465941815048
 20
3162.6911712699148
 11
6541.8467921333604
 21
3162.6911712699148
  0
LINE
  8
_0-0_
  6
CONTINUOUS
 62
    7
 10
6481.8465941815048
 20
3162.6911712699148
 11
6481.8465941815048
 21
3160.6913626233782
  0
LINE
  8
_0-0_
  6
CONTINUOUS
 62
    7
 10
6541.8467921333604
 20
3162.6911712699148
 11
6541.8467921333604
 21
3160.6913626233782
  0
LINE
  8
_0-0_
  6
CONTINUOUS
 62
    7
 10
6358.8467327478047
 20
3160.6913626233782
 11
6358.8467327478047
 21
3130.691263647449
  0
LINE
  8
_0-0_
  6
CONTINUOUS
 62
    7
 10
6664.8466535670605
 20
3160.6913626233782
 11
6970.8465743863162
 21
3160.6913626233782
  0
LINE
  8
_0-0_
  6
CONTINUOUS
 62
    7
 10
6664.8466535670605
 20
3130.691263647449
 11
6970.8465743863162
 21
3130.691263647449
  0
LINE
  8
_0-0_
  6
CONTINUOUS
 62
    7
 10
6787.8465150007605
 20
3162.6911712699148
 11
6847.8467129526189
 21
3162.6911712699148
  0
LINE
  8
_0-0_
  6
CONTINUOUS
 62
    7
 10
6787.8465150007605
 20
3162.6911712699148
 11
6787.8465150007605
 21
3160.6913626233782
  0
LINE
  8
_0-0_
  6
CONTINUOUS
 62
    7
 10
6847.8467129526189
 20
3162.6911712699148
 11
6847.8467129526189
 21
3160.6913626233782
  0
LINE
  8
_0-0_
  6
CONTINUOUS
 62
    7
 10
6664.8466535670605
 20
3160.6913626233782
 11
6664.8466535670605
 21
3130.691263647449
  0
LINE
  8
_0-0_
  6
CONTINUOUS
 62
    7
 10
6970.8465743863162
 20
3160.6913626233782
 11
7276.8469900852187
 21
3160.6913626233782
  0
LINE
  8
_0-0_
  6
CONTINUOUS
 62
    7
 10
6970.8465743863162
 20
3130.691263647449
 11
7276.8469900852187
 21
3130.691263647449
  0
LINE
  8
_0-0_
  6
CONTINUOUS
 62
    7
 10
7093.8464358200163
 20
3162.6911712699148
 11
7153.8466337718746
 21
3162.6911712699148
  0
LINE
  8
_0-0_
  6
CONTINUOUS
 62
    7
 10
7093.8464358200163
 20
3162.6911712699148
 11
7093.8464358200163
 21
3160.6913626233782
  0
LINE
  8
_0-0_
  6
CONTINUOUS
 62
    7
 10
7153.8466337718746
 20
3162.6911712699148
 11
7153.8466337718746
 21
3160.6913626233782
  0
LINE
  8
_0-0_
  6
CONTINUOUS
 62
    7
 10
6970.8465743863162
 20
3160.6913626233782
 11
6970.8465743863162
 21
3130.691263647449
  0
LINE
  8
_0-0_
  6
CONTINUOUS
 62
    7
 10
7276.8469900852187
 20
3160.6913626233782
 11
7276.8469900852187
 21
3130.691263647449
  0
LINE
  8
_0-0_
  6
CONTINUOUS
 62
    7
 10
7888.846831723733
 20
3160.6913626233782
 11
7888.846831723733
 21
3130.691263647449
  0
LINE
  8
_0-0_
  6
CONTINUOUS
 62
    7
 10
7582.8469109044772
 20
3160.6913626233782
 11
7888.846831723733
 21
3160.6913626233782
  0
LINE
  8
_0-0_
  6
CONTINUOUS
 62
    7
 10
7582.8469109044772
 20
3130.691263647449
 11
7888.846831723733
 21
3130.691263647449
  0
LINE
  8
_0-0_
  6
CONTINUOUS
 62
    7
 10
7705.8462774585314
 20
3162.6911712699148
 11
7765.8464754103879
 21
3162.6911712699148
  0
LINE
  8
_0-0_
  6
CONTINUOUS
 62
    7
 10
7705.8462774585314
 20
3162.6911712699148
 11
7705.8462774585314
 21
3160.6913626233782
  0
LINE
  8
_0-0_
  6
CONTINUOUS
 62
    7
 10
7765.8464754103879
 20
3162.6911712699148
 11
7765.8464754103879
 21
3160.6913626233782
  0
LINE
  8
_0-0_
  6
CONTINUOUS
 62
    7
 10
7582.8469109044772
 20
3160.6913626233782
 11
7582.8469109044772
 21
3130.691263647449
  0
LINE
  8
_0-0_
  6
CONTINUOUS
 62
    7
 10
7888.846831723733
 20
3159.6917057399323
 11
7888.846831723733
 21
3130.691263647449
  0
LINE
  8
_0-0_
  6
CONTINUOUS
 62
    7
 10
7888.846831723733
 20
3160.6913626233782
 11
7888.846831723733
 21
3130.691263647449
  0
LINE
  8
_0-0_
  6
CONTINUOUS
 62
    7
 10
7765.8464754103879
 20
3162.6911712699148
 11
7705.8462774585314
 21
3162.6911712699148
  0
LINE
  8
_0-0_
  6
CONTINUOUS
 62
    7
 10
7765.8464754103879
 20
3162.6911712699148
 11
7765.8464754103879
 21
3160.6913626233782
  0
LINE
  8
_0-0_
  6
CONTINUOUS
 62
    7
 10
7705.8462774585314
 20
3162.6911712699148
 11
7705.8462774585314
 21
3160.6913626233782
  0
LINE
  8
ADD_LINE
  6
DOT
 62
    3
 10
3910.8473661937487
 20
3275.1758300009119
 11
4127.1350100387663
 21
3275.1758300009119
  0
LINE
  8
_0-0_
  6
CONTINUOUS
 62
    7
 10
4063.847326603378
 20
3275.1758300009119
 11
4369.8472474226346
 21
3275.1758300009119
  0
LINE
  8
_0-0_
  6
CONTINUOUS
 62
    7
 10
4186.847188037078
 20
3277.175638647449
 11
4246.8473859889355
 21
3277.175638647449
  0
LINE
  8
_0-0_
  6
CONTINUOUS
 62
    7
 10
4186.847188037078
 20
3277.175638647449
 11
4186.847188037078
 21
3275.1758300009119
  0
LINE
  8
_0-0_
  6
CONTINUOUS
 62
    7
 10
4246.8473859889355
 20
3277.175638647449
 11
4246.8473859889355
 21
3275.1758300009119
  0
LINE
  8
_0-0_
  6
CONTINUOUS
 62
    7
 10
4369.8472474226346
 20
3275.1758300009119
 11
4369.8472474226346
 21
3245.1757310249827
  0
LINE
  8
_0-0_
  6
CONTINUOUS
 62
    7
 10
4675.8471682418913
 20
3275.1758300009119
 11
4981.8470890611488
 21
3275.1758300009119
  0
LINE
  8
_0-0_
  6
CONTINUOUS
 62
    7
 10
4675.8471682418913
 20
3245.1757310249827
 11
4981.8470890611488
 21
3245.1757310249827
  0
LINE
  8
_0-0_
  6
CONTINUOUS
 62
    7
 10
4798.8470296755913
 20
3277.175638647449
 11
4858.8472276274497
 21
3277.175638647449
  0
LINE
  8
_0-0_
  6
CONTINUOUS
 62
    7
 10
4798.8470296755913
 20
3277.175638647449
 11
4798.8470296755913
 21
3275.1758300009119
  0
LINE
  8
_0-0_
  6
CONTINUOUS
 62
    7
 10
4858.8472276274497
 20
3277.175638647449
 11
4858.8472276274497
 21
3275.1758300009119
  0
LINE
  8
_0-0_
  6
CONTINUOUS
 62
    7
 10
4675.8471682418913
 20
3275.1758300009119
 11
4675.8471682418913
 21
3245.1757310249827
  0
LINE
  8
_0-0_
  6
CONTINUOUS
 62
    7
 10
4981.8470890611488
 20
3275.1758300009119
 11
5287.8470098804046
 21
3275.1758300009119
  0
LINE
  8
_0-0_
  6
CONTINUOUS
 62
    7
 10
4981.8470890611488
 20
3245.1757310249827
 11
5287.8470098804046
 21
3245.1757310249827
  0
LINE
  8
_0-0_
  6
CONTINUOUS
 62
    7
 10
5104.8469504948471
 20
3277.175638647449
 11
5164.8471484467054
 21
3277.175638647449
  0
LINE
  8
_0-0_
  6
CONTINUOUS
 62
    7
 10
5104.8469504948471
 20
3277.175638647449
 11
5104.8469504948471
 21
3275.1758300009119
  0
LINE
  8
_0-0_
  6
CONTINUOUS
 62
    7
 10
5164.8471484467054
 20
3277.175638647449
 11
5164.8471484467054
 21
3275.1758300009119
  0
LINE
  8
_0-0_
  6
CONTINUOUS
 62
    7
 10
4981.8470890611488
 20
3275.1758300009119
 11
4981.8470890611488
 21
3245.1757310249827
  0
LINE
  8
_0-0_
  6
CONTINUOUS
 62
    7
 10
5287.8470098804046
 20
3275.1758300009119
 11
5593.8469306996631
 21
3275.1758300009119
  0
LINE
  8
_0-0_
  6
CONTINUOUS
 62
    7
 10
5287.8470098804046
 20
3245.1757310249827
 11
5593.8469306996631
 21
3245.1757310249827
  0
LINE
  8
_0-0_
  6
CONTINUOUS
 62
    7
 10
5410.8468713141046
 20
3277.175638647449
 11
5470.847069265963
 21
3277.175638647449
  0
LINE
  8
_0-0_
  6
CONTINUOUS
 62
    7
 10
5410.8468713141046
 20
3277.175638647449
 11
5410.8468713141046
 21
3275.1758300009119
  0
LINE
  8
_0-0_
  6
CONTINUOUS
 62
    7
 10
5470.847069265963
 20
3277.175638647449
 11
5470.847069265963
 21
3275.1758300009119
  0
LINE
  8
_0-0_
  6
CONTINUOUS
 62
    7
 10
5287.8470098804046
 20
3275.1758300009119
 11
5287.8470098804046
 21
3245.1757310249827
  0
LINE
  8
_0-0_
  6
CONTINUOUS
 62
    7
 10
5593.8469306996631
 20
3275.1758300009119
 11
5899.8468515189188
 21
3275.1758300009119
  0
LINE
  8
_0-0_
  6
CONTINUOUS
 62
    7
 10
5593.8469306996631
 20
3245.1757310249827
 11
5899.8468515189188
 21
3245.1757310249827
  0
LINE
  8
_0-0_
  6
CONTINUOUS
 62
    7
 10
5716.8467921333604
 20
3277.175638647449
 11
5776.8469900852187
 21
3277.175638647449
  0
LINE
  8
_0-0_
  6
CONTINUOUS
 62
    7
 10
5716.8467921333604
 20
3277.175638647449
 11
5716.8467921333604
 21
3275.1758300009119
  0
LINE
  8
_0-0_
  6
CONTINUOUS
 62
    7
 10
5776.8469900852187
 20
3277.175638647449
 11
5776.8469900852187
 21
3275.1758300009119
  0
LINE
  8
_0-0_
  6
CONTINUOUS
 62
    7
 10
5593.8469306996631
 20
3275.1758300009119
 11
5593.8469306996631
 21
3245.1757310249827
  0
LINE
  8
_0-0_
  6
CONTINUOUS
 62
    7
 10
5899.8468515189188
 20
3275.1758300009119
 11
6205.8467723381746
 21
3275.1758300009119
  0
LINE
  8
_0-0_
  6
CONTINUOUS
 62
    7
 10
5899.8468515189188
 20
3245.1757310249827
 11
6205.8467723381746
 21
3245.1757310249827
  0
LINE
  8
_0-0_
  6
CONTINUOUS
 62
    7
 10
6022.8467129526189
 20
3277.175638647449
 11
6082.8469109044772
 21
3277.175638647449
  0
LINE
  8
_0-0_
  6
CONTINUOUS
 62
    7
 10
6022.8467129526189
 20
3277.175638647449
 11
6022.8467129526189
 21
3275.1758300009119
  0
LINE
  8
_0-0_
  6
CONTINUOUS
 62
    7
 10
6082.8469109044772
 20
3277.175638647449
 11
6082.8469109044772
 21
3275.1758300009119
  0
LINE
  8
_0-0_
  6
CONTINUOUS
 62
    7
 10
5899.8468515189188
 20
3275.1758300009119
 11
5899.8468515189188
 21
3245.1757310249827
  0
LINE
  8
_0-0_
  6
CONTINUOUS
 62
    7
 10
6205.8467723381746
 20
3275.1758300009119
 11
6511.8466931574312
 21
3275.1758300009119
  0
LINE
  8
_0-0_
  6
CONTINUOUS
 62
    7
 10
6205.8467723381746
 20
3245.1757310249827
 11
6511.8466931574312
 21
3245.1757310249827
  0
LINE
  8
_0-0_
  6
CONTINUOUS
 62
    7
 10
6328.8466337718746
 20
3277.175638647449
 11
6388.846831723733
 21
3277.175638647449
  0
LINE
  8
_0-0_
  6
CONTINUOUS
 62
    7
 10
6328.8466337718746
 20
3277.175638647449
 11
6328.8466337718746
 21
3275.1758300009119
  0
LINE
  8
_0-0_
  6
CONTINUOUS
 62
    7
 10
6388.846831723733
 20
3277.175638647449
 11
6388.846831723733
 21
3275.1758300009119
  0
LINE
  8
_0-0_
  6
CONTINUOUS
 62
    7
 10
6205.8467723381746
 20
3275.1758300009119
 11
6205.8467723381746
 21
3245.1757310249827
  0
LINE
  8
_0-0_
  6
CONTINUOUS
 62
    7
 10
6511.8466931574312
 20
3275.1758300009119
 11
6817.8466139766897
 21
3275.1758300009119
  0
LINE
  8
_0-0_
  6
CONTINUOUS
 62
    7
 10
6511.8466931574312
 20
3245.1757310249827
 11
6817.8466139766897
 21
3245.1757310249827
  0
LINE
  8
_0-0_
  6
CONTINUOUS
 62
    7
 10
6634.8465545911313
 20
3277.175638647449
 11
6694.8467525429896
 21
3277.175638647449
  0
LINE
  8
_0-0_
  6
CONTINUOUS
 62
    7
 10
6634.8465545911313
 20
3277.175638647449
 11
6634.8465545911313
 21
3275.1758300009119
  0
LINE
  8
_0-0_
  6
CONTINUOUS
 62
    7
 10
6694.8467525429896
 20
3277.175638647449
 11
6694.8467525429896
 21
3275.1758300009119
  0
LINE
  8
_0-0_
  6
CONTINUOUS
 62
    7
 10
6511.8466931574312
 20
3275.1758300009119
 11
6511.8466931574312
 21
3245.1757310249827
  0
LINE
  8
_0-0_
  6
CONTINUOUS
 62
    7
 10
6817.8466139766897
 20
3275.1758300009119
 11
7123.8460399162996
 21
3275.1758300009119
  0
LINE
  8
_0-0_
  6
CONTINUOUS
 62
    7
 10
6817.8466139766897
 20
3245.1757310249827
 11
7123.8460399162996
 21
3245.1757310249827
  0
LINE
  8
_0-0_
  6
CONTINUOUS
 62
    7
 10
6940.8464754103879
 20
3277.175638647449
 11
7000.8466733622463
 21
3277.175638647449
  0
LINE
  8
_0-0_
  6
CONTINUOUS
 62
    7
 10
6940.8464754103879
 20
3277.175638647449
 11
6940.8464754103879
 21
3275.1758300009119
  0
LINE
  8
_0-0_
  6
CONTINUOUS
 62
    7
 10
7000.8466733622463
 20
3277.175638647449
 11
7000.8466733622463
 21
3275.1758300009119
  0
LINE
  8
_0-0_
  6
CONTINUOUS
 62
    7
 10
6817.8466139766897
 20
3275.1758300009119
 11
6817.8466139766897
 21
3245.1757310249827
  0
LINE
  8
_0-0_
  6
CONTINUOUS
 62
    7
 10
7123.8460399162996
 20
3275.1758300009119
 11
7123.8460399162996
 21
3245.1757310249827
  0
LINE
  8
_0-0_
  6
CONTINUOUS
 62
    7
 10
7429.845960735558
 20
3275.1758300009119
 11
7735.8458815548147
 21
3275.1758300009119
  0
LINE
  8
_0-0_
  6
CONTINUOUS
 62
    7
 10
7429.845960735558
 20
3245.1757310249827
 11
7735.8458815548147
 21
3245.1757310249827
  0
LINE
  8
_0-0_
  6
CONTINUOUS
 62
    7
 10
7552.8463170489022
 20
3277.175638647449
 11
7612.8465150007605
 21
3277.175638647449
  0
LINE
  8
_0-0_
  6
CONTINUOUS
 62
    7
 10
7552.8463170489022
 20
3277.175638647449
 11
7552.8463170489022
 21
3275.1758300009119
  0
LINE
  8
_0-0_
  6
CONTINUOUS
 62
    7
 10
7612.8465150007605
 20
3277.175638647449
 11
7612.8465150007605
 21
3275.1758300009119
  0
LINE
  8
_0-0_
  6
CONTINUOUS
 62
    7
 10
7429.845960735558
 20
3275.1758300009119
 11
7429.845960735558
 21
3245.1757310249827
  0
LINE
  8
_0-0_
  6
CONTINUOUS
 62
    7
 10
7858.8462378681579
 20
3277.175638647449
 11
7858.8462378681579
 21
3275.1758300009119
  0
LINE
  8
_0-0_
  6
CONTINUOUS
 62
    7
 10
7735.8458815548147
 20
3275.1758300009119
 11
7735.8458815548147
 21
3245.1757310249827
  0
LINE
  8
_0-0_
  6
CONTINUOUS
 62
    7
 10
7735.8458815548147
 20
3245.1757310249827
 11
7888.846831723733
 21
3245.1757310249827
  0
LINE
  8
_0-0_
  6
CONTINUOUS
 62
    7
 10
7735.8458815548147
 20
3275.1758300009119
 11
7888.846831723733
 21
3275.1758300009119
  0
LINE
  8
_0-0_
  6
CONTINUOUS
 62
    7
 10
7858.8462378681579
 20
3277.175638647449
 11
7888.846831723733
 21
3277.175638647449
  0
LINE
  8
_0-0_
  6
CONTINUOUS
 62
    7
 10
4063.847326603378
 20
3275.1758300009119
 11
4063.847326603378
 21
3245.1757310249827
  0
LINE
  8
_0-0_
  6
CONTINUOUS
 62
    7
 10
3940.8474651696779
 20
3277.175638647449
 11
3940.8474651696779
 21
3275.1758300009119
  0
LINE
  8
_0-0_
  6
CONTINUOUS
 62
    7
 10
4063.847326603378
 20
3275.1758300009119
 11
4063.847326603378
 21
3245.1757310249827
  0
LINE
  8
_0-0_
  6
CONTINUOUS
 62
    7
 10
3910.8473661937487
 20
3275.1758300009119
 11
4063.847326603378
 21
3275.1758300009119
  0
LINE
  8
_0-0_
  6
CONTINUOUS
 62
    7
 10
3910.8473661937487
 20
3277.175638647449
 11
3940.8474651696779
 21
3277.175638647449
  0
LINE
  8
_0-0_
  6
CONTINUOUS
 62
    7
 10
3910.8473661937487
 20
3245.1757310249827
 11
4063.847326603378
 21
3245.1757310249827
  0
LINE
  8
_0-0_
  6
CONTINUOUS
 62
    7
 10
4063.847326603378
 20
3245.1757310249827
 11
4369.8472474226346
 21
3245.1757310249827
  0
LINE
  8
_0-0_
  6
CONTINUOUS
 62
    7
 10
3910.8473661937487
 20
3389.6598024988002
 11
3910.8473661937487
 21
3360.6593604063169
  0
LINE
  8
_0-0_
  6
CONTINUOUS
 62
    7
 10
3910.8473661937487
 20
3390.659459382246
 11
4216.8472870130063
 21
3390.659459382246
  0
LINE
  8
_0-0_
  6
CONTINUOUS
 62
    7
 10
3910.8473661937487
 20
3360.6593604063169
 11
4216.8472870130063
 21
3360.6593604063169
  0
LINE
  8
_0-0_
  6
CONTINUOUS
 62
    7
 10
3910.8473661937487
 20
3390.659459382246
 11
3910.8473661937487
 21
3360.6593604063169
  0
LINE
  8
_0-0_
  6
CONTINUOUS
 62
    7
 10
4033.8472276274488
 20
3392.6592680287831
 11
4093.8474255793071
 21
3392.6592680287831
  0
LINE
  8
_0-0_
  6
CONTINUOUS
 62
    7
 10
4033.8472276274488
 20
3392.6592680287831
 11
4033.8472276274488
 21
3390.659459382246
  0
LINE
  8
_0-0_
  6
CONTINUOUS
 62
    7
 10
4093.8474255793071
 20
3392.6592680287831
 11
4093.8474255793071
 21
3390.659459382246
  0
LINE
  8
_0-0_
  6
CONTINUOUS
 62
    7
 10
4522.8472078322629
 20
3390.659459382246
 11
4828.8471286515205
 21
3390.659459382246
  0
LINE
  8
_0-0_
  6
CONTINUOUS
 62
    7
 10
4522.8472078322629
 20
3360.6593604063169
 11
4828.8471286515205
 21
3360.6593604063169
  0
LINE
  8
_0-0_
  6
CONTINUOUS
 62
    7
 10
4645.847069265963
 20
3392.6592680287831
 11
4705.8472672178214
 21
3392.6592680287831
  0
LINE
  8
_0-0_
  6
CONTINUOUS
 62
    7
 10
4645.847069265963
 20
3392.6592680287831
 11
4645.847069265963
 21
3390.659459382246
  0
LINE
  8
_0-0_
  6
CONTINUOUS
 62
    7
 10
4705.8472672178214
 20
3392.6592680287831
 11
4705.8472672178214
 21
3390.659459382246
  0
LINE
  8
_0-0_
  6
CONTINUOUS
 62
    7
 10
4828.8471286515205
 20
3390.659459382246
 11
5134.8470494707763
 21
3390.659459382246
  0
LINE
  8
_0-0_
  6
CONTINUOUS
 62
    7
 10
4828.8471286515205
 20
3360.6593604063169
 11
5134.8470494707763
 21
3360.6593604063169
  0
LINE
  8
_0-0_
  6
CONTINUOUS
 62
    7
 10
4951.8469900852197
 20
3392.6592680287831
 11
5011.847188037078
 21
3392.6592680287831
  0
LINE
  8
_0-0_
  6
CONTINUOUS
 62
    7
 10
4951.8469900852197
 20
3392.6592680287831
 11
4951.8469900852197
 21
3390.659459382246
  0
LINE
  8
_0-0_
  6
CONTINUOUS
 62
    7
 10
5011.847188037078
 20
3392.6592680287831
 11
5011.847188037078
 21
3390.659459382246
  0
LINE
  8
_0-0_
  6
CONTINUOUS
 62
    7
 10
5134.8470494707763
 20
3390.659459382246
 11
5440.8469702900329
 21
3390.659459382246
  0
LINE
  8
_0-0_
  6
CONTINUOUS
 62
    7
 10
5134.8470494707763
 20
3360.6593604063169
 11
5440.8469702900329
 21
3360.6593604063169
  0
LINE
  8
_0-0_
  6
CONTINUOUS
 62
    7
 10
5257.8469109044763
 20
3392.6592680287831
 11
5317.8471088563329
 21
3392.6592680287831
  0
LINE
  8
_0-0_
  6
CONTINUOUS
 62
    7
 10
5257.8469109044763
 20
3392.6592680287831
 11
5257.8469109044763
 21
3390.659459382246
  0
LINE
  8
_0-0_
  6
CONTINUOUS
 62
    7
 10
5317.8471088563329
 20
3392.6592680287831
 11
5317.8471088563329
 21
3390.659459382246
  0
LINE
  8
_0-0_
  6
CONTINUOUS
 62
    7
 10
5440.8469702900329
 20
3390.659459382246
 11
5746.8468911092896
 21
3390.659459382246
  0
LINE
  8
_0-0_
  6
CONTINUOUS
 62
    7
 10
5440.8469702900329
 20
3360.6593604063169
 11
5746.8468911092896
 21
3360.6593604063169
  0
LINE
  8
_0-0_
  6
CONTINUOUS
 62
    7
 10
5563.846831723733
 20
3392.6592680287831
 11
5623.8470296755913
 21
3392.6592680287831
  0
LINE
  8
_0-0_
  6
CONTINUOUS
 62
    7
 10
5563.846831723733
 20
3392.6592680287831
 11
5563.846831723733
 21
3390.659459382246
  0
LINE
  8
_0-0_
  6
CONTINUOUS
 62
    7
 10
5623.8470296755913
 20
3392.6592680287831
 11
5623.8470296755913
 21
3390.659459382246
  0
LINE
  8
_0-0_
  6
CONTINUOUS
 62
    7
 10
5746.8468911092896
 20
3390.659459382246
 11
6052.846811928548
 21
3390.659459382246
  0
LINE
  8
_0-0_
  6
CONTINUOUS
 62
    7
 10
5746.8468911092896
 20
3360.6593604063169
 11
6052.846811928548
 21
3360.6593604063169
  0
LINE
  8
_0-0_
  6
CONTINUOUS
 62
    7
 10
5869.8467525429896
 20
3392.6592680287831
 11
5929.846950494848
 21
3392.6592680287831
  0
LINE
  8
_0-0_
  6
CONTINUOUS
 62
    7
 10
5869.8467525429896
 20
3392.6592680287831
 11
5869.8467525429896
 21
3390.659459382246
  0
LINE
  8
_0-0_
  6
CONTINUOUS
 62
    7
 10
5929.846950494848
 20
3392.6592680287831
 11
5929.846950494848
 21
3390.659459382246
  0
LINE
  8
_0-0_
  6
CONTINUOUS
 62
    7
 10
6052.846811928548
 20
3390.659459382246
 11
6358.8467327478047
 21
3390.659459382246
  0
LINE
  8
_0-0_
  6
CONTINUOUS
 62
    7
 10
6052.846811928548
 20
3360.6593604063169
 11
6358.8467327478047
 21
3360.6593604063169
  0
LINE
  8
_0-0_
  6
CONTINUOUS
 62
    7
 10
6175.8466733622463
 20
3392.6592680287831
 11
6235.8468713141046
 21
3392.6592680287831
  0
LINE
  8
_0-0_
  6
CONTINUOUS
 62
    7
 10
6175.8466733622463
 20
3392.6592680287831
 11
6175.8466733622463
 21
3390.659459382246
  0
LINE
  8
_0-0_
  6
CONTINUOUS
 62
    7
 10
6235.8468713141046
 20
3392.6592680287831
 11
6235.8468713141046
 21
3390.659459382246
  0
LINE
  8
_0-0_
  6
CONTINUOUS
 62
    7
 10
6358.8467327478047
 20
3390.659459382246
 11
6664.8466535670605
 21
3390.659459382246
  0
LINE
  8
_0-0_
  6
CONTINUOUS
 62
    7
 10
6358.8467327478047
 20
3360.6593604063169
 11
6664.8466535670605
 21
3360.6593604063169
  0
LINE
  8
_0-0_
  6
CONTINUOUS
 62
    7
 10
6481.8465941815048
 20
3392.6592680287831
 11
6541.8467921333604
 21
3392.6592680287831
  0
LINE
  8
_0-0_
  6
CONTINUOUS
 62
    7
 10
6481.8465941815048
 20
3392.6592680287831
 11
6481.8465941815048
 21
3390.659459382246
  0
LINE
  8
_0-0_
  6
CONTINUOUS
 62
    7
 10
6541.8467921333604
 20
3392.6592680287831
 11
6541.8467921333604
 21
3390.659459382246
  0
LINE
  8
_0-0_
  6
CONTINUOUS
 62
    7
 10
6664.8466535670605
 20
3390.659459382246
 11
6970.8465743863162
 21
3390.659459382246
  0
LINE
  8
_0-0_
  6
CONTINUOUS
 62
    7
 10
6664.8466535670605
 20
3360.6593604063169
 11
6970.8465743863162
 21
3360.6593604063169
  0
LINE
  8
_0-0_
  6
CONTINUOUS
 62
    7
 10
6787.8465150007605
 20
3392.6592680287831
 11
6847.8467129526189
 21
3392.6592680287831
  0
LINE
  8
_0-0_
  6
CONTINUOUS
 62
    7
 10
6787.8465150007605
 20
3392.6592680287831
 11
6787.8465150007605
 21
3390.659459382246
  0
LINE
  8
_0-0_
  6
CONTINUOUS
 62
    7
 10
6847.8467129526189
 20
3392.6592680287831
 11
6847.8467129526189
 21
3390.659459382246
  0
LINE
  8
_0-0_
  6
CONTINUOUS
 62
    7
 10
6970.8465743863162
 20
3390.659459382246
 11
7276.8469900852187
 21
3390.659459382246
  0
LINE
  8
_0-0_
  6
CONTINUOUS
 62
    7
 10
6970.8465743863162
 20
3360.6593604063169
 11
7276.8469900852187
 21
3360.6593604063169
  0
LINE
  8
_0-0_
  6
CONTINUOUS
 62
    7
 10
7093.8464358200163
 20
3392.6592680287831
 11
7153.8466337718746
 21
3392.6592680287831
  0
LINE
  8
_0-0_
  6
CONTINUOUS
 62
    7
 10
7093.8464358200163
 20
3392.6592680287831
 11
7093.8464358200163
 21
3390.659459382246
  0
LINE
  8
_0-0_
  6
CONTINUOUS
 62
    7
 10
7153.8466337718746
 20
3392.6592680287831
 11
7153.8466337718746
 21
3390.659459382246
  0
LINE
  8
_0-0_
  6
CONTINUOUS
 62
    7
 10
7888.846831723733
 20
3390.659459382246
 11
7888.846831723733
 21
3360.6593604063169
  0
LINE
  8
_0-0_
  6
CONTINUOUS
 62
    7
 10
7582.8469109044772
 20
3390.659459382246
 11
7888.846831723733
 21
3390.659459382246
  0
LINE
  8
_0-0_
  6
CONTINUOUS
 62
    7
 10
7582.8469109044772
 20
3360.6593604063169
 11
7888.846831723733
 21
3360.6593604063169
  0
LINE
  8
_0-0_
  6
CONTINUOUS
 62
    7
 10
7705.8462774585314
 20
3392.6592680287831
 11
7765.8464754103879
 21
3392.6592680287831
  0
LINE
  8
_0-0_
  6
CONTINUOUS
 62
    7
 10
7705.8462774585314
 20
3392.6592680287831
 11
7705.8462774585314
 21
3390.659459382246
  0
LINE
  8
_0-0_
  6
CONTINUOUS
 62
    7
 10
7765.8464754103879
 20
3392.6592680287831
 11
7765.8464754103879
 21
3390.659459382246
  0
LINE
  8
_0-0_
  6
CONTINUOUS
 62
    7
 10
7888.846831723733
 20
3389.6598024988002
 11
7888.846831723733
 21
3360.6593604063169
  0
LINE
  8
_0-0_
  6
CONTINUOUS
 62
    7
 10
7888.846831723733
 20
3390.659459382246
 11
7888.846831723733
 21
3360.6593604063169
  0
LINE
  8
_0-0_
  6
CONTINUOUS
 62
    7
 10
7765.8464754103879
 20
3392.6592680287831
 11
7705.8462774585314
 21
3392.6592680287831
  0
LINE
  8
_0-0_
  6
CONTINUOUS
 62
    7
 10
7765.8464754103879
 20
3392.6592680287831
 11
7765.8464754103879
 21
3390.659459382246
  0
LINE
  8
_0-0_
  6
CONTINUOUS
 62
    7
 10
7705.8462774585314
 20
3392.6592680287831
 11
7705.8462774585314
 21
3390.659459382246
  0
LINE
  8
_0-0_
  6
CONTINUOUS
 62
    7
 10
3910.8473661937487
 20
3620.6275561411144
 11
3910.8473661937487
 21
3591.627114048631
  0
LINE
  8
_0-0_
  6
CONTINUOUS
 62
    7
 10
3910.8473661937487
 20
3621.6272130245602
 11
4216.8472870130063
 21
3621.6272130245602
  0
LINE
  8
_0-0_
  6
CONTINUOUS
 62
    7
 10
3910.8473661937487
 20
3591.627114048631
 11
4216.8472870130063
 21
3591.627114048631
  0
LINE
  8
_0-0_
  6
CONTINUOUS
 62
    7
 10
3910.8473661937487
 20
3621.6272130245602
 11
3910.8473661937487
 21
3591.627114048631
  0
LINE
  8
_0-0_
  6
CONTINUOUS
 62
    7
 10
4033.8472276274488
 20
3623.6270216710973
 11
4093.8474255793071
 21
3623.6270216710973
  0
LINE
  8
_0-0_
  6
CONTINUOUS
 62
    7
 10
4033.8472276274488
 20
3623.6270216710973
 11
4033.8472276274488
 21
3621.6272130245602
  0
LINE
  8
_0-0_
  6
CONTINUOUS
 62
    7
 10
4093.8474255793071
 20
3623.6270216710973
 11
4093.8474255793071
 21
3621.6272130245602
  0
LINE
  8
_0-0_
  6
CONTINUOUS
 62
    7
 10
4522.8472078322629
 20
3621.6272130245602
 11
4828.8471286515205
 21
3621.6272130245602
  0
LINE
  8
_0-0_
  6
CONTINUOUS
 62
    7
 10
4522.8472078322629
 20
3591.627114048631
 11
4828.8471286515205
 21
3591.627114048631
  0
LINE
  8
_0-0_
  6
CONTINUOUS
 62
    7
 10
4645.847069265963
 20
3623.6270216710973
 11
4705.8472672178214
 21
3623.6270216710973
  0
LINE
  8
_0-0_
  6
CONTINUOUS
 62
    7
 10
4645.847069265963
 20
3623.6270216710973
 11
4645.847069265963
 21
3621.6272130245602
  0
LINE
  8
_0-0_
  6
CONTINUOUS
 62
    7
 10
4705.8472672178214
 20
3623.6270216710973
 11
4705.8472672178214
 21
3621.6272130245602
  0
LINE
  8
_0-0_
  6
CONTINUOUS
 62
    7
 10
4828.8471286515205
 20
3621.6272130245602
 11
5134.8470494707763
 21
3621.6272130245602
  0
LINE
  8
_0-0_
  6
CONTINUOUS
 62
    7
 10
4828.8471286515205
 20
3591.627114048631
 11
5134.8470494707763
 21
3591.627114048631
  0
LINE
  8
_0-0_
  6
CONTINUOUS
 62
    7
 10
4951.8469900852197
 20
3623.6270216710973
 11
5011.847188037078
 21
3623.6270216710973
  0
LINE
  8
_0-0_
  6
CONTINUOUS
 62
    7
 10
4951.8469900852197
 20
3623.6270216710973
 11
4951.8469900852197
 21
3621.6272130245602
  0
LINE
  8
_0-0_
  6
CONTINUOUS
 62
    7
 10
5011.847188037078
 20
3623.6270216710973
 11
5011.847188037078
 21
3621.6272130245602
  0
LINE
  8
_0-0_
  6
CONTINUOUS
 62
    7
 10
5134.8470494707763
 20
3621.6272130245602
 11
5440.8469702900329
 21
3621.6272130245602
  0
LINE
  8
_0-0_
  6
CONTINUOUS
 62
    7
 10
5134.8470494707763
 20
3591.627114048631
 11
5440.8469702900329
 21
3591.627114048631
  0
LINE
  8
_0-0_
  6
CONTINUOUS
 62
    7
 10
5257.8469109044763
 20
3623.6270216710973
 11
5317.8471088563329
 21
3623.6270216710973
  0
LINE
  8
_0-0_
  6
CONTINUOUS
 62
    7
 10
5257.8469109044763
 20
3623.6270216710973
 11
5257.8469109044763
 21
3621.6272130245602
  0
LINE
  8
_0-0_
  6
CONTINUOUS
 62
    7
 10
5317.8471088563329
 20
3623.6270216710973
 11
5317.8471088563329
 21
3621.6272130245602
  0
LINE
  8
_0-0_
  6
CONTINUOUS
 62
    7
 10
5440.8469702900329
 20
3621.6272130245602
 11
5746.8468911092896
 21
3621.6272130245602
  0
LINE
  8
_0-0_
  6
CONTINUOUS
 62
    7
 10
5440.8469702900329
 20
3591.627114048631
 11
5746.8468911092896
 21
3591.627114048631
  0
LINE
  8
_0-0_
  6
CONTINUOUS
 62
    7
 10
5563.846831723733
 20
3623.6270216710973
 11
5623.8470296755913
 21
3623.6270216710973
  0
LINE
  8
_0-0_
  6
CONTINUOUS
 62
    7
 10
5563.846831723733
 20
3623.6270216710973
 11
5563.846831723733
 21
3621.6272130245602
  0
LINE
  8
_0-0_
  6
CONTINUOUS
 62
    7
 10
5623.8470296755913
 20
3623.6270216710973
 11
5623.8470296755913
 21
3621.6272130245602
  0
LINE
  8
_0-0_
  6
CONTINUOUS
 62
    7
 10
5746.8468911092896
 20
3621.6272130245602
 11
6052.846811928548
 21
3621.6272130245602
  0
LINE
  8
_0-0_
  6
CONTINUOUS
 62
    7
 10
5746.8468911092896
 20
3591.627114048631
 11
6052.846811928548
 21
3591.627114048631
  0
LINE
  8
_0-0_
  6
CONTINUOUS
 62
    7
 10
5869.8467525429896
 20
3623.6270216710973
 11
5929.846950494848
 21
3623.6270216710973
  0
LINE
  8
_0-0_
  6
CONTINUOUS
 62
    7
 10
5869.8467525429896
 20
3623.6270216710973
 11
5869.8467525429896
 21
3621.6272130245602
  0
LINE
  8
_0-0_
  6
CONTINUOUS
 62
    7
 10
5929.846950494848
 20
3623.6270216710973
 11
5929.846950494848
 21
3621.6272130245602
  0
LINE
  8
_0-0_
  6
CONTINUOUS
 62
    7
 10
6052.846811928548
 20
3621.6272130245602
 11
6358.8467327478047
 21
3621.6272130245602
  0
LINE
  8
_0-0_
  6
CONTINUOUS
 62
    7
 10
6052.846811928548
 20
3591.627114048631
 11
6358.8467327478047
 21
3591.627114048631
  0
LINE
  8
_0-0_
  6
CONTINUOUS
 62
    7
 10
6175.8466733622463
 20
3623.6270216710973
 11
6235.8468713141046
 21
3623.6270216710973
  0
LINE
  8
_0-0_
  6
CONTINUOUS
 62
    7
 10
6175.8466733622463
 20
3623.6270216710973
 11
6175.8466733622463
 21
3621.6272130245602
  0
LINE
  8
_0-0_
  6
CONTINUOUS
 62
    7
 10
6235.8468713141046
 20
3623.6270216710973
 11
6235.8468713141046
 21
3621.6272130245602
  0
LINE
  8
_0-0_
  6
CONTINUOUS
 62
    7
 10
6358.8467327478047
 20
3621.6272130245602
 11
6664.8466535670605
 21
3621.6272130245602
  0
LINE
  8
_0-0_
  6
CONTINUOUS
 62
    7
 10
6358.8467327478047
 20
3591.627114048631
 11
6664.8466535670605
 21
3591.627114048631
  0
LINE
  8
_0-0_
  6
CONTINUOUS
 62
    7
 10
6481.8465941815048
 20
3623.6270216710973
 11
6541.8467921333604
 21
3623.6270216710973
  0
LINE
  8
_0-0_
  6
CONTINUOUS
 62
    7
 10
6481.8465941815048
 20
3623.6270216710973
 11
6481.8465941815048
 21
3621.6272130245602
  0
LINE
  8
_0-0_
  6
CONTINUOUS
 62
    7
 10
6541.8467921333604
 20
3623.6270216710973
 11
6541.8467921333604
 21
3621.6272130245602
  0
LINE
  8
_0-0_
  6
CONTINUOUS
 62
    7
 10
6664.8466535670605
 20
3621.6272130245602
 11
6970.8465743863162
 21
3621.6272130245602
  0
LINE
  8
_0-0_
  6
CONTINUOUS
 62
    7
 10
6664.8466535670605
 20
3591.627114048631
 11
6970.8465743863162
 21
3591.627114048631
  0
LINE
  8
_0-0_
  6
CONTINUOUS
 62
    7
 10
6787.8465150007605
 20
3623.6270216710973
 11
6847.8467129526189
 21
3623.6270216710973
  0
LINE
  8
_0-0_
  6
CONTINUOUS
 62
    7
 10
6787.8465150007605
 20
3623.6270216710973
 11
6787.8465150007605
 21
3621.6272130245602
  0
LINE
  8
_0-0_
  6
CONTINUOUS
 62
    7
 10
6847.8467129526189
 20
3623.6270216710973
 11
6847.8467129526189
 21
3621.6272130245602
  0
LINE
  8
_0-0_
  6
CONTINUOUS
 62
    7
 10
6970.8465743863162
 20
3621.6272130245602
 11
7276.8469900852187
 21
3621.6272130245602
  0
LINE
  8
_0-0_
  6
CONTINUOUS
 62
    7
 10
6970.8465743863162
 20
3591.627114048631
 11
7276.8469900852187
 21
3591.627114048631
  0
LINE
  8
_0-0_
  6
CONTINUOUS
 62
    7
 10
7093.8464358200163
 20
3623.6270216710973
 11
7153.8466337718746
 21
3623.6270216710973
  0
LINE
  8
_0-0_
  6
CONTINUOUS
 62
    7
 10
7093.8464358200163
 20
3623.6270216710973
 11
7093.8464358200163
 21
3621.6272130245602
  0
LINE
  8
_0-0_
  6
CONTINUOUS
 62
    7
 10
7153.8466337718746
 20
3623.6270216710973
 11
7153.8466337718746
 21
3621.6272130245602
  0
LINE
  8
_0-0_
  6
CONTINUOUS
 62
    7
 10
7888.846831723733
 20
3621.6272130245602
 11
7888.846831723733
 21
3591.627114048631
  0
LINE
  8
_0-0_
  6
CONTINUOUS
 62
    7
 10
7582.8469109044772
 20
3621.6272130245602
 11
7888.846831723733
 21
3621.6272130245602
  0
LINE
  8
_0-0_
  6
CONTINUOUS
 62
    7
 10
7582.8469109044772
 20
3591.627114048631
 11
7888.846831723733
 21
3591.627114048631
  0
LINE
  8
_0-0_
  6
CONTINUOUS
 62
    7
 10
7705.8462774585314
 20
3623.6270216710973
 11
7765.8464754103879
 21
3623.6270216710973
  0
LINE
  8
_0-0_
  6
CONTINUOUS
 62
    7
 10
7705.8462774585314
 20
3623.6270216710973
 11
7705.8462774585314
 21
3621.6272130245602
  0
LINE
  8
_0-0_
  6
CONTINUOUS
 62
    7
 10
7765.8464754103879
 20
3623.6270216710973
 11
7765.8464754103879
 21
3621.6272130245602
  0
LINE
  8
_0-0_
  6
CONTINUOUS
 62
    7
 10
7888.846831723733
 20
3620.6275561411144
 11
7888.846831723733
 21
3591.627114048631
  0
LINE
  8
_0-0_
  6
CONTINUOUS
 62
    7
 10
7888.846831723733
 20
3621.6272130245602
 11
7888.846831723733
 21
3591.627114048631
  0
LINE
  8
_0-0_
  6
CONTINUOUS
 62
    7
 10
7765.8464754103879
 20
3623.6270216710973
 11
7705.8462774585314
 21
3623.6270216710973
  0
LINE
  8
_0-0_
  6
CONTINUOUS
 62
    7
 10
7765.8464754103879
 20
3623.6270216710973
 11
7765.8464754103879
 21
3621.6272130245602
  0
LINE
  8
_0-0_
  6
CONTINUOUS
 62
    7
 10
7705.8462774585314
 20
3623.6270216710973
 11
7705.8462774585314
 21
3621.6272130245602
  0
LINE
  8
_0-0_
  6
CONTINUOUS
 62
    7
 10
3910.8473661937487
 20
3851.5953097834285
 11
3910.8473661937487
 21
3822.5948676909452
  0
LINE
  8
_0-0_
  6
CONTINUOUS
 62
    7
 10
3910.8473661937487
 20
3852.5949666668744
 11
4216.8472870130063
 21
3852.5949666668744
  0
LINE
  8
_0-0_
  6
CONTINUOUS
 62
    7
 10
3910.8473661937487
 20
3822.5948676909452
 11
4216.8472870130063
 21
3822.5948676909452
  0
LINE
  8
_0-0_
  6
CONTINUOUS
 62
    7
 10
3910.8473661937487
 20
3852.5949666668744
 11
3910.8473661937487
 21
3822.5948676909452
  0
LINE
  8
_0-0_
  6
CONTINUOUS
 62
    7
 10
4033.8472276274488
 20
3854.5947753134119
 11
4093.8474255793071
 21
3854.5947753134119
  0
LINE
  8
_0-0_
  6
CONTINUOUS
 62
    7
 10
4033.8472276274488
 20
3854.5947753134119
 11
4033.8472276274488
 21
3852.5949666668744
  0
LINE
  8
_0-0_
  6
CONTINUOUS
 62
    7
 10
4093.8474255793071
 20
3854.5947753134119
 11
4093.8474255793071
 21
3852.5949666668744
  0
LINE
  8
_0-0_
  6
CONTINUOUS
 62
    7
 10
4522.8472078322629
 20
3852.5949666668744
 11
4828.8471286515205
 21
3852.5949666668744
  0
LINE
  8
_0-0_
  6
CONTINUOUS
 62
    7
 10
4522.8472078322629
 20
3822.5948676909452
 11
4828.8471286515205
 21
3822.5948676909452
  0
LINE
  8
_0-0_
  6
CONTINUOUS
 62
    7
 10
4645.847069265963
 20
3854.5947753134119
 11
4705.8472672178214
 21
3854.5947753134119
  0
LINE
  8
_0-0_
  6
CONTINUOUS
 62
    7
 10
4645.847069265963
 20
3854.5947753134119
 11
4645.847069265963
 21
3852.5949666668744
  0
LINE
  8
_0-0_
  6
CONTINUOUS
 62
    7
 10
4705.8472672178214
 20
3854.5947753134119
 11
4705.8472672178214
 21
3852.5949666668744
  0
LINE
  8
_0-0_
  6
CONTINUOUS
 62
    7
 10
4828.8471286515205
 20
3852.5949666668744
 11
5134.8470494707763
 21
3852.5949666668744
  0
LINE
  8
_0-0_
  6
CONTINUOUS
 62
    7
 10
4828.8471286515205
 20
3822.5948676909452
 11
5134.8470494707763
 21
3822.5948676909452
  0
LINE
  8
_0-0_
  6
CONTINUOUS
 62
    7
 10
4951.8469900852197
 20
3854.5947753134119
 11
5011.847188037078
 21
3854.5947753134119
  0
LINE
  8
_0-0_
  6
CONTINUOUS
 62
    7
 10
4951.8469900852197
 20
3854.5947753134119
 11
4951.8469900852197
 21
3852.5949666668744
  0
LINE
  8
_0-0_
  6
CONTINUOUS
 62
    7
 10
5011.847188037078
 20
3854.5947753134119
 11
5011.847188037078
 21
3852.5949666668744
  0
LINE
  8
_0-0_
  6
CONTINUOUS
 62
    7
 10
5134.8470494707763
 20
3852.5949666668744
 11
5440.8469702900329
 21
3852.5949666668744
  0
LINE
  8
_0-0_
  6
CONTINUOUS
 62
    7
 10
5134.8470494707763
 20
3822.5948676909452
 11
5440.8469702900329
 21
3822.5948676909452
  0
LINE
  8
_0-0_
  6
CONTINUOUS
 62
    7
 10
5257.8469109044763
 20
3854.5947753134119
 11
5317.8471088563329
 21
3854.5947753134119
  0
LINE
  8
_0-0_
  6
CONTINUOUS
 62
    7
 10
5257.8469109044763
 20
3854.5947753134119
 11
5257.8469109044763
 21
3852.5949666668744
  0
LINE
  8
_0-0_
  6
CONTINUOUS
 62
    7
 10
5317.8471088563329
 20
3854.5947753134119
 11
5317.8471088563329
 21
3852.5949666668744
  0
LINE
  8
_0-0_
  6
CONTINUOUS
 62
    7
 10
5440.8469702900329
 20
3852.5949666668744
 11
5746.8468911092896
 21
3852.5949666668744
  0
LINE
  8
_0-0_
  6
CONTINUOUS
 62
    7
 10
5440.8469702900329
 20
3822.5948676909452
 11
5746.8468911092896
 21
3822.5948676909452
  0
LINE
  8
_0-0_
  6
CONTINUOUS
 62
    7
 10
5563.846831723733
 20
3854.5947753134119
 11
5623.8470296755913
 21
3854.5947753134119
  0
LINE
  8
_0-0_
  6
CONTINUOUS
 62
    7
 10
5563.846831723733
 20
3854.5947753134119
 11
5563.846831723733
 21
3852.5949666668744
  0
LINE
  8
_0-0_
  6
CONTINUOUS
 62
    7
 10
5623.8470296755913
 20
3854.5947753134119
 11
5623.8470296755913
 21
3852.5949666668744
  0
LINE
  8
_0-0_
  6
CONTINUOUS
 62
    7
 10
5746.8468911092896
 20
3852.5949666668744
 11
6052.846811928548
 21
3852.5949666668744
  0
LINE
  8
_0-0_
  6
CONTINUOUS
 62
    7
 10
5746.8468911092896
 20
3822.5948676909452
 11
6052.846811928548
 21
3822.5948676909452
  0
LINE
  8
_0-0_
  6
CONTINUOUS
 62
    7
 10
5869.8467525429896
 20
3854.5947753134119
 11
5929.846950494848
 21
3854.5947753134119
  0
LINE
  8
_0-0_
  6
CONTINUOUS
 62
    7
 10
5869.8467525429896
 20
3854.5947753134119
 11
5869.8467525429896
 21
3852.5949666668744
  0
LINE
  8
_0-0_
  6
CONTINUOUS
 62
    7
 10
5929.846950494848
 20
3854.5947753134119
 11
5929.846950494848
 21
3852.5949666668744
  0
LINE
  8
_0-0_
  6
CONTINUOUS
 62
    7
 10
6052.846811928548
 20
3852.5949666668744
 11
6358.8467327478047
 21
3852.5949666668744
  0
LINE
  8
_0-0_
  6
CONTINUOUS
 62
    7
 10
6052.846811928548
 20
3822.5948676909452
 11
6358.8467327478047
 21
3822.5948676909452
  0
LINE
  8
_0-0_
  6
CONTINUOUS
 62
    7
 10
6175.8466733622463
 20
3854.5947753134119
 11
6235.8468713141046
 21
3854.5947753134119
  0
LINE
  8
_0-0_
  6
CONTINUOUS
 62
    7
 10
6175.8466733622463
 20
3854.5947753134119
 11
6175.8466733622463
 21
3852.5949666668744
  0
LINE
  8
_0-0_
  6
CONTINUOUS
 62
    7
 10
6235.8468713141046
 20
3854.5947753134119
 11
6235.8468713141046
 21
3852.5949666668744
  0
LINE
  8
_0-0_
  6
CONTINUOUS
 62
    7
 10
6358.8467327478047
 20
3852.5949666668744
 11
6664.8466535670605
 21
3852.5949666668744
  0
LINE
  8
_0-0_
  6
CONTINUOUS
 62
    7
 10
6358.8467327478047
 20
3822.5948676909452
 11
6664.8466535670605
 21
3822.5948676909452
  0
LINE
  8
_0-0_
  6
CONTINUOUS
 62
    7
 10
6481.8465941815048
 20
3854.5947753134119
 11
6541.8467921333604
 21
3854.5947753134119
  0
LINE
  8
_0-0_
  6
CONTINUOUS
 62
    7
 10
6481.8465941815048
 20
3854.5947753134119
 11
6481.8465941815048
 21
3852.5949666668744
  0
LINE
  8
_0-0_
  6
CONTINUOUS
 62
    7
 10
6541.8467921333604
 20
3854.5947753134119
 11
6541.8467921333604
 21
3852.5949666668744
  0
LINE
  8
_0-0_
  6
CONTINUOUS
 62
    7
 10
6664.8466535670605
 20
3852.5949666668744
 11
6970.8465743863162
 21
3852.5949666668744
  0
LINE
  8
_0-0_
  6
CONTINUOUS
 62
    7
 10
6664.8466535670605
 20
3822.5948676909452
 11
6970.8465743863162
 21
3822.5948676909452
  0
LINE
  8
_0-0_
  6
CONTINUOUS
 62
    7
 10
6787.8465150007605
 20
3854.5947753134119
 11
6847.8467129526189
 21
3854.5947753134119
  0
LINE
  8
_0-0_
  6
CONTINUOUS
 62
    7
 10
6787.8465150007605
 20
3854.5947753134119
 11
6787.8465150007605
 21
3852.5949666668744
  0
LINE
  8
_0-0_
  6
CONTINUOUS
 62
    7
 10
6847.8467129526189
 20
3854.5947753134119
 11
6847.8467129526189
 21
3852.5949666668744
  0
LINE
  8
_0-0_
  6
CONTINUOUS
 62
    7
 10
6970.8465743863162
 20
3852.5949666668744
 11
7276.8469900852187
 21
3852.5949666668744
  0
LINE
  8
_0-0_
  6
CONTINUOUS
 62
    7
 10
6970.8465743863162
 20
3822.5948676909452
 11
7276.8469900852187
 21
3822.5948676909452
  0
LINE
  8
_0-0_
  6
CONTINUOUS
 62
    7
 10
7093.8464358200163
 20
3854.5947753134119
 11
7153.8466337718746
 21
3854.5947753134119
  0
LINE
  8
_0-0_
  6
CONTINUOUS
 62
    7
 10
7093.8464358200163
 20
3854.5947753134119
 11
7093.8464358200163
 21
3852.5949666668744
  0
LINE
  8
_0-0_
  6
CONTINUOUS
 62
    7
 10
7153.8466337718746
 20
3854.5947753134119
 11
7153.8466337718746
 21
3852.5949666668744
  0
LINE
  8
_0-0_
  6
CONTINUOUS
 62
    7
 10
7888.846831723733
 20
3852.5949666668744
 11
7888.846831723733
 21
3822.5948676909452
  0
LINE
  8
_0-0_
  6
CONTINUOUS
 62
    7
 10
7582.8469109044772
 20
3852.5949666668744
 11
7888.846831723733
 21
3852.5949666668744
  0
LINE
  8
_0-0_
  6
CONTINUOUS
 62
    7
 10
7582.8469109044772
 20
3822.5948676909452
 11
7888.846831723733
 21
3822.5948676909452
  0
LINE
  8
_0-0_
  6
CONTINUOUS
 62
    7
 10
7705.8462774585314
 20
3854.5947753134119
 11
7765.8464754103879
 21
3854.5947753134119
  0
LINE
  8
_0-0_
  6
CONTINUOUS
 62
    7
 10
7705.8462774585314
 20
3854.5947753134119
 11
7705.8462774585314
 21
3852.5949666668744
  0
LINE
  8
_0-0_
  6
CONTINUOUS
 62
    7
 10
7765.8464754103879
 20
3854.5947753134119
 11
7765.8464754103879
 21
3852.5949666668744
  0
LINE
  8
_0-0_
  6
CONTINUOUS
 62
    7
 10
7888.846831723733
 20
3851.5953097834285
 11
7888.846831723733
 21
3822.5948676909452
  0
LINE
  8
_0-0_
  6
CONTINUOUS
 62
    7
 10
7888.846831723733
 20
3852.5949666668744
 11
7888.846831723733
 21
3822.5948676909452
  0
LINE
  8
_0-0_
  6
CONTINUOUS
 62
    7
 10
7765.8464754103879
 20
3854.5947753134119
 11
7705.8462774585314
 21
3854.5947753134119
  0
LINE
  8
_0-0_
  6
CONTINUOUS
 62
    7
 10
7765.8464754103879
 20
3854.5947753134119
 11
7765.8464754103879
 21
3852.5949666668744
  0
LINE
  8
_0-0_
  6
CONTINUOUS
 62
    7
 10
7705.8462774585314
 20
3854.5947753134119
 11
7705.8462774585314
 21
3852.5949666668744
  0
LINE
  8
_0-0_
  6
CONTINUOUS
 62
    7
 10
3910.8473661937487
 20
4082.5630634257423
 11
3910.8473661937487
 21
4053.5626213332598
  0
LINE
  8
_0-0_
  6
CONTINUOUS
 62
    7
 10
3910.8473661937487
 20
4083.562720309189
 11
4216.8472870130063
 21
4083.562720309189
  0
LINE
  8
_0-0_
  6
CONTINUOUS
 62
    7
 10
3910.8473661937487
 20
4053.5626213332598
 11
4216.8472870130063
 21
4053.5626213332598
  0
LINE
  8
_0-0_
  6
CONTINUOUS
 62
    7
 10
3910.8473661937487
 20
4083.562720309189
 11
3910.8473661937487
 21
4053.5626213332598
  0
LINE
  8
_0-0_
  6
CONTINUOUS
 62
    7
 10
4033.8472276274488
 20
4085.5625289557256
 11
4093.8474255793071
 21
4085.5625289557256
  0
LINE
  8
_0-0_
  6
CONTINUOUS
 62
    7
 10
4033.8472276274488
 20
4085.5625289557256
 11
4033.8472276274488
 21
4083.562720309189
  0
LINE
  8
_0-0_
  6
CONTINUOUS
 62
    7
 10
4093.8474255793071
 20
4085.5625289557256
 11
4093.8474255793071
 21
4083.562720309189
  0
LINE
  8
_0-0_
  6
CONTINUOUS
 62
    7
 10
4522.8472078322629
 20
4083.562720309189
 11
4828.8471286515205
 21
4083.562720309189
  0
LINE
  8
_0-0_
  6
CONTINUOUS
 62
    7
 10
4522.8472078322629
 20
4053.5626213332598
 11
4828.8471286515205
 21
4053.5626213332598
  0
LINE
  8
_0-0_
  6
CONTINUOUS
 62
    7
 10
4645.847069265963
 20
4085.5625289557256
 11
4705.8472672178214
 21
4085.5625289557256
  0
LINE
  8
_0-0_
  6
CONTINUOUS
 62
    7
 10
4645.847069265963
 20
4085.5625289557256
 11
4645.847069265963
 21
4083.562720309189
  0
LINE
  8
_0-0_
  6
CONTINUOUS
 62
    7
 10
4705.8472672178214
 20
4085.5625289557256
 11
4705.8472672178214
 21
4083.562720309189
  0
LINE
  8
_0-0_
  6
CONTINUOUS
 62
    7
 10
4828.8471286515205
 20
4083.562720309189
 11
5134.8470494707763
 21
4083.562720309189
  0
LINE
  8
_0-0_
  6
CONTINUOUS
 62
    7
 10
4828.8471286515205
 20
4053.5626213332598
 11
5134.8470494707763
 21
4053.5626213332598
  0
LINE
  8
_0-0_
  6
CONTINUOUS
 62
    7
 10
4951.8469900852197
 20
4085.5625289557256
 11
5011.847188037078
 21
4085.5625289557256
  0
LINE
  8
_0-0_
  6
CONTINUOUS
 62
    7
 10
4951.8469900852197
 20
4085.5625289557256
 11
4951.8469900852197
 21
4083.562720309189
  0
LINE
  8
_0-0_
  6
CONTINUOUS
 62
    7
 10
5011.847188037078
 20
4085.5625289557256
 11
5011.847188037078
 21
4083.562720309189
  0
LINE
  8
_0-0_
  6
CONTINUOUS
 62
    7
 10
5134.8470494707763
 20
4083.562720309189
 11
5440.8469702900329
 21
4083.562720309189
  0
LINE
  8
_0-0_
  6
CONTINUOUS
 62
    7
 10
5134.8470494707763
 20
4053.5626213332598
 11
5440.8469702900329
 21
4053.5626213332598
  0
LINE
  8
_0-0_
  6
CONTINUOUS
 62
    7
 10
5257.8469109044763
 20
4085.5625289557256
 11
5317.8471088563329
 21
4085.5625289557256
  0
LINE
  8
_0-0_
  6
CONTINUOUS
 62
    7
 10
5257.8469109044763
 20
4085.5625289557256
 11
5257.8469109044763
 21
4083.562720309189
  0
LINE
  8
_0-0_
  6
CONTINUOUS
 62
    7
 10
5317.8471088563329
 20
4085.5625289557256
 11
5317.8471088563329
 21
4083.562720309189
  0
LINE
  8
_0-0_
  6
CONTINUOUS
 62
    7
 10
5440.8469702900329
 20
4083.562720309189
 11
5746.8468911092896
 21
4083.562720309189
  0
LINE
  8
_0-0_
  6
CONTINUOUS
 62
    7
 10
5440.8469702900329
 20
4053.5626213332598
 11
5746.8468911092896
 21
4053.5626213332598
  0
LINE
  8
_0-0_
  6
CONTINUOUS
 62
    7
 10
5563.846831723733
 20
4085.5625289557256
 11
5623.8470296755913
 21
4085.5625289557256
  0
LINE
  8
_0-0_
  6
CONTINUOUS
 62
    7
 10
5563.846831723733
 20
4085.5625289557256
 11
5563.846831723733
 21
4083.562720309189
  0
LINE
  8
_0-0_
  6
CONTINUOUS
 62
    7
 10
5623.8470296755913
 20
4085.5625289557256
 11
5623.8470296755913
 21
4083.562720309189
  0
LINE
  8
_0-0_
  6
CONTINUOUS
 62
    7
 10
5746.8468911092896
 20
4083.562720309189
 11
6052.846811928548
 21
4083.562720309189
  0
LINE
  8
_0-0_
  6
CONTINUOUS
 62
    7
 10
5746.8468911092896
 20
4053.5626213332598
 11
6052.846811928548
 21
4053.5626213332598
  0
LINE
  8
_0-0_
  6
CONTINUOUS
 62
    7
 10
5869.8467525429896
 20
4085.5625289557256
 11
5929.846950494848
 21
4085.5625289557256
  0
LINE
  8
_0-0_
  6
CONTINUOUS
 62
    7
 10
5869.8467525429896
 20
4085.5625289557256
 11
5869.8467525429896
 21
4083.562720309189
  0
LINE
  8
_0-0_
  6
CONTINUOUS
 62
    7
 10
5929.846950494848
 20
4085.5625289557256
 11
5929.846950494848
 21
4083.562720309189
  0
LINE
  8
_0-0_
  6
CONTINUOUS
 62
    7
 10
6052.846811928548
 20
4083.562720309189
 11
6358.8467327478047
 21
4083.562720309189
  0
LINE
  8
_0-0_
  6
CONTINUOUS
 62
    7
 10
6052.846811928548
 20
4053.5626213332598
 11
6358.8467327478047
 21
4053.5626213332598
  0
LINE
  8
_0-0_
  6
CONTINUOUS
 62
    7
 10
6175.8466733622463
 20
4085.5625289557256
 11
6235.8468713141046
 21
4085.5625289557256
  0
LINE
  8
_0-0_
  6
CONTINUOUS
 62
    7
 10
6175.8466733622463
 20
4085.5625289557256
 11
6175.8466733622463
 21
4083.562720309189
  0
LINE
  8
_0-0_
  6
CONTINUOUS
 62
    7
 10
6235.8468713141046
 20
4085.5625289557256
 11
6235.8468713141046
 21
4083.562720309189
  0
LINE
  8
_0-0_
  6
CONTINUOUS
 62
    7
 10
6358.8467327478047
 20
4083.562720309189
 11
6664.8466535670605
 21
4083.562720309189
  0
LINE
  8
_0-0_
  6
CONTINUOUS
 62
    7
 10
6358.8467327478047
 20
4053.5626213332598
 11
6664.8466535670605
 21
4053.5626213332598
  0
LINE
  8
_0-0_
  6
CONTINUOUS
 62
    7
 10
6481.8465941815048
 20
4085.5625289557256
 11
6541.8467921333604
 21
4085.5625289557256
  0
LINE
  8
_0-0_
  6
CONTINUOUS
 62
    7
 10
6481.8465941815048
 20
4085.5625289557256
 11
6481.8465941815048
 21
4083.562720309189
  0
LINE
  8
_0-0_
  6
CONTINUOUS
 62
    7
 10
6541.8467921333604
 20
4085.5625289557256
 11
6541.8467921333604
 21
4083.562720309189
  0
LINE
  8
_0-0_
  6
CONTINUOUS
 62
    7
 10
6664.8466535670605
 20
4083.562720309189
 11
6970.8465743863162
 21
4083.562720309189
  0
LINE
  8
_0-0_
  6
CONTINUOUS
 62
    7
 10
6664.8466535670605
 20
4053.5626213332598
 11
6970.8465743863162
 21
4053.5626213332598
  0
LINE
  8
_0-0_
  6
CONTINUOUS
 62
    7
 10
6787.8465150007605
 20
4085.5625289557256
 11
6847.8467129526189
 21
4085.5625289557256
  0
LINE
  8
_0-0_
  6
CONTINUOUS
 62
    7
 10
6787.8465150007605
 20
4085.5625289557256
 11
6787.8465150007605
 21
4083.562720309189
  0
LINE
  8
_0-0_
  6
CONTINUOUS
 62
    7
 10
6847.8467129526189
 20
4085.5625289557256
 11
6847.8467129526189
 21
4083.562720309189
  0
LINE
  8
_0-0_
  6
CONTINUOUS
 62
    7
 10
6970.8465743863162
 20
4083.562720309189
 11
7276.8469900852187
 21
4083.562720309189
  0
LINE
  8
_0-0_
  6
CONTINUOUS
 62
    7
 10
6970.8465743863162
 20
4053.5626213332598
 11
7276.8469900852187
 21
4053.5626213332598
  0
LINE
  8
_0-0_
  6
CONTINUOUS
 62
    7
 10
7093.8464358200163
 20
4085.5625289557256
 11
7153.8466337718746
 21
4085.5625289557256
  0
LINE
  8
_0-0_
  6
CONTINUOUS
 62
    7
 10
7093.8464358200163
 20
4085.5625289557256
 11
7093.8464358200163
 21
4083.562720309189
  0
LINE
  8
_0-0_
  6
CONTINUOUS
 62
    7
 10
7153.8466337718746
 20
4085.5625289557256
 11
7153.8466337718746
 21
4083.562720309189
  0
LINE
  8
_0-0_
  6
CONTINUOUS
 62
    7
 10
7888.846831723733
 20
4083.562720309189
 11
7888.846831723733
 21
4053.5626213332598
  0
LINE
  8
_0-0_
  6
CONTINUOUS
 62
    7
 10
7582.8469109044772
 20
4083.562720309189
 11
7888.846831723733
 21
4083.562720309189
  0
LINE
  8
_0-0_
  6
CONTINUOUS
 62
    7
 10
7582.8469109044772
 20
4053.5626213332598
 11
7888.846831723733
 21
4053.5626213332598
  0
LINE
  8
_0-0_
  6
CONTINUOUS
 62
    7
 10
7705.8462774585314
 20
4085.5625289557256
 11
7765.8464754103879
 21
4085.5625289557256
  0
LINE
  8
_0-0_
  6
CONTINUOUS
 62
    7
 10
7705.8462774585314
 20
4085.5625289557256
 11
7705.8462774585314
 21
4083.562720309189
  0
LINE
  8
_0-0_
  6
CONTINUOUS
 62
    7
 10
7765.8464754103879
 20
4085.5625289557256
 11
7765.8464754103879
 21
4083.562720309189
  0
LINE
  8
_0-0_
  6
CONTINUOUS
 62
    7
 10
7888.846831723733
 20
4082.5630634257423
 11
7888.846831723733
 21
4053.5626213332598
  0
LINE
  8
_0-0_
  6
CONTINUOUS
 62
    7
 10
7888.846831723733
 20
4083.562720309189
 11
7888.846831723733
 21
4053.5626213332598
  0
LINE
  8
_0-0_
  6
CONTINUOUS
 62
    7
 10
7765.8464754103879
 20
4085.5625289557256
 11
7705.8462774585314
 21
4085.5625289557256
  0
LINE
  8
_0-0_
  6
CONTINUOUS
 62
    7
 10
7765.8464754103879
 20
4085.5625289557256
 11
7765.8464754103879
 21
4083.562720309189
  0
LINE
  8
_0-0_
  6
CONTINUOUS
 62
    7
 10
7705.8462774585314
 20
4085.5625289557256
 11
7705.8462774585314
 21
4083.562720309189
  0
LINE
  8
_0-0_
  6
CONTINUOUS
 62
    7
 10
3910.8473661937487
 20
4313.5308170680573
 11
3910.8473661937487
 21
4284.530374975574
  0
LINE
  8
_0-0_
  6
CONTINUOUS
 62
    7
 10
3910.8473661937487
 20
4314.5304739515032
 11
4216.8472870130063
 21
4314.5304739515032
  0
LINE
  8
_0-0_
  6
CONTINUOUS
 62
    7
 10
3910.8473661937487
 20
4284.530374975574
 11
4216.8472870130063
 21
4284.530374975574
  0
LINE
  8
_0-0_
  6
CONTINUOUS
 62
    7
 10
3910.8473661937487
 20
4314.5304739515032
 11
3910.8473661937487
 21
4284.530374975574
  0
LINE
  8
_0-0_
  6
CONTINUOUS
 62
    7
 10
4033.8472276274488
 20
4316.5302825980398
 11
4093.8474255793071
 21
4316.5302825980398
  0
LINE
  8
_0-0_
  6
CONTINUOUS
 62
    7
 10
4033.8472276274488
 20
4316.5302825980398
 11
4033.8472276274488
 21
4314.5304739515032
  0
LINE
  8
_0-0_
  6
CONTINUOUS
 62
    7
 10
4093.8474255793071
 20
4316.5302825980398
 11
4093.8474255793071
 21
4314.5304739515032
  0
LINE
  8
_0-0_
  6
CONTINUOUS
 62
    7
 10
4522.8472078322629
 20
4314.5304739515032
 11
4828.8471286515205
 21
4314.5304739515032
  0
LINE
  8
_0-0_
  6
CONTINUOUS
 62
    7
 10
4522.8472078322629
 20
4284.530374975574
 11
4828.8471286515205
 21
4284.530374975574
  0
LINE
  8
_0-0_
  6
CONTINUOUS
 62
    7
 10
4645.847069265963
 20
4316.5302825980398
 11
4705.8472672178214
 21
4316.5302825980398
  0
LINE
  8
_0-0_
  6
CONTINUOUS
 62
    7
 10
4645.847069265963
 20
4316.5302825980398
 11
4645.847069265963
 21
4314.5304739515032
  0
LINE
  8
_0-0_
  6
CONTINUOUS
 62
    7
 10
4705.8472672178214
 20
4316.5302825980398
 11
4705.8472672178214
 21
4314.5304739515032
  0
LINE
  8
_0-0_
  6
CONTINUOUS
 62
    7
 10
4828.8471286515205
 20
4314.5304739515032
 11
5134.8470494707763
 21
4314.5304739515032
  0
LINE
  8
_0-0_
  6
CONTINUOUS
 62
    7
 10
4828.8471286515205
 20
4284.530374975574
 11
5134.8470494707763
 21
4284.530374975574
  0
LINE
  8
_0-0_
  6
CONTINUOUS
 62
    7
 10
4951.8469900852197
 20
4316.5302825980398
 11
5011.847188037078
 21
4316.5302825980398
  0
LINE
  8
_0-0_
  6
CONTINUOUS
 62
    7
 10
4951.8469900852197
 20
4316.5302825980398
 11
4951.8469900852197
 21
4314.5304739515032
  0
LINE
  8
_0-0_
  6
CONTINUOUS
 62
    7
 10
5011.847188037078
 20
4316.5302825980398
 11
5011.847188037078
 21
4314.5304739515032
  0
LINE
  8
_0-0_
  6
CONTINUOUS
 62
    7
 10
5134.8470494707763
 20
4314.5304739515032
 11
5440.8469702900329
 21
4314.5304739515032
  0
LINE
  8
_0-0_
  6
CONTINUOUS
 62
    7
 10
5134.8470494707763
 20
4284.530374975574
 11
5440.8469702900329
 21
4284.530374975574
  0
LINE
  8
_0-0_
  6
CONTINUOUS
 62
    7
 10
5257.8469109044763
 20
4316.5302825980398
 11
5317.8471088563329
 21
4316.5302825980398
  0
LINE
  8
_0-0_
  6
CONTINUOUS
 62
    7
 10
5257.8469109044763
 20
4316.5302825980398
 11
5257.8469109044763
 21
4314.5304739515032
  0
LINE
  8
_0-0_
  6
CONTINUOUS
 62
    7
 10
5317.8471088563329
 20
4316.5302825980398
 11
5317.8471088563329
 21
4314.5304739515032
  0
LINE
  8
_0-0_
  6
CONTINUOUS
 62
    7
 10
5440.8469702900329
 20
4314.5304739515032
 11
5746.8468911092896
 21
4314.5304739515032
  0
LINE
  8
_0-0_
  6
CONTINUOUS
 62
    7
 10
5440.8469702900329
 20
4284.530374975574
 11
5746.8468911092896
 21
4284.530374975574
  0
LINE
  8
_0-0_
  6
CONTINUOUS
 62
    7
 10
5563.846831723733
 20
4316.5302825980398
 11
5623.8470296755913
 21
4316.5302825980398
  0
LINE
  8
_0-0_
  6
CONTINUOUS
 62
    7
 10
5563.846831723733
 20
4316.5302825980398
 11
5563.846831723733
 21
4314.5304739515032
  0
LINE
  8
_0-0_
  6
CONTINUOUS
 62
    7
 10
5623.8470296755913
 20
4316.5302825980398
 11
5623.8470296755913
 21
4314.5304739515032
  0
LINE
  8
_0-0_
  6
CONTINUOUS
 62
    7
 10
5746.8468911092896
 20
4314.5304739515032
 11
6052.846811928548
 21
4314.5304739515032
  0
LINE
  8
_0-0_
  6
CONTINUOUS
 62
    7
 10
5746.8468911092896
 20
4284.530374975574
 11
6052.846811928548
 21
4284.530374975574
  0
LINE
  8
_0-0_
  6
CONTINUOUS
 62
    7
 10
5869.8467525429896
 20
4316.5302825980398
 11
5929.846950494848
 21
4316.5302825980398
  0
LINE
  8
_0-0_
  6
CONTINUOUS
 62
    7
 10
5869.8467525429896
 20
4316.5302825980398
 11
5869.8467525429896
 21
4314.5304739515032
  0
LINE
  8
_0-0_
  6
CONTINUOUS
 62
    7
 10
5929.846950494848
 20
4316.5302825980398
 11
5929.846950494848
 21
4314.5304739515032
  0
LINE
  8
_0-0_
  6
CONTINUOUS
 62
    7
 10
6052.846811928548
 20
4314.5304739515032
 11
6358.8467327478047
 21
4314.5304739515032
  0
LINE
  8
_0-0_
  6
CONTINUOUS
 62
    7
 10
6052.846811928548
 20
4284.530374975574
 11
6358.8467327478047
 21
4284.530374975574
  0
LINE
  8
_0-0_
  6
CONTINUOUS
 62
    7
 10
6175.8466733622463
 20
4316.5302825980398
 11
6235.8468713141046
 21
4316.5302825980398
  0
LINE
  8
_0-0_
  6
CONTINUOUS
 62
    7
 10
6175.8466733622463
 20
4316.5302825980398
 11
6175.8466733622463
 21
4314.5304739515032
  0
LINE
  8
_0-0_
  6
CONTINUOUS
 62
    7
 10
6235.8468713141046
 20
4316.5302825980398
 11
6235.8468713141046
 21
4314.5304739515032
  0
LINE
  8
_0-0_
  6
CONTINUOUS
 62
    7
 10
6358.8467327478047
 20
4314.5304739515032
 11
6664.8466535670605
 21
4314.5304739515032
  0
LINE
  8
_0-0_
  6
CONTINUOUS
 62
    7
 10
6358.8467327478047
 20
4284.530374975574
 11
6664.8466535670605
 21
4284.530374975574
  0
LINE
  8
_0-0_
  6
CONTINUOUS
 62
    7
 10
6481.8465941815048
 20
4316.5302825980398
 11
6541.8467921333604
 21
4316.5302825980398
  0
LINE
  8
_0-0_
  6
CONTINUOUS
 62
    7
 10
6481.8465941815048
 20
4316.5302825980398
 11
6481.8465941815048
 21
4314.5304739515032
  0
LINE
  8
_0-0_
  6
CONTINUOUS
 62
    7
 10
6541.8467921333604
 20
4316.5302825980398
 11
6541.8467921333604
 21
4314.5304739515032
  0
LINE
  8
_0-0_
  6
CONTINUOUS
 62
    7
 10
6664.8466535670605
 20
4314.5304739515032
 11
6970.8465743863162
 21
4314.5304739515032
  0
LINE
  8
_0-0_
  6
CONTINUOUS
 62
    7
 10
6664.8466535670605
 20
4284.530374975574
 11
6970.8465743863162
 21
4284.530374975574
  0
LINE
  8
_0-0_
  6
CONTINUOUS
 62
    7
 10
6787.8465150007605
 20
4316.5302825980398
 11
6847.8467129526189
 21
4316.5302825980398
  0
LINE
  8
_0-0_
  6
CONTINUOUS
 62
    7
 10
6787.8465150007605
 20
4316.5302825980398
 11
6787.8465150007605
 21
4314.5304739515032
  0
LINE
  8
_0-0_
  6
CONTINUOUS
 62
    7
 10
6847.8467129526189
 20
4316.5302825980398
 11
6847.8467129526189
 21
4314.5304739515032
  0
LINE
  8
_0-0_
  6
CONTINUOUS
 62
    7
 10
6970.8465743863162
 20
4314.5304739515032
 11
7276.8469900852187
 21
4314.5304739515032
  0
LINE
  8
_0-0_
  6
CONTINUOUS
 62
    7
 10
6970.8465743863162
 20
4284.530374975574
 11
7276.8469900852187
 21
4284.530374975574
  0
LINE
  8
_0-0_
  6
CONTINUOUS
 62
    7
 10
7093.8464358200163
 20
4316.5302825980398
 11
7153.8466337718746
 21
4316.5302825980398
  0
LINE
  8
_0-0_
  6
CONTINUOUS
 62
    7
 10
7093.8464358200163
 20
4316.5302825980398
 11
7093.8464358200163
 21
4314.5304739515032
  0
LINE
  8
_0-0_
  6
CONTINUOUS
 62
    7
 10
7153.8466337718746
 20
4316.5302825980398
 11
7153.8466337718746
 21
4314.5304739515032
  0
LINE
  8
_0-0_
  6
CONTINUOUS
 62
    7
 10
7888.846831723733
 20
4314.5304739515032
 11
7888.846831723733
 21
4284.530374975574
  0
LINE
  8
_0-0_
  6
CONTINUOUS
 62
    7
 10
7582.8469109044772
 20
4314.5304739515032
 11
7888.846831723733
 21
4314.5304739515032
  0
LINE
  8
_0-0_
  6
CONTINUOUS
 62
    7
 10
7582.8469109044772
 20
4284.530374975574
 11
7888.846831723733
 21
4284.530374975574
  0
LINE
  8
_0-0_
  6
CONTINUOUS
 62
    7
 10
7705.8462774585314
 20
4316.5302825980398
 11
7765.8464754103879
 21
4316.5302825980398
  0
LINE
  8
_0-0_
  6
CONTINUOUS
 62
    7
 10
7705.8462774585314
 20
4316.5302825980398
 11
7705.8462774585314
 21
4314.5304739515032
  0
LINE
  8
_0-0_
  6
CONTINUOUS
 62
    7
 10
7765.8464754103879
 20
4316.5302825980398
 11
7765.8464754103879
 21
4314.5304739515032
  0
LINE
  8
_0-0_
  6
CONTINUOUS
 62
    7
 10
7888.846831723733
 20
4313.5308170680573
 11
7888.846831723733
 21
4284.530374975574
  0
LINE
  8
_0-0_
  6
CONTINUOUS
 62
    7
 10
7888.846831723733
 20
4314.5304739515032
 11
7888.846831723733
 21
4284.530374975574
  0
LINE
  8
_0-0_
  6
CONTINUOUS
 62
    7
 10
7765.8464754103879
 20
4316.5302825980398
 11
7705.8462774585314
 21
4316.5302825980398
  0
LINE
  8
_0-0_
  6
CONTINUOUS
 62
    7
 10
7765.8464754103879
 20
4316.5302825980398
 11
7765.8464754103879
 21
4314.5304739515032
  0
LINE
  8
_0-0_
  6
CONTINUOUS
 62
    7
 10
7705.8462774585314
 20
4316.5302825980398
 11
7705.8462774585314
 21
4314.5304739515032
  0
LINE
  8
ADD_LINE
  6
DOT
 62
    3
 10
3910.8473661937487
 20
3506.1433362034036
 11
4127.1350100387663
 21
3506.1433362034036
  0
LINE
  8
_0-0_
  6
CONTINUOUS
 62
    7
 10
4063.847326603378
 20
3506.1433362034036
 11
4369.8472474226346
 21
3506.1433362034036
  0
LINE
  8
_0-0_
  6
CONTINUOUS
 62
    7
 10
4186.847188037078
 20
3508.1431448499407
 11
4246.8473859889355
 21
3508.1431448499407
  0
LINE
  8
_0-0_
  6
CONTINUOUS
 62
    7
 10
4186.847188037078
 20
3508.1431448499407
 11
4186.847188037078
 21
3506.1433362034036
  0
LINE
  8
_0-0_
  6
CONTINUOUS
 62
    7
 10
4246.8473859889355
 20
3508.1431448499407
 11
4246.8473859889355
 21
3506.1433362034036
  0
LINE
  8
_0-0_
  6
CONTINUOUS
 62
    7
 10
4369.8472474226346
 20
3506.1433362034036
 11
4369.8472474226346
 21
3476.1432372274744
  0
LINE
  8
_0-0_
  6
CONTINUOUS
 62
    7
 10
4675.8471682418913
 20
3506.1433362034036
 11
4981.8470890611488
 21
3506.1433362034036
  0
LINE
  8
_0-0_
  6
CONTINUOUS
 62
    7
 10
4675.8471682418913
 20
3476.1432372274744
 11
4981.8470890611488
 21
3476.1432372274744
  0
LINE
  8
_0-0_
  6
CONTINUOUS
 62
    7
 10
4798.8470296755913
 20
3508.1431448499407
 11
4858.8472276274497
 21
3508.1431448499407
  0
LINE
  8
_0-0_
  6
CONTINUOUS
 62
    7
 10
4798.8470296755913
 20
3508.1431448499407
 11
4798.8470296755913
 21
3506.1433362034036
  0
LINE
  8
_0-0_
  6
CONTINUOUS
 62
    7
 10
4858.8472276274497
 20
3508.1431448499407
 11
4858.8472276274497
 21
3506.1433362034036
  0
LINE
  8
_0-0_
  6
CONTINUOUS
 62
    7
 10
4675.8471682418913
 20
3506.1433362034036
 11
4675.8471682418913
 21
3476.1432372274744
  0
LINE
  8
_0-0_
  6
CONTINUOUS
 62
    7
 10
4981.8470890611488
 20
3506.1433362034036
 11
5287.8470098804046
 21
3506.1433362034036
  0
LINE
  8
_0-0_
  6
CONTINUOUS
 62
    7
 10
4981.8470890611488
 20
3476.1432372274744
 11
5287.8470098804046
 21
3476.1432372274744
  0
LINE
  8
_0-0_
  6
CONTINUOUS
 62
    7
 10
5104.8469504948471
 20
3508.1431448499407
 11
5164.8471484467054
 21
3508.1431448499407
  0
LINE
  8
_0-0_
  6
CONTINUOUS
 62
    7
 10
5104.8469504948471
 20
3508.1431448499407
 11
5104.8469504948471
 21
3506.1433362034036
  0
LINE
  8
_0-0_
  6
CONTINUOUS
 62
    7
 10
5164.8471484467054
 20
3508.1431448499407
 11
5164.8471484467054
 21
3506.1433362034036
  0
LINE
  8
_0-0_
  6
CONTINUOUS
 62
    7
 10
4981.8470890611488
 20
3506.1433362034036
 11
4981.8470890611488
 21
3476.1432372274744
  0
LINE
  8
_0-0_
  6
CONTINUOUS
 62
    7
 10
5287.8470098804046
 20
3506.1433362034036
 11
5593.8469306996631
 21
3506.1433362034036
  0
LINE
  8
_0-0_
  6
CONTINUOUS
 62
    7
 10
5287.8470098804046
 20
3476.1432372274744
 11
5593.8469306996631
 21
3476.1432372274744
  0
LINE
  8
_0-0_
  6
CONTINUOUS
 62
    7
 10
5410.8468713141046
 20
3508.1431448499407
 11
5470.847069265963
 21
3508.1431448499407
  0
LINE
  8
_0-0_
  6
CONTINUOUS
 62
    7
 10
5410.8468713141046
 20
3508.1431448499407
 11
5410.8468713141046
 21
3506.1433362034036
  0
LINE
  8
_0-0_
  6
CONTINUOUS
 62
    7
 10
5470.847069265963
 20
3508.1431448499407
 11
5470.847069265963
 21
3506.1433362034036
  0
LINE
  8
_0-0_
  6
CONTINUOUS
 62
    7
 10
5287.8470098804046
 20
3506.1433362034036
 11
5287.8470098804046
 21
3476.1432372274744
  0
LINE
  8
_0-0_
  6
CONTINUOUS
 62
    7
 10
5593.8469306996631
 20
3506.1433362034036
 11
5899.8468515189188
 21
3506.1433362034036
  0
LINE
  8
_0-0_
  6
CONTINUOUS
 62
    7
 10
5593.8469306996631
 20
3476.1432372274744
 11
5899.8468515189188
 21
3476.1432372274744
  0
LINE
  8
_0-0_
  6
CONTINUOUS
 62
    7
 10
5716.8467921333604
 20
3508.1431448499407
 11
5776.8469900852187
 21
3508.1431448499407
  0
LINE
  8
_0-0_
  6
CONTINUOUS
 62
    7
 10
5716.8467921333604
 20
3508.1431448499407
 11
5716.8467921333604
 21
3506.1433362034036
  0
LINE
  8
_0-0_
  6
CONTINUOUS
 62
    7
 10
5776.8469900852187
 20
3508.1431448499407
 11
5776.8469900852187
 21
3506.1433362034036
  0
LINE
  8
_0-0_
  6
CONTINUOUS
 62
    7
 10
5593.8469306996631
 20
3506.1433362034036
 11
5593.8469306996631
 21
3476.1432372274744
  0
LINE
  8
_0-0_
  6
CONTINUOUS
 62
    7
 10
5899.8468515189188
 20
3506.1433362034036
 11
6205.8467723381746
 21
3506.1433362034036
  0
LINE
  8
_0-0_
  6
CONTINUOUS
 62
    7
 10
5899.8468515189188
 20
3476.1432372274744
 11
6205.8467723381746
 21
3476.1432372274744
  0
LINE
  8
_0-0_
  6
CONTINUOUS
 62
    7
 10
6022.8467129526189
 20
3508.1431448499407
 11
6082.8469109044772
 21
3508.1431448499407
  0
LINE
  8
_0-0_
  6
CONTINUOUS
 62
    7
 10
6022.8467129526189
 20
3508.1431448499407
 11
6022.8467129526189
 21
3506.1433362034036
  0
LINE
  8
_0-0_
  6
CONTINUOUS
 62
    7
 10
6082.8469109044772
 20
3508.1431448499407
 11
6082.8469109044772
 21
3506.1433362034036
  0
LINE
  8
_0-0_
  6
CONTINUOUS
 62
    7
 10
5899.8468515189188
 20
3506.1433362034036
 11
5899.8468515189188
 21
3476.1432372274744
  0
LINE
  8
_0-0_
  6
CONTINUOUS
 62
    7
 10
6205.8467723381746
 20
3506.1433362034036
 11
6511.8466931574312
 21
3506.1433362034036
  0
LINE
  8
_0-0_
  6
CONTINUOUS
 62
    7
 10
6205.8467723381746
 20
3476.1432372274744
 11
6511.8466931574312
 21
3476.1432372274744
  0
LINE
  8
_0-0_
  6
CONTINUOUS
 62
    7
 10
6328.8466337718746
 20
3508.1431448499407
 11
6388.846831723733
 21
3508.1431448499407
  0
LINE
  8
_0-0_
  6
CONTINUOUS
 62
    7
 10
6328.8466337718746
 20
3508.1431448499407
 11
6328.8466337718746
 21
3506.1433362034036
  0
LINE
  8
_0-0_
  6
CONTINUOUS
 62
    7
 10
6388.846831723733
 20
3508.1431448499407
 11
6388.846831723733
 21
3506.1433362034036
  0
LINE
  8
_0-0_
  6
CONTINUOUS
 62
    7
 10
6205.8467723381746
 20
3506.1433362034036
 11
6205.8467723381746
 21
3476.1432372274744
  0
LINE
  8
_0-0_
  6
CONTINUOUS
 62
    7
 10
6511.8466931574312
 20
3506.1433362034036
 11
6817.8466139766897
 21
3506.1433362034036
  0
LINE
  8
_0-0_
  6
CONTINUOUS
 62
    7
 10
6511.8466931574312
 20
3476.1432372274744
 11
6817.8466139766897
 21
3476.1432372274744
  0
LINE
  8
_0-0_
  6
CONTINUOUS
 62
    7
 10
6634.8465545911313
 20
3508.1431448499407
 11
6694.8467525429896
 21
3508.1431448499407
  0
LINE
  8
_0-0_
  6
CONTINUOUS
 62
    7
 10
6634.8465545911313
 20
3508.1431448499407
 11
6634.8465545911313
 21
3506.1433362034036
  0
LINE
  8
_0-0_
  6
CONTINUOUS
 62
    7
 10
6694.8467525429896
 20
3508.1431448499407
 11
6694.8467525429896
 21
3506.1433362034036
  0
LINE
  8
_0-0_
  6
CONTINUOUS
 62
    7
 10
6511.8466931574312
 20
3506.1433362034036
 11
6511.8466931574312
 21
3476.1432372274744
  0
LINE
  8
_0-0_
  6
CONTINUOUS
 62
    7
 10
6817.8466139766897
 20
3506.1433362034036
 11
7123.8460399162996
 21
3506.1433362034036
  0
LINE
  8
_0-0_
  6
CONTINUOUS
 62
    7
 10
6817.8466139766897
 20
3476.1432372274744
 11
7123.8460399162996
 21
3476.1432372274744
  0
LINE
  8
_0-0_
  6
CONTINUOUS
 62
    7
 10
6940.8464754103879
 20
3508.1431448499407
 11
7000.8466733622463
 21
3508.1431448499407
  0
LINE
  8
_0-0_
  6
CONTINUOUS
 62
    7
 10
6940.8464754103879
 20
3508.1431448499407
 11
6940.8464754103879
 21
3506.1433362034036
  0
LINE
  8
_0-0_
  6
CONTINUOUS
 62
    7
 10
7000.8466733622463
 20
3508.1431448499407
 11
7000.8466733622463
 21
3506.1433362034036
  0
LINE
  8
_0-0_
  6
CONTINUOUS
 62
    7
 10
6817.8466139766897
 20
3506.1433362034036
 11
6817.8466139766897
 21
3476.1432372274744
  0
LINE
  8
_0-0_
  6
CONTINUOUS
 62
    7
 10
7123.8460399162996
 20
3506.1433362034036
 11
7123.8460399162996
 21
3476.1432372274744
  0
LINE
  8
_0-0_
  6
CONTINUOUS
 62
    7
 10
7429.845960735558
 20
3506.1433362034036
 11
7735.8458815548147
 21
3506.1433362034036
  0
LINE
  8
_0-0_
  6
CONTINUOUS
 62
    7
 10
7429.845960735558
 20
3476.1432372274744
 11
7735.8458815548147
 21
3476.1432372274744
  0
LINE
  8
_0-0_
  6
CONTINUOUS
 62
    7
 10
7552.8463170489022
 20
3508.1431448499407
 11
7612.8465150007605
 21
3508.1431448499407
  0
LINE
  8
_0-0_
  6
CONTINUOUS
 62
    7
 10
7552.8463170489022
 20
3508.1431448499407
 11
7552.8463170489022
 21
3506.1433362034036
  0
LINE
  8
_0-0_
  6
CONTINUOUS
 62
    7
 10
7612.8465150007605
 20
3508.1431448499407
 11
7612.8465150007605
 21
3506.1433362034036
  0
LINE
  8
_0-0_
  6
CONTINUOUS
 62
    7
 10
7429.845960735558
 20
3506.1433362034036
 11
7429.845960735558
 21
3476.1432372274744
  0
LINE
  8
_0-0_
  6
CONTINUOUS
 62
    7
 10
7858.8462378681579
 20
3508.1431448499407
 11
7858.8462378681579
 21
3506.1433362034036
  0
LINE
  8
_0-0_
  6
CONTINUOUS
 62
    7
 10
7735.8458815548147
 20
3506.1433362034036
 11
7735.8458815548147
 21
3476.1432372274744
  0
LINE
  8
_0-0_
  6
CONTINUOUS
 62
    7
 10
7735.8458815548147
 20
3476.1432372274744
 11
7888.846831723733
 21
3476.1432372274744
  0
LINE
  8
_0-0_
  6
CONTINUOUS
 62
    7
 10
7735.8458815548147
 20
3506.1433362034036
 11
7888.846831723733
 21
3506.1433362034036
  0
LINE
  8
_0-0_
  6
CONTINUOUS
 62
    7
 10
7858.8462378681579
 20
3508.1431448499407
 11
7888.846831723733
 21
3508.1431448499407
  0
LINE
  8
_0-0_
  6
CONTINUOUS
 62
    7
 10
4063.847326603378
 20
3506.1433362034036
 11
4063.847326603378
 21
3476.1432372274744
  0
LINE
  8
_0-0_
  6
CONTINUOUS
 62
    7
 10
3940.8474651696779
 20
3508.1431448499407
 11
3940.8474651696779
 21
3506.1433362034036
  0
LINE
  8
_0-0_
  6
CONTINUOUS
 62
    7
 10
4063.847326603378
 20
3506.1433362034036
 11
4063.847326603378
 21
3476.1432372274744
  0
LINE
  8
_0-0_
  6
CONTINUOUS
 62
    7
 10
3910.8473661937487
 20
3506.1433362034036
 11
4063.847326603378
 21
3506.1433362034036
  0
LINE
  8
_0-0_
  6
CONTINUOUS
 62
    7
 10
3910.8473661937487
 20
3508.1431448499407
 11
3940.8474651696779
 21
3508.1431448499407
  0
LINE
  8
_0-0_
  6
CONTINUOUS
 62
    7
 10
3910.8473661937487
 20
3476.1432372274744
 11
4063.847326603378
 21
3476.1432372274744
  0
LINE
  8
_0-0_
  6
CONTINUOUS
 62
    7
 10
4063.847326603378
 20
3476.1432372274744
 11
4369.8472474226346
 21
3476.1432372274744
  0
LINE
  8
ADD_LINE
  6
DOT
 62
    3
 10
3910.8473661937487
 20
3737.1110898457173
 11
4127.1350100387663
 21
3737.1110898457173
  0
LINE
  8
_0-0_
  6
CONTINUOUS
 62
    7
 10
4063.847326603378
 20
3737.1110898457173
 11
4369.8472474226346
 21
3737.1110898457173
  0
LINE
  8
_0-0_
  6
CONTINUOUS
 62
    7
 10
4186.847188037078
 20
3739.1108984922544
 11
4246.8473859889355
 21
3739.1108984922544
  0
LINE
  8
_0-0_
  6
CONTINUOUS
 62
    7
 10
4186.847188037078
 20
3739.1108984922544
 11
4186.847188037078
 21
3737.1110898457173
  0
LINE
  8
_0-0_
  6
CONTINUOUS
 62
    7
 10
4246.8473859889355
 20
3739.1108984922544
 11
4246.8473859889355
 21
3737.1110898457173
  0
LINE
  8
_0-0_
  6
CONTINUOUS
 62
    7
 10
4369.8472474226346
 20
3737.1110898457173
 11
4369.8472474226346
 21
3707.1109908697881
  0
LINE
  8
_0-0_
  6
CONTINUOUS
 62
    7
 10
4675.8471682418913
 20
3737.1110898457173
 11
4981.8470890611488
 21
3737.1110898457173
  0
LINE
  8
_0-0_
  6
CONTINUOUS
 62
    7
 10
4675.8471682418913
 20
3707.1109908697881
 11
4981.8470890611488
 21
3707.1109908697881
  0
LINE
  8
_0-0_
  6
CONTINUOUS
 62
    7
 10
4798.8470296755913
 20
3739.1108984922544
 11
4858.8472276274497
 21
3739.1108984922544
  0
LINE
  8
_0-0_
  6
CONTINUOUS
 62
    7
 10
4798.8470296755913
 20
3739.1108984922544
 11
4798.8470296755913
 21
3737.1110898457173
  0
LINE
  8
_0-0_
  6
CONTINUOUS
 62
    7
 10
4858.8472276274497
 20
3739.1108984922544
 11
4858.8472276274497
 21
3737.1110898457173
  0
LINE
  8
_0-0_
  6
CONTINUOUS
 62
    7
 10
4675.8471682418913
 20
3737.1110898457173
 11
4675.8471682418913
 21
3707.1109908697881
  0
LINE
  8
_0-0_
  6
CONTINUOUS
 62
    7
 10
4981.8470890611488
 20
3737.1110898457173
 11
5287.8470098804046
 21
3737.1110898457173
  0
LINE
  8
_0-0_
  6
CONTINUOUS
 62
    7
 10
4981.8470890611488
 20
3707.1109908697881
 11
5287.8470098804046
 21
3707.1109908697881
  0
LINE
  8
_0-0_
  6
CONTINUOUS
 62
    7
 10
5104.8469504948471
 20
3739.1108984922544
 11
5164.8471484467054
 21
3739.1108984922544
  0
LINE
  8
_0-0_
  6
CONTINUOUS
 62
    7
 10
5104.8469504948471
 20
3739.1108984922544
 11
5104.8469504948471
 21
3737.1110898457173
  0
LINE
  8
_0-0_
  6
CONTINUOUS
 62
    7
 10
5164.8471484467054
 20
3739.1108984922544
 11
5164.8471484467054
 21
3737.1110898457173
  0
LINE
  8
_0-0_
  6
CONTINUOUS
 62
    7
 10
4981.8470890611488
 20
3737.1110898457173
 11
4981.8470890611488
 21
3707.1109908697881
  0
LINE
  8
_0-0_
  6
CONTINUOUS
 62
    7
 10
5287.8470098804046
 20
3737.1110898457173
 11
5593.8469306996631
 21
3737.1110898457173
  0
LINE
  8
_0-0_
  6
CONTINUOUS
 62
    7
 10
5287.8470098804046
 20
3707.1109908697881
 11
5593.8469306996631
 21
3707.1109908697881
  0
LINE
  8
_0-0_
  6
CONTINUOUS
 62
    7
 10
5410.8468713141046
 20
3739.1108984922544
 11
5470.847069265963
 21
3739.1108984922544
  0
LINE
  8
_0-0_
  6
CONTINUOUS
 62
    7
 10
5410.8468713141046
 20
3739.1108984922544
 11
5410.8468713141046
 21
3737.1110898457173
  0
LINE
  8
_0-0_
  6
CONTINUOUS
 62
    7
 10
5470.847069265963
 20
3739.1108984922544
 11
5470.847069265963
 21
3737.1110898457173
  0
LINE
  8
_0-0_
  6
CONTINUOUS
 62
    7
 10
5287.8470098804046
 20
3737.1110898457173
 11
5287.8470098804046
 21
3707.1109908697881
  0
LINE
  8
_0-0_
  6
CONTINUOUS
 62
    7
 10
5593.8469306996631
 20
3737.1110898457173
 11
5899.8468515189188
 21
3737.1110898457173
  0
LINE
  8
_0-0_
  6
CONTINUOUS
 62
    7
 10
5593.8469306996631
 20
3707.1109908697881
 11
5899.8468515189188
 21
3707.1109908697881
  0
LINE
  8
_0-0_
  6
CONTINUOUS
 62
    7
 10
5716.8467921333604
 20
3739.1108984922544
 11
5776.8469900852187
 21
3739.1108984922544
  0
LINE
  8
_0-0_
  6
CONTINUOUS
 62
    7
 10
5716.8467921333604
 20
3739.1108984922544
 11
5716.8467921333604
 21
3737.1110898457173
  0
LINE
  8
_0-0_
  6
CONTINUOUS
 62
    7
 10
5776.8469900852187
 20
3739.1108984922544
 11
5776.8469900852187
 21
3737.1110898457173
  0
LINE
  8
_0-0_
  6
CONTINUOUS
 62
    7
 10
5593.8469306996631
 20
3737.1110898457173
 11
5593.8469306996631
 21
3707.1109908697881
  0
LINE
  8
_0-0_
  6
CONTINUOUS
 62
    7
 10
5899.8468515189188
 20
3737.1110898457173
 11
6205.8467723381746
 21
3737.1110898457173
  0
LINE
  8
_0-0_
  6
CONTINUOUS
 62
    7
 10
5899.8468515189188
 20
3707.1109908697881
 11
6205.8467723381746
 21
3707.1109908697881
  0
LINE
  8
_0-0_
  6
CONTINUOUS
 62
    7
 10
6022.8467129526189
 20
3739.1108984922544
 11
6082.8469109044772
 21
3739.1108984922544
  0
LINE
  8
_0-0_
  6
CONTINUOUS
 62
    7
 10
6022.8467129526189
 20
3739.1108984922544
 11
6022.8467129526189
 21
3737.1110898457173
  0
LINE
  8
_0-0_
  6
CONTINUOUS
 62
    7
 10
6082.8469109044772
 20
3739.1108984922544
 11
6082.8469109044772
 21
3737.1110898457173
  0
LINE
  8
_0-0_
  6
CONTINUOUS
 62
    7
 10
5899.8468515189188
 20
3737.1110898457173
 11
5899.8468515189188
 21
3707.1109908697881
  0
LINE
  8
_0-0_
  6
CONTINUOUS
 62
    7
 10
6205.8467723381746
 20
3737.1110898457173
 11
6511.8466931574312
 21
3737.1110898457173
  0
LINE
  8
_0-0_
  6
CONTINUOUS
 62
    7
 10
6205.8467723381746
 20
3707.1109908697881
 11
6511.8466931574312
 21
3707.1109908697881
  0
LINE
  8
_0-0_
  6
CONTINUOUS
 62
    7
 10
6328.8466337718746
 20
3739.1108984922544
 11
6388.846831723733
 21
3739.1108984922544
  0
LINE
  8
_0-0_
  6
CONTINUOUS
 62
    7
 10
6328.8466337718746
 20
3739.1108984922544
 11
6328.8466337718746
 21
3737.1110898457173
  0
LINE
  8
_0-0_
  6
CONTINUOUS
 62
    7
 10
6388.846831723733
 20
3739.1108984922544
 11
6388.846831723733
 21
3737.1110898457173
  0
LINE
  8
_0-0_
  6
CONTINUOUS
 62
    7
 10
6205.8467723381746
 20
3737.1110898457173
 11
6205.8467723381746
 21
3707.1109908697881
  0
LINE
  8
_0-0_
  6
CONTINUOUS
 62
    7
 10
6511.8466931574312
 20
3737.1110898457173
 11
6817.8466139766897
 21
3737.1110898457173
  0
LINE
  8
_0-0_
  6
CONTINUOUS
 62
    7
 10
6511.8466931574312
 20
3707.1109908697881
 11
6817.8466139766897
 21
3707.1109908697881
  0
LINE
  8
_0-0_
  6
CONTINUOUS
 62
    7
 10
6634.8465545911313
 20
3739.1108984922544
 11
6694.8467525429896
 21
3739.1108984922544
  0
LINE
  8
_0-0_
  6
CONTINUOUS
 62
    7
 10
6634.8465545911313
 20
3739.1108984922544
 11
6634.8465545911313
 21
3737.1110898457173
  0
LINE
  8
_0-0_
  6
CONTINUOUS
 62
    7
 10
6694.8467525429896
 20
3739.1108984922544
 11
6694.8467525429896
 21
3737.1110898457173
  0
LINE
  8
_0-0_
  6
CONTINUOUS
 62
    7
 10
6511.8466931574312
 20
3737.1110898457173
 11
6511.8466931574312
 21
3707.1109908697881
  0
LINE
  8
_0-0_
  6
CONTINUOUS
 62
    7
 10
6817.8466139766897
 20
3737.1110898457173
 11
7123.8460399162996
 21
3737.1110898457173
  0
LINE
  8
_0-0_
  6
CONTINUOUS
 62
    7
 10
6817.8466139766897
 20
3707.1109908697881
 11
7123.8460399162996
 21
3707.1109908697881
  0
LINE
  8
_0-0_
  6
CONTINUOUS
 62
    7
 10
6940.8464754103879
 20
3739.1108984922544
 11
7000.8466733622463
 21
3739.1108984922544
  0
LINE
  8
_0-0_
  6
CONTINUOUS
 62
    7
 10
6940.8464754103879
 20
3739.1108984922544
 11
6940.8464754103879
 21
3737.1110898457173
  0
LINE
  8
_0-0_
  6
CONTINUOUS
 62
    7
 10
7000.8466733622463
 20
3739.1108984922544
 11
7000.8466733622463
 21
3737.1110898457173
  0
LINE
  8
_0-0_
  6
CONTINUOUS
 62
    7
 10
6817.8466139766897
 20
3737.1110898457173
 11
6817.8466139766897
 21
3707.1109908697881
  0
LINE
  8
_0-0_
  6
CONTINUOUS
 62
    7
 10
7123.8460399162996
 20
3737.1110898457173
 11
7123.8460399162996
 21
3707.1109908697881
  0
LINE
  8
_0-0_
  6
CONTINUOUS
 62
    7
 10
7429.845960735558
 20
3737.1110898457173
 11
7735.8458815548147
 21
3737.1110898457173
  0
LINE
  8
_0-0_
  6
CONTINUOUS
 62
    7
 10
7429.845960735558
 20
3707.1109908697881
 11
7735.8458815548147
 21
3707.1109908697881
  0
LINE
  8
_0-0_
  6
CONTINUOUS
 62
    7
 10
7552.8463170489022
 20
3739.1108984922544
 11
7612.8465150007605
 21
3739.1108984922544
  0
LINE
  8
_0-0_
  6
CONTINUOUS
 62
    7
 10
7552.8463170489022
 20
3739.1108984922544
 11
7552.8463170489022
 21
3737.1110898457173
  0
LINE
  8
_0-0_
  6
CONTINUOUS
 62
    7
 10
7612.8465150007605
 20
3739.1108984922544
 11
7612.8465150007605
 21
3737.1110898457173
  0
LINE
  8
_0-0_
  6
CONTINUOUS
 62
    7
 10
7429.845960735558
 20
3737.1110898457173
 11
7429.845960735558
 21
3707.1109908697881
  0
LINE
  8
_0-0_
  6
CONTINUOUS
 62
    7
 10
7858.8462378681579
 20
3739.1108984922544
 11
7858.8462378681579
 21
3737.1110898457173
  0
LINE
  8
_0-0_
  6
CONTINUOUS
 62
    7
 10
7735.8458815548147
 20
3737.1110898457173
 11
7735.8458815548147
 21
3707.1109908697881
  0
LINE
  8
_0-0_
  6
CONTINUOUS
 62
    7
 10
7735.8458815548147
 20
3707.1109908697881
 11
7888.846831723733
 21
3707.1109908697881
  0
LINE
  8
_0-0_
  6
CONTINUOUS
 62
    7
 10
7735.8458815548147
 20
3737.1110898457173
 11
7888.846831723733
 21
3737.1110898457173
  0
LINE
  8
_0-0_
  6
CONTINUOUS
 62
    7
 10
7858.8462378681579
 20
3739.1108984922544
 11
7888.846831723733
 21
3739.1108984922544
  0
LINE
  8
_0-0_
  6
CONTINUOUS
 62
    7
 10
4063.847326603378
 20
3737.1110898457173
 11
4063.847326603378
 21
3707.1109908697881
  0
LINE
  8
_0-0_
  6
CONTINUOUS
 62
    7
 10
3940.8474651696779
 20
3739.1108984922544
 11
3940.8474651696779
 21
3737.1110898457173
  0
LINE
  8
_0-0_
  6
CONTINUOUS
 62
    7
 10
4063.847326603378
 20
3737.1110898457173
 11
4063.847326603378
 21
3707.1109908697881
  0
LINE
  8
_0-0_
  6
CONTINUOUS
 62
    7
 10
3910.8473661937487
 20
3737.1110898457173
 11
4063.847326603378
 21
3737.1110898457173
  0
LINE
  8
_0-0_
  6
CONTINUOUS
 62
    7
 10
3910.8473661937487
 20
3739.1108984922544
 11
3940.8474651696779
 21
3739.1108984922544
  0
LINE
  8
_0-0_
  6
CONTINUOUS
 62
    7
 10
3910.8473661937487
 20
3707.1109908697881
 11
4063.847326603378
 21
3707.1109908697881
  0
LINE
  8
_0-0_
  6
CONTINUOUS
 62
    7
 10
4063.847326603378
 20
3707.1109908697881
 11
4369.8472474226346
 21
3707.1109908697881
  0
LINE
  8
ADD_LINE
  6
DOT
 62
    3
 10
3910.8473661937487
 20
3968.0785960482085
 11
4127.1350100387663
 21
3968.0785960482085
  0
LINE
  8
_0-0_
  6
CONTINUOUS
 62
    7
 10
4063.847326603378
 20
3968.0785960482085
 11
4369.8472474226346
 21
3968.0785960482085
  0
LINE
  8
_0-0_
  6
CONTINUOUS
 62
    7
 10
4186.847188037078
 20
3970.078404694746
 11
4246.8473859889355
 21
3970.078404694746
  0
LINE
  8
_0-0_
  6
CONTINUOUS
 62
    7
 10
4186.847188037078
 20
3970.078404694746
 11
4186.847188037078
 21
3968.0785960482085
  0
LINE
  8
_0-0_
  6
CONTINUOUS
 62
    7
 10
4246.8473859889355
 20
3970.078404694746
 11
4246.8473859889355
 21
3968.0785960482085
  0
LINE
  8
_0-0_
  6
CONTINUOUS
 62
    7
 10
4369.8472474226346
 20
3968.0785960482085
 11
4369.8472474226346
 21
3938.0784970722798
  0
LINE
  8
_0-0_
  6
CONTINUOUS
 62
    7
 10
4675.8471682418913
 20
3968.0785960482085
 11
4981.8470890611488
 21
3968.0785960482085
  0
LINE
  8
_0-0_
  6
CONTINUOUS
 62
    7
 10
4675.8471682418913
 20
3938.0784970722798
 11
4981.8470890611488
 21
3938.0784970722798
  0
LINE
  8
_0-0_
  6
CONTINUOUS
 62
    7
 10
4798.8470296755913
 20
3970.078404694746
 11
4858.8472276274497
 21
3970.078404694746
  0
LINE
  8
_0-0_
  6
CONTINUOUS
 62
    7
 10
4798.8470296755913
 20
3970.078404694746
 11
4798.8470296755913
 21
3968.0785960482085
  0
LINE
  8
_0-0_
  6
CONTINUOUS
 62
    7
 10
4858.8472276274497
 20
3970.078404694746
 11
4858.8472276274497
 21
3968.0785960482085
  0
LINE
  8
_0-0_
  6
CONTINUOUS
 62
    7
 10
4675.8471682418913
 20
3968.0785960482085
 11
4675.8471682418913
 21
3938.0784970722798
  0
LINE
  8
_0-0_
  6
CONTINUOUS
 62
    7
 10
4981.8470890611488
 20
3968.0785960482085
 11
5287.8470098804046
 21
3968.0785960482085
  0
LINE
  8
_0-0_
  6
CONTINUOUS
 62
    7
 10
4981.8470890611488
 20
3938.0784970722798
 11
5287.8470098804046
 21
3938.0784970722798
  0
LINE
  8
_0-0_
  6
CONTINUOUS
 62
    7
 10
5104.8469504948471
 20
3970.078404694746
 11
5164.8471484467054
 21
3970.078404694746
  0
LINE
  8
_0-0_
  6
CONTINUOUS
 62
    7
 10
5104.8469504948471
 20
3970.078404694746
 11
5104.8469504948471
 21
3968.0785960482085
  0
LINE
  8
_0-0_
  6
CONTINUOUS
 62
    7
 10
5164.8471484467054
 20
3970.078404694746
 11
5164.8471484467054
 21
3968.0785960482085
  0
LINE
  8
_0-0_
  6
CONTINUOUS
 62
    7
 10
4981.8470890611488
 20
3968.0785960482085
 11
4981.8470890611488
 21
3938.0784970722798
  0
LINE
  8
_0-0_
  6
CONTINUOUS
 62
    7
 10
5287.8470098804046
 20
3968.0785960482085
 11
5593.8469306996631
 21
3968.0785960482085
  0
LINE
  8
_0-0_
  6
CONTINUOUS
 62
    7
 10
5287.8470098804046
 20
3938.0784970722798
 11
5593.8469306996631
 21
3938.0784970722798
  0
LINE
  8
_0-0_
  6
CONTINUOUS
 62
    7
 10
5410.8468713141046
 20
3970.078404694746
 11
5470.847069265963
 21
3970.078404694746
  0
LINE
  8
_0-0_
  6
CONTINUOUS
 62
    7
 10
5410.8468713141046
 20
3970.078404694746
 11
5410.8468713141046
 21
3968.0785960482085
  0
LINE
  8
_0-0_
  6
CONTINUOUS
 62
    7
 10
5470.847069265963
 20
3970.078404694746
 11
5470.847069265963
 21
3968.0785960482085
  0
LINE
  8
_0-0_
  6
CONTINUOUS
 62
    7
 10
5287.8470098804046
 20
3968.0785960482085
 11
5287.8470098804046
 21
3938.0784970722798
  0
LINE
  8
_0-0_
  6
CONTINUOUS
 62
    7
 10
5593.8469306996631
 20
3968.0785960482085
 11
5899.8468515189188
 21
3968.0785960482085
  0
LINE
  8
_0-0_
  6
CONTINUOUS
 62
    7
 10
5593.8469306996631
 20
3938.0784970722798
 11
5899.8468515189188
 21
3938.0784970722798
  0
LINE
  8
_0-0_
  6
CONTINUOUS
 62
    7
 10
5716.8467921333604
 20
3970.078404694746
 11
5776.8469900852187
 21
3970.078404694746
  0
LINE
  8
_0-0_
  6
CONTINUOUS
 62
    7
 10
5716.8467921333604
 20
3970.078404694746
 11
5716.8467921333604
 21
3968.0785960482085
  0
LINE
  8
_0-0_
  6
CONTINUOUS
 62
    7
 10
5776.8469900852187
 20
3970.078404694746
 11
5776.8469900852187
 21
3968.0785960482085
  0
LINE
  8
_0-0_
  6
CONTINUOUS
 62
    7
 10
5593.8469306996631
 20
3968.0785960482085
 11
5593.8469306996631
 21
3938.0784970722798
  0
LINE
  8
_0-0_
  6
CONTINUOUS
 62
    7
 10
5899.8468515189188
 20
3968.0785960482085
 11
6205.8467723381746
 21
3968.0785960482085
  0
LINE
  8
_0-0_
  6
CONTINUOUS
 62
    7
 10
5899.8468515189188
 20
3938.0784970722798
 11
6205.8467723381746
 21
3938.0784970722798
  0
LINE
  8
_0-0_
  6
CONTINUOUS
 62
    7
 10
6022.8467129526189
 20
3970.078404694746
 11
6082.8469109044772
 21
3970.078404694746
  0
LINE
  8
_0-0_
  6
CONTINUOUS
 62
    7
 10
6022.8467129526189
 20
3970.078404694746
 11
6022.8467129526189
 21
3968.0785960482085
  0
LINE
  8
_0-0_
  6
CONTINUOUS
 62
    7
 10
6082.8469109044772
 20
3970.078404694746
 11
6082.8469109044772
 21
3968.0785960482085
  0
LINE
  8
_0-0_
  6
CONTINUOUS
 62
    7
 10
5899.8468515189188
 20
3968.0785960482085
 11
5899.8468515189188
 21
3938.0784970722798
  0
LINE
  8
_0-0_
  6
CONTINUOUS
 62
    7
 10
6205.8467723381746
 20
3968.0785960482085
 11
6511.8466931574312
 21
3968.0785960482085
  0
LINE
  8
_0-0_
  6
CONTINUOUS
 62
    7
 10
6205.8467723381746
 20
3938.0784970722798
 11
6511.8466931574312
 21
3938.0784970722798
  0
LINE
  8
_0-0_
  6
CONTINUOUS
 62
    7
 10
6328.8466337718746
 20
3970.078404694746
 11
6388.846831723733
 21
3970.078404694746
  0
LINE
  8
_0-0_
  6
CONTINUOUS
 62
    7
 10
6328.8466337718746
 20
3970.078404694746
 11
6328.8466337718746
 21
3968.0785960482085
  0
LINE
  8
_0-0_
  6
CONTINUOUS
 62
    7
 10
6388.846831723733
 20
3970.078404694746
 11
6388.846831723733
 21
3968.0785960482085
  0
LINE
  8
_0-0_
  6
CONTINUOUS
 62
    7
 10
6205.8467723381746
 20
3968.0785960482085
 11
6205.8467723381746
 21
3938.0784970722798
  0
LINE
  8
_0-0_
  6
CONTINUOUS
 62
    7
 10
6511.8466931574312
 20
3968.0785960482085
 11
6817.8466139766897
 21
3968.0785960482085
  0
LINE
  8
_0-0_
  6
CONTINUOUS
 62
    7
 10
6511.8466931574312
 20
3938.0784970722798
 11
6817.8466139766897
 21
3938.0784970722798
  0
LINE
  8
_0-0_
  6
CONTINUOUS
 62
    7
 10
6634.8465545911313
 20
3970.078404694746
 11
6694.8467525429896
 21
3970.078404694746
  0
LINE
  8
_0-0_
  6
CONTINUOUS
 62
    7
 10
6634.8465545911313
 20
3970.078404694746
 11
6634.8465545911313
 21
3968.0785960482085
  0
LINE
  8
_0-0_
  6
CONTINUOUS
 62
    7
 10
6694.8467525429896
 20
3970.078404694746
 11
6694.8467525429896
 21
3968.0785960482085
  0
LINE
  8
_0-0_
  6
CONTINUOUS
 62
    7
 10
6511.8466931574312
 20
3968.0785960482085
 11
6511.8466931574312
 21
3938.0784970722798
  0
LINE
  8
_0-0_
  6
CONTINUOUS
 62
    7
 10
6817.8466139766897
 20
3968.0785960482085
 11
7123.8460399162996
 21
3968.0785960482085
  0
LINE
  8
_0-0_
  6
CONTINUOUS
 62
    7
 10
6817.8466139766897
 20
3938.0784970722798
 11
7123.8460399162996
 21
3938.0784970722798
  0
LINE
  8
_0-0_
  6
CONTINUOUS
 62
    7
 10
6940.8464754103879
 20
3970.078404694746
 11
7000.8466733622463
 21
3970.078404694746
  0
LINE
  8
_0-0_
  6
CONTINUOUS
 62
    7
 10
6940.8464754103879
 20
3970.078404694746
 11
6940.8464754103879
 21
3968.0785960482085
  0
LINE
  8
_0-0_
  6
CONTINUOUS
 62
    7
 10
7000.8466733622463
 20
3970.078404694746
 11
7000.8466733622463
 21
3968.0785960482085
  0
LINE
  8
_0-0_
  6
CONTINUOUS
 62
    7
 10
6817.8466139766897
 20
3968.0785960482085
 11
6817.8466139766897
 21
3938.0784970722798
  0
LINE
  8
_0-0_
  6
CONTINUOUS
 62
    7
 10
7123.8460399162996
 20
3968.0785960482085
 11
7123.8460399162996
 21
3938.0784970722798
  0
LINE
  8
_0-0_
  6
CONTINUOUS
 62
    7
 10
7429.845960735558
 20
3968.0785960482085
 11
7735.8458815548147
 21
3968.0785960482085
  0
LINE
  8
_0-0_
  6
CONTINUOUS
 62
    7
 10
7429.845960735558
 20
3938.0784970722798
 11
7735.8458815548147
 21
3938.0784970722798
  0
LINE
  8
_0-0_
  6
CONTINUOUS
 62
    7
 10
7552.8463170489022
 20
3970.078404694746
 11
7612.8465150007605
 21
3970.078404694746
  0
LINE
  8
_0-0_
  6
CONTINUOUS
 62
    7
 10
7552.8463170489022
 20
3970.078404694746
 11
7552.8463170489022
 21
3968.0785960482085
  0
LINE
  8
_0-0_
  6
CONTINUOUS
 62
    7
 10
7612.8465150007605
 20
3970.078404694746
 11
7612.8465150007605
 21
3968.0785960482085
  0
LINE
  8
_0-0_
  6
CONTINUOUS
 62
    7
 10
7429.845960735558
 20
3968.0785960482085
 11
7429.845960735558
 21
3938.0784970722798
  0
LINE
  8
_0-0_
  6
CONTINUOUS
 62
    7
 10
7858.8462378681579
 20
3970.078404694746
 11
7858.8462378681579
 21
3968.0785960482085
  0
LINE
  8
_0-0_
  6
CONTINUOUS
 62
    7
 10
7735.8458815548147
 20
3968.0785960482085
 11
7735.8458815548147
 21
3938.0784970722798
  0
LINE
  8
_0-0_
  6
CONTINUOUS
 62
    7
 10
7735.8458815548147
 20
3938.0784970722798
 11
7888.846831723733
 21
3938.0784970722798
  0
LINE
  8
_0-0_
  6
CONTINUOUS
 62
    7
 10
7735.8458815548147
 20
3968.0785960482085
 11
7888.846831723733
 21
3968.0785960482085
  0
LINE
  8
_0-0_
  6
CONTINUOUS
 62
    7
 10
7858.8462378681579
 20
3970.078404694746
 11
7888.846831723733
 21
3970.078404694746
  0
LINE
  8
_0-0_
  6
CONTINUOUS
 62
    7
 10
4063.847326603378
 20
3968.0785960482085
 11
4063.847326603378
 21
3938.0784970722798
  0
LINE
  8
_0-0_
  6
CONTINUOUS
 62
    7
 10
3940.8474651696779
 20
3970.078404694746
 11
3940.8474651696779
 21
3968.0785960482085
  0
LINE
  8
_0-0_
  6
CONTINUOUS
 62
    7
 10
4063.847326603378
 20
3968.0785960482085
 11
4063.847326603378
 21
3938.0784970722798
  0
LINE
  8
_0-0_
  6
CONTINUOUS
 62
    7
 10
3910.8473661937487
 20
3968.0785960482085
 11
4063.847326603378
 21
3968.0785960482085
  0
LINE
  8
_0-0_
  6
CONTINUOUS
 62
    7
 10
3910.8473661937487
 20
3970.078404694746
 11
3940.8474651696779
 21
3970.078404694746
  0
LINE
  8
_0-0_
  6
CONTINUOUS
 62
    7
 10
3910.8473661937487
 20
3938.0784970722798
 11
4063.847326603378
 21
3938.0784970722798
  0
LINE
  8
_0-0_
  6
CONTINUOUS
 62
    7
 10
4063.847326603378
 20
3938.0784970722798
 11
4369.8472474226346
 21
3938.0784970722798
  0
LINE
  8
ADD_LINE
  6
DOT
 62
    3
 10
3910.8473661937487
 20
4199.0463496905231
 11
4127.1350100387663
 21
4199.0463496905231
  0
LINE
  8
_0-0_
  6
CONTINUOUS
 62
    7
 10
4063.847326603378
 20
4199.0463496905231
 11
4369.8472474226346
 21
4199.0463496905231
  0
LINE
  8
_0-0_
  6
CONTINUOUS
 62
    7
 10
4186.847188037078
 20
4201.0461583370598
 11
4246.8473859889355
 21
4201.0461583370598
  0
LINE
  8
_0-0_
  6
CONTINUOUS
 62
    7
 10
4186.847188037078
 20
4201.0461583370598
 11
4186.847188037078
 21
4199.0463496905231
  0
LINE
  8
_0-0_
  6
CONTINUOUS
 62
    7
 10
4246.8473859889355
 20
4201.0461583370598
 11
4246.8473859889355
 21
4199.0463496905231
  0
LINE
  8
_0-0_
  6
CONTINUOUS
 62
    7
 10
4369.8472474226346
 20
4199.0463496905231
 11
4369.8472474226346
 21
4169.046250714594
  0
LINE
  8
_0-0_
  6
CONTINUOUS
 62
    7
 10
4675.8471682418913
 20
4199.0463496905231
 11
4981.8470890611488
 21
4199.0463496905231
  0
LINE
  8
_0-0_
  6
CONTINUOUS
 62
    7
 10
4675.8471682418913
 20
4169.046250714594
 11
4981.8470890611488
 21
4169.046250714594
  0
LINE
  8
_0-0_
  6
CONTINUOUS
 62
    7
 10
4798.8470296755913
 20
4201.0461583370598
 11
4858.8472276274497
 21
4201.0461583370598
  0
LINE
  8
_0-0_
  6
CONTINUOUS
 62
    7
 10
4798.8470296755913
 20
4201.0461583370598
 11
4798.8470296755913
 21
4199.0463496905231
  0
LINE
  8
_0-0_
  6
CONTINUOUS
 62
    7
 10
4858.8472276274497
 20
4201.0461583370598
 11
4858.8472276274497
 21
4199.0463496905231
  0
LINE
  8
_0-0_
  6
CONTINUOUS
 62
    7
 10
4675.8471682418913
 20
4199.0463496905231
 11
4675.8471682418913
 21
4169.046250714594
  0
LINE
  8
_0-0_
  6
CONTINUOUS
 62
    7
 10
4981.8470890611488
 20
4199.0463496905231
 11
5287.8470098804046
 21
4199.0463496905231
  0
LINE
  8
_0-0_
  6
CONTINUOUS
 62
    7
 10
4981.8470890611488
 20
4169.046250714594
 11
5287.8470098804046
 21
4169.046250714594
  0
LINE
  8
_0-0_
  6
CONTINUOUS
 62
    7
 10
5104.8469504948471
 20
4201.0461583370598
 11
5164.8471484467054
 21
4201.0461583370598
  0
LINE
  8
_0-0_
  6
CONTINUOUS
 62
    7
 10
5104.8469504948471
 20
4201.0461583370598
 11
5104.8469504948471
 21
4199.0463496905231
  0
LINE
  8
_0-0_
  6
CONTINUOUS
 62
    7
 10
5164.8471484467054
 20
4201.0461583370598
 11
5164.8471484467054
 21
4199.0463496905231
  0
LINE
  8
_0-0_
  6
CONTINUOUS
 62
    7
 10
4981.8470890611488
 20
4199.0463496905231
 11
4981.8470890611488
 21
4169.046250714594
  0
LINE
  8
_0-0_
  6
CONTINUOUS
 62
    7
 10
5287.8470098804046
 20
4199.0463496905231
 11
5593.8469306996631
 21
4199.0463496905231
  0
LINE
  8
_0-0_
  6
CONTINUOUS
 62
    7
 10
5287.8470098804046
 20
4169.046250714594
 11
5593.8469306996631
 21
4169.046250714594
  0
LINE
  8
_0-0_
  6
CONTINUOUS
 62
    7
 10
5410.8468713141046
 20
4201.0461583370598
 11
5470.847069265963
 21
4201.0461583370598
  0
LINE
  8
_0-0_
  6
CONTINUOUS
 62
    7
 10
5410.8468713141046
 20
4201.0461583370598
 11
5410.8468713141046
 21
4199.0463496905231
  0
LINE
  8
_0-0_
  6
CONTINUOUS
 62
    7
 10
5470.847069265963
 20
4201.0461583370598
 11
5470.847069265963
 21
4199.0463496905231
  0
LINE
  8
_0-0_
  6
CONTINUOUS
 62
    7
 10
5287.8470098804046
 20
4199.0463496905231
 11
5287.8470098804046
 21
4169.046250714594
  0
LINE
  8
_0-0_
  6
CONTINUOUS
 62
    7
 10
5593.8469306996631
 20
4199.0463496905231
 11
5899.8468515189188
 21
4199.0463496905231
  0
LINE
  8
_0-0_
  6
CONTINUOUS
 62
    7
 10
5593.8469306996631
 20
4169.046250714594
 11
5899.8468515189188
 21
4169.046250714594
  0
LINE
  8
_0-0_
  6
CONTINUOUS
 62
    7
 10
5716.8467921333604
 20
4201.0461583370598
 11
5776.8469900852187
 21
4201.0461583370598
  0
LINE
  8
_0-0_
  6
CONTINUOUS
 62
    7
 10
5716.8467921333604
 20
4201.0461583370598
 11
5716.8467921333604
 21
4199.0463496905231
  0
LINE
  8
_0-0_
  6
CONTINUOUS
 62
    7
 10
5776.8469900852187
 20
4201.0461583370598
 11
5776.8469900852187
 21
4199.0463496905231
  0
LINE
  8
_0-0_
  6
CONTINUOUS
 62
    7
 10
5593.8469306996631
 20
4199.0463496905231
 11
5593.8469306996631
 21
4169.046250714594
  0
LINE
  8
_0-0_
  6
CONTINUOUS
 62
    7
 10
5899.8468515189188
 20
4199.0463496905231
 11
6205.8467723381746
 21
4199.0463496905231
  0
LINE
  8
_0-0_
  6
CONTINUOUS
 62
    7
 10
5899.8468515189188
 20
4169.046250714594
 11
6205.8467723381746
 21
4169.046250714594
  0
LINE
  8
_0-0_
  6
CONTINUOUS
 62
    7
 10
6022.8467129526189
 20
4201.0461583370598
 11
6082.8469109044772
 21
4201.0461583370598
  0
LINE
  8
_0-0_
  6
CONTINUOUS
 62
    7
 10
6022.8467129526189
 20
4201.0461583370598
 11
6022.8467129526189
 21
4199.0463496905231
  0
LINE
  8
_0-0_
  6
CONTINUOUS
 62
    7
 10
6082.8469109044772
 20
4201.0461583370598
 11
6082.8469109044772
 21
4199.0463496905231
  0
LINE
  8
_0-0_
  6
CONTINUOUS
 62
    7
 10
5899.8468515189188
 20
4199.0463496905231
 11
5899.8468515189188
 21
4169.046250714594
  0
LINE
  8
_0-0_
  6
CONTINUOUS
 62
    7
 10
6205.8467723381746
 20
4199.0463496905231
 11
6511.8466931574312
 21
4199.0463496905231
  0
LINE
  8
_0-0_
  6
CONTINUOUS
 62
    7
 10
6205.8467723381746
 20
4169.046250714594
 11
6511.8466931574312
 21
4169.046250714594
  0
LINE
  8
_0-0_
  6
CONTINUOUS
 62
    7
 10
6328.8466337718746
 20
4201.0461583370598
 11
6388.846831723733
 21
4201.0461583370598
  0
LINE
  8
_0-0_
  6
CONTINUOUS
 62
    7
 10
6328.8466337718746
 20
4201.0461583370598
 11
6328.8466337718746
 21
4199.0463496905231
  0
LINE
  8
_0-0_
  6
CONTINUOUS
 62
    7
 10
6388.846831723733
 20
4201.0461583370598
 11
6388.846831723733
 21
4199.0463496905231
  0
LINE
  8
_0-0_
  6
CONTINUOUS
 62
    7
 10
6205.8467723381746
 20
4199.0463496905231
 11
6205.8467723381746
 21
4169.046250714594
  0
LINE
  8
_0-0_
  6
CONTINUOUS
 62
    7
 10
6511.8466931574312
 20
4199.0463496905231
 11
6817.8466139766897
 21
4199.0463496905231
  0
LINE
  8
_0-0_
  6
CONTINUOUS
 62
    7
 10
6511.8466931574312
 20
4169.046250714594
 11
6817.8466139766897
 21
4169.046250714594
  0
LINE
  8
_0-0_
  6
CONTINUOUS
 62
    7
 10
6634.8465545911313
 20
4201.0461583370598
 11
6694.8467525429896
 21
4201.0461583370598
  0
LINE
  8
_0-0_
  6
CONTINUOUS
 62
    7
 10
6634.8465545911313
 20
4201.0461583370598
 11
6634.8465545911313
 21
4199.0463496905231
  0
LINE
  8
_0-0_
  6
CONTINUOUS
 62
    7
 10
6694.8467525429896
 20
4201.0461583370598
 11
6694.8467525429896
 21
4199.0463496905231
  0
LINE
  8
_0-0_
  6
CONTINUOUS
 62
    7
 10
6511.8466931574312
 20
4199.0463496905231
 11
6511.8466931574312
 21
4169.046250714594
  0
LINE
  8
_0-0_
  6
CONTINUOUS
 62
    7
 10
6817.8466139766897
 20
4199.0463496905231
 11
7123.8460399162996
 21
4199.0463496905231
  0
LINE
  8
_0-0_
  6
CONTINUOUS
 62
    7
 10
6817.8466139766897
 20
4169.046250714594
 11
7123.8460399162996
 21
4169.046250714594
  0
LINE
  8
_0-0_
  6
CONTINUOUS
 62
    7
 10
6940.8464754103879
 20
4201.0461583370598
 11
7000.8466733622463
 21
4201.0461583370598
  0
LINE
  8
_0-0_
  6
CONTINUOUS
 62
    7
 10
6940.8464754103879
 20
4201.0461583370598
 11
6940.8464754103879
 21
4199.0463496905231
  0
LINE
  8
_0-0_
  6
CONTINUOUS
 62
    7
 10
7000.8466733622463
 20
4201.0461583370598
 11
7000.8466733622463
 21
4199.0463496905231
  0
LINE
  8
_0-0_
  6
CONTINUOUS
 62
    7
 10
6817.8466139766897
 20
4199.0463496905231
 11
6817.8466139766897
 21
4169.046250714594
  0
LINE
  8
_0-0_
  6
CONTINUOUS
 62
    7
 10
7123.8460399162996
 20
4199.0463496905231
 11
7123.8460399162996
 21
4169.046250714594
  0
LINE
  8
_0-0_
  6
CONTINUOUS
 62
    7
 10
7429.845960735558
 20
4199.0463496905231
 11
7735.8458815548147
 21
4199.0463496905231
  0
LINE
  8
_0-0_
  6
CONTINUOUS
 62
    7
 10
7429.845960735558
 20
4169.046250714594
 11
7735.8458815548147
 21
4169.046250714594
  0
LINE
  8
_0-0_
  6
CONTINUOUS
 62
    7
 10
7552.8463170489022
 20
4201.0461583370598
 11
7612.8465150007605
 21
4201.0461583370598
  0
LINE
  8
_0-0_
  6
CONTINUOUS
 62
    7
 10
7552.8463170489022
 20
4201.0461583370598
 11
7552.8463170489022
 21
4199.0463496905231
  0
LINE
  8
_0-0_
  6
CONTINUOUS
 62
    7
 10
7612.8465150007605
 20
4201.0461583370598
 11
7612.8465150007605
 21
4199.0463496905231
  0
LINE
  8
_0-0_
  6
CONTINUOUS
 62
    7
 10
7858.8462378681579
 20
4201.0461583370598
 11
7858.8462378681579
 21
4199.0463496905231
  0
LINE
  8
_0-0_
  6
CONTINUOUS
 62
    7
 10
7735.8458815548147
 20
4199.0463496905231
 11
7735.8458815548147
 21
4169.046250714594
  0
LINE
  8
_0-0_
  6
CONTINUOUS
 62
    7
 10
7735.8458815548147
 20
4169.046250714594
 11
7888.846831723733
 21
4169.046250714594
  0
LINE
  8
_0-0_
  6
CONTINUOUS
 62
    7
 10
7735.8458815548147
 20
4199.0463496905231
 11
7888.846831723733
 21
4199.0463496905231
  0
LINE
  8
_0-0_
  6
CONTINUOUS
 62
    7
 10
7858.8462378681579
 20
4201.0461583370598
 11
7888.846831723733
 21
4201.0461583370598
  0
LINE
  8
_0-0_
  6
CONTINUOUS
 62
    7
 10
4063.847326603378
 20
4199.0463496905231
 11
4063.847326603378
 21
4169.046250714594
  0
LINE
  8
_0-0_
  6
CONTINUOUS
 62
    7
 10
3940.8474651696779
 20
4201.0461583370598
 11
3940.8474651696779
 21
4199.0463496905231
  0
LINE
  8
_0-0_
  6
CONTINUOUS
 62
    7
 10
4063.847326603378
 20
4199.0463496905231
 11
4063.847326603378
 21
4169.046250714594
  0
LINE
  8
_0-0_
  6
CONTINUOUS
 62
    7
 10
3910.8473661937487
 20
4199.0463496905231
 11
4063.847326603378
 21
4199.0463496905231
  0
LINE
  8
_0-0_
  6
CONTINUOUS
 62
    7
 10
3910.8473661937487
 20
4201.0461583370598
 11
3940.8474651696779
 21
4201.0461583370598
  0
LINE
  8
_0-0_
  6
CONTINUOUS
 62
    7
 10
3910.8473661937487
 20
4169.046250714594
 11
4063.847326603378
 21
4169.046250714594
  0
LINE
  8
_0-0_
  6
CONTINUOUS
 62
    7
 10
4063.847326603378
 20
4169.046250714594
 11
4369.8472474226346
 21
4169.046250714594
  0
LINE
  8
ADD_LINE
  6
DOT
 62
    3
 10
3910.8473661937487
 20
4430.0141033328373
 11
4127.1350100387663
 21
4430.0141033328373
  0
LINE
  8
_0-0_
  6
CONTINUOUS
 62
    7
 10
4063.847326603378
 20
4430.0141033328373
 11
4369.8472474226346
 21
4430.0141033328373
  0
LINE
  8
_0-0_
  6
CONTINUOUS
 62
    7
 10
4186.847188037078
 20
4432.0139119793739
 11
4246.8473859889355
 21
4432.0139119793739
  0
LINE
  8
_0-0_
  6
CONTINUOUS
 62
    7
 10
4186.847188037078
 20
4432.0139119793739
 11
4186.847188037078
 21
4430.0141033328373
  0
LINE
  8
_0-0_
  6
CONTINUOUS
 62
    7
 10
4246.8473859889355
 20
4432.0139119793739
 11
4246.8473859889355
 21
4430.0141033328373
  0
LINE
  8
_0-0_
  6
CONTINUOUS
 62
    7
 10
4369.8472474226346
 20
4430.0141033328373
 11
4369.8472474226346
 21
4400.0140043569081
  0
LINE
  8
_0-0_
  6
CONTINUOUS
 62
    7
 10
4675.8471682418913
 20
4430.0141033328373
 11
4981.8470890611488
 21
4430.0141033328373
  0
LINE
  8
_0-0_
  6
CONTINUOUS
 62
    7
 10
4675.8471682418913
 20
4400.0140043569081
 11
4981.8470890611488
 21
4400.0140043569081
  0
LINE
  8
_0-0_
  6
CONTINUOUS
 62
    7
 10
4798.8470296755913
 20
4432.0139119793739
 11
4858.8472276274497
 21
4432.0139119793739
  0
LINE
  8
_0-0_
  6
CONTINUOUS
 62
    7
 10
4798.8470296755913
 20
4432.0139119793739
 11
4798.8470296755913
 21
4430.0141033328373
  0
LINE
  8
_0-0_
  6
CONTINUOUS
 62
    7
 10
4858.8472276274497
 20
4432.0139119793739
 11
4858.8472276274497
 21
4430.0141033328373
  0
LINE
  8
_0-0_
  6
CONTINUOUS
 62
    7
 10
4675.8471682418913
 20
4430.0141033328373
 11
4675.8471682418913
 21
4400.0140043569081
  0
LINE
  8
_0-0_
  6
CONTINUOUS
 62
    7
 10
4981.8470890611488
 20
4430.0141033328373
 11
5287.8470098804046
 21
4430.0141033328373
  0
LINE
  8
_0-0_
  6
CONTINUOUS
 62
    7
 10
4981.8470890611488
 20
4400.0140043569081
 11
5287.8470098804046
 21
4400.0140043569081
  0
LINE
  8
_0-0_
  6
CONTINUOUS
 62
    7
 10
5104.8469504948471
 20
4432.0139119793739
 11
5164.8471484467054
 21
4432.0139119793739
  0
LINE
  8
_0-0_
  6
CONTINUOUS
 62
    7
 10
5104.8469504948471
 20
4432.0139119793739
 11
5104.8469504948471
 21
4430.0141033328373
  0
LINE
  8
_0-0_
  6
CONTINUOUS
 62
    7
 10
5164.8471484467054
 20
4432.0139119793739
 11
5164.8471484467054
 21
4430.0141033328373
  0
LINE
  8
_0-0_
  6
CONTINUOUS
 62
    7
 10
4981.8470890611488
 20
4430.0141033328373
 11
4981.8470890611488
 21
4400.0140043569081
  0
LINE
  8
_0-0_
  6
CONTINUOUS
 62
    7
 10
5287.8470098804046
 20
4430.0141033328373
 11
5593.8469306996631
 21
4430.0141033328373
  0
LINE
  8
_0-0_
  6
CONTINUOUS
 62
    7
 10
5287.8470098804046
 20
4400.0140043569081
 11
5593.8469306996631
 21
4400.0140043569081
  0
LINE
  8
_0-0_
  6
CONTINUOUS
 62
    7
 10
5410.8468713141046
 20
4432.0139119793739
 11
5470.847069265963
 21
4432.0139119793739
  0
LINE
  8
_0-0_
  6
CONTINUOUS
 62
    7
 10
5410.8468713141046
 20
4432.0139119793739
 11
5410.8468713141046
 21
4430.0141033328373
  0
LINE
  8
_0-0_
  6
CONTINUOUS
 62
    7
 10
5470.847069265963
 20
4432.0139119793739
 11
5470.847069265963
 21
4430.0141033328373
  0
LINE
  8
_0-0_
  6
CONTINUOUS
 62
    7
 10
5287.8470098804046
 20
4430.0141033328373
 11
5287.8470098804046
 21
4400.0140043569081
  0
LINE
  8
_0-0_
  6
CONTINUOUS
 62
    7
 10
5593.8469306996631
 20
4430.0141033328373
 11
5899.8468515189188
 21
4430.0141033328373
  0
LINE
  8
_0-0_
  6
CONTINUOUS
 62
    7
 10
5593.8469306996631
 20
4400.0140043569081
 11
5899.8468515189188
 21
4400.0140043569081
  0
LINE
  8
_0-0_
  6
CONTINUOUS
 62
    7
 10
5716.8467921333604
 20
4432.0139119793739
 11
5776.8469900852187
 21
4432.0139119793739
  0
LINE
  8
_0-0_
  6
CONTINUOUS
 62
    7
 10
5716.8467921333604
 20
4432.0139119793739
 11
5716.8467921333604
 21
4430.0141033328373
  0
LINE
  8
_0-0_
  6
CONTINUOUS
 62
    7
 10
5776.8469900852187
 20
4432.0139119793739
 11
5776.8469900852187
 21
4430.0141033328373
  0
LINE
  8
_0-0_
  6
CONTINUOUS
 62
    7
 10
5593.8469306996631
 20
4430.0141033328373
 11
5593.8469306996631
 21
4400.0140043569081
  0
LINE
  8
_0-0_
  6
CONTINUOUS
 62
    7
 10
5899.8468515189188
 20
4430.0141033328373
 11
6205.8467723381746
 21
4430.0141033328373
  0
LINE
  8
_0-0_
  6
CONTINUOUS
 62
    7
 10
5899.8468515189188
 20
4400.0140043569081
 11
6205.8467723381746
 21
4400.0140043569081
  0
LINE
  8
_0-0_
  6
CONTINUOUS
 62
    7
 10
6022.8467129526189
 20
4432.0139119793739
 11
6082.8469109044772
 21
4432.0139119793739
  0
LINE
  8
_0-0_
  6
CONTINUOUS
 62
    7
 10
6022.8467129526189
 20
4432.0139119793739
 11
6022.8467129526189
 21
4430.0141033328373
  0
LINE
  8
_0-0_
  6
CONTINUOUS
 62
    7
 10
6082.8469109044772
 20
4432.0139119793739
 11
6082.8469109044772
 21
4430.0141033328373
  0
LINE
  8
_0-0_
  6
CONTINUOUS
 62
    7
 10
6205.8467723381746
 20
4430.0141033328373
 11
6511.8466931574312
 21
4430.0141033328373
  0
LINE
  8
_0-0_
  6
CONTINUOUS
 62
    7
 10
6205.8467723381746
 20
4400.0140043569081
 11
6511.8466931574312
 21
4400.0140043569081
  0
LINE
  8
_0-0_
  6
CONTINUOUS
 62
    7
 10
6328.8466337718746
 20
4432.0139119793739
 11
6388.846831723733
 21
4432.0139119793739
  0
LINE
  8
_0-0_
  6
CONTINUOUS
 62
    7
 10
6328.8466337718746
 20
4432.0139119793739
 11
6328.8466337718746
 21
4430.0141033328373
  0
LINE
  8
_0-0_
  6
CONTINUOUS
 62
    7
 10
6388.846831723733
 20
4432.0139119793739
 11
6388.846831723733
 21
4430.0141033328373
  0
LINE
  8
_0-0_
  6
CONTINUOUS
 62
    7
 10
6205.8467723381746
 20
4430.0141033328373
 11
6205.8467723381746
 21
4400.0140043569081
  0
LINE
  8
_0-0_
  6
CONTINUOUS
 62
    7
 10
6511.8466931574312
 20
4430.0141033328373
 11
6817.8466139766897
 21
4430.0141033328373
  0
LINE
  8
_0-0_
  6
CONTINUOUS
 62
    7
 10
6511.8466931574312
 20
4400.0140043569081
 11
6817.8466139766897
 21
4400.0140043569081
  0
LINE
  8
_0-0_
  6
CONTINUOUS
 62
    7
 10
6634.8465545911313
 20
4432.0139119793739
 11
6694.8467525429896
 21
4432.0139119793739
  0
LINE
  8
_0-0_
  6
CONTINUOUS
 62
    7
 10
6634.8465545911313
 20
4432.0139119793739
 11
6634.8465545911313
 21
4430.0141033328373
  0
LINE
  8
_0-0_
  6
CONTINUOUS
 62
    7
 10
6694.8467525429896
 20
4432.0139119793739
 11
6694.8467525429896
 21
4430.0141033328373
  0
LINE
  8
_0-0_
  6
CONTINUOUS
 62
    7
 10
6511.8466931574312
 20
4430.0141033328373
 11
6511.8466931574312
 21
4400.0140043569081
  0
LINE
  8
_0-0_
  6
CONTINUOUS
 62
    7
 10
6817.8466139766897
 20
4430.0141033328373
 11
7123.8460399162996
 21
4430.0141033328373
  0
LINE
  8
_0-0_
  6
CONTINUOUS
 62
    7
 10
6817.8466139766897
 20
4400.0140043569081
 11
7123.8460399162996
 21
4400.0140043569081
  0
LINE
  8
_0-0_
  6
CONTINUOUS
 62
    7
 10
6940.8464754103879
 20
4432.0139119793739
 11
7000.8466733622463
 21
4432.0139119793739
  0
LINE
  8
_0-0_
  6
CONTINUOUS
 62
    7
 10
6940.8464754103879
 20
4432.0139119793739
 11
6940.8464754103879
 21
4430.0141033328373
  0
LINE
  8
_0-0_
  6
CONTINUOUS
 62
    7
 10
7000.8466733622463
 20
4432.0139119793739
 11
7000.8466733622463
 21
4430.0141033328373
  0
LINE
  8
_0-0_
  6
CONTINUOUS
 62
    7
 10
6817.8466139766897
 20
4430.0141033328373
 11
6817.8466139766897
 21
4400.0140043569081
  0
LINE
  8
_0-0_
  6
CONTINUOUS
 62
    7
 10
7123.8460399162996
 20
4430.0141033328373
 11
7123.8460399162996
 21
4400.0140043569081
  0
LINE
  8
_0-0_
  6
CONTINUOUS
 62
    7
 10
7429.845960735558
 20
4430.0141033328373
 11
7735.8458815548147
 21
4430.0141033328373
  0
LINE
  8
_0-0_
  6
CONTINUOUS
 62
    7
 10
7429.845960735558
 20
4400.0140043569081
 11
7735.8458815548147
 21
4400.0140043569081
  0
LINE
  8
_0-0_
  6
CONTINUOUS
 62
    7
 10
7552.8463170489022
 20
4432.0139119793739
 11
7612.8465150007605
 21
4432.0139119793739
  0
LINE
  8
_0-0_
  6
CONTINUOUS
 62
    7
 10
7552.8463170489022
 20
4432.0139119793739
 11
7552.8463170489022
 21
4430.0141033328373
  0
LINE
  8
_0-0_
  6
CONTINUOUS
 62
    7
 10
7612.8465150007605
 20
4432.0139119793739
 11
7612.8465150007605
 21
4430.0141033328373
  0
LINE
  8
_0-0_
  6
CONTINUOUS
 62
    7
 10
7429.845960735558
 20
4430.0141033328373
 11
7429.845960735558
 21
4400.0140043569081
  0
LINE
  8
_0-0_
  6
CONTINUOUS
 62
    7
 10
7858.8462378681579
 20
4432.0139119793739
 11
7858.8462378681579
 21
4430.0141033328373
  0
LINE
  8
_0-0_
  6
CONTINUOUS
 62
    7
 10
7735.8458815548147
 20
4430.0141033328373
 11
7735.8458815548147
 21
4400.0140043569081
  0
LINE
  8
_0-0_
  6
CONTINUOUS
 62
    7
 10
7735.8458815548147
 20
4400.0140043569081
 11
7888.846831723733
 21
4400.0140043569081
  0
LINE
  8
_0-0_
  6
CONTINUOUS
 62
    7
 10
7735.8458815548147
 20
4430.0141033328373
 11
7888.846831723733
 21
4430.0141033328373
  0
LINE
  8
_0-0_
  6
CONTINUOUS
 62
    7
 10
7858.8462378681579
 20
4432.0139119793739
 11
7888.846831723733
 21
4432.0139119793739
  0
LINE
  8
_0-0_
  6
CONTINUOUS
 62
    7
 10
4063.847326603378
 20
4430.0141033328373
 11
4063.847326603378
 21
4400.0140043569081
  0
LINE
  8
_0-0_
  6
CONTINUOUS
 62
    7
 10
3940.8474651696779
 20
4432.0139119793739
 11
3940.8474651696779
 21
4430.0141033328373
  0
LINE
  8
_0-0_
  6
CONTINUOUS
 62
    7
 10
4063.847326603378
 20
4430.0141033328373
 11
4063.847326603378
 21
4400.0140043569081
  0
LINE
  8
_0-0_
  6
CONTINUOUS
 62
    7
 10
3910.8473661937487
 20
4430.0141033328373
 11
4063.847326603378
 21
4430.0141033328373
  0
LINE
  8
_0-0_
  6
CONTINUOUS
 62
    7
 10
3910.8473661937487
 20
4432.0139119793739
 11
3940.8474651696779
 21
4432.0139119793739
  0
LINE
  8
_0-0_
  6
CONTINUOUS
 62
    7
 10
3910.8473661937487
 20
4400.0140043569081
 11
4063.847326603378
 21
4400.0140043569081
  0
LINE
  8
_0-0_
  6
CONTINUOUS
 62
    7
 10
4063.847326603378
 20
4400.0140043569081
 11
4369.8472474226346
 21
4400.0140043569081
  0
LINE
  8
_0-0_
  6
CONTINUOUS
 62
    7
 10
4216.8472870130063
 20
3245.1757310249827
 11
4216.8472870130063
 21
3130.691263647449
  0
LINE
  8
_0-0_
  6
CONTINUOUS
 62
    7
 10
4522.8472078322629
 20
3245.1757310249827
 11
4522.8472078322629
 21
3130.691263647449
  0
LINE
  8
_0-0_
  6
CONTINUOUS
 62
    7
 10
4828.8471286515205
 20
3245.1757310249827
 11
4828.8471286515205
 21
3130.691263647449
  0
LINE
  8
_0-0_
  6
CONTINUOUS
 62
    7
 10
5134.8470494707763
 20
3245.1757310249827
 11
5134.8470494707763
 21
3130.691263647449
  0
LINE
  8
_0-0_
  6
CONTINUOUS
 62
    7
 10
5440.8469702900329
 20
3245.1757310249827
 11
5440.8469702900329
 21
3130.691263647449
  0
LINE
  8
_0-0_
  6
CONTINUOUS
 62
    7
 10
5746.8468911092896
 20
3245.1757310249827
 11
5746.8468911092896
 21
3130.691263647449
  0
LINE
  8
_0-0_
  6
CONTINUOUS
 62
    7
 10
6052.846811928548
 20
3245.1757310249827
 11
6052.846811928548
 21
3130.691263647449
  0
LINE
  8
_0-0_
  6
CONTINUOUS
 62
    7
 10
6358.8467327478047
 20
3245.1757310249827
 11
6358.8467327478047
 21
3130.691263647449
  0
LINE
  8
_0-0_
  6
CONTINUOUS
 62
    7
 10
6664.8466535670605
 20
3245.1757310249827
 11
6664.8466535670605
 21
3130.691263647449
  0
LINE
  8
_0-0_
  6
CONTINUOUS
 62
    7
 10
6970.8465743863162
 20
3245.1757310249827
 11
6970.8465743863162
 21
3130.691263647449
  0
LINE
  8
_0-0_
  6
CONTINUOUS
 62
    7
 10
7582.8469109044772
 20
3245.1757310249827
 11
7582.8469109044772
 21
3130.691263647449
  0
LINE
  8
_0-0_
  6
CONTINUOUS
 62
    7
 10
7276.8469900852187
 20
3245.1757310249827
 11
7276.8469900852187
 21
3130.691263647449
  0
LINE
  8
_0-0_
  6
CONTINUOUS
 62
    7
 10
7735.8458815548147
 20
3130.691263647449
 11
7735.8458815548147
 21
3008.8924751128206
  0
LINE
  8
_0-0_
  6
CONTINUOUS
 62
    7
 10
7429.845960735558
 20
3130.691263647449
 11
7429.845960735558
 21
3008.8924751128206
  0
LINE
  8
_0-0_
  6
CONTINUOUS
 62
    7
 10
7123.8460399162996
 20
3130.691263647449
 11
7123.8460399162996
 21
3008.8924751128206
  0
LINE
  8
_0-0_
  6
CONTINUOUS
 62
    7
 10
6817.8466139766897
 20
3130.691263647449
 11
6817.8466139766897
 21
3008.8924751128206
  0
LINE
  8
_0-0_
  6
CONTINUOUS
 62
    7
 10
6511.8466931574312
 20
3130.691263647449
 11
6511.8466931574312
 21
3008.8924751128206
  0
LINE
  8
_0-0_
  6
CONTINUOUS
 62
    7
 10
6205.8467723381746
 20
3130.691263647449
 11
6205.8467723381746
 21
3008.8924751128206
  0
LINE
  8
_0-0_
  6
CONTINUOUS
 62
    7
 10
5899.8468515189188
 20
3130.691263647449
 11
5899.8468515189188
 21
3008.8924751128206
  0
LINE
  8
_0-0_
  6
CONTINUOUS
 62
    7
 10
5593.8469306996631
 20
3130.691263647449
 11
5593.8469306996631
 21
3008.8924751128206
  0
LINE
  8
_0-0_
  6
CONTINUOUS
 62
    7
 10
5287.8470098804046
 20
3130.691263647449
 11
5287.8470098804046
 21
3008.8924751128206
  0
LINE
  8
_0-0_
  6
CONTINUOUS
 62
    7
 10
4981.8470890611488
 20
3130.691263647449
 11
4981.8470890611488
 21
3008.8924751128206
  0
LINE
  8
_0-0_
  6
CONTINUOUS
 62
    7
 10
4675.8471682418913
 20
3130.691263647449
 11
4675.8471682418913
 21
3008.8924751128206
  0
LINE
  8
_0-0_
  6
CONTINUOUS
 62
    7
 10
4369.8472474226346
 20
3130.691263647449
 11
4369.8472474226346
 21
3008.8924751128206
  0
LINE
  8
_0-0_
  6
CONTINUOUS
 62
    7
 10
4063.847326603378
 20
3130.691263647449
 11
4063.847326603378
 21
3008.8924751128206
  0
LINE
  8
_0-0_
  6
CONTINUOUS
 62
    7
 10
4063.847326603378
 20
3360.6593604063169
 11
4063.847326603378
 21
3245.1757310249827
  0
LINE
  8
_0-0_
  6
CONTINUOUS
 62
    7
 10
4369.8472474226346
 20
3360.6593604063169
 11
4369.8472474226346
 21
3245.1757310249827
  0
LINE
  8
_0-0_
  6
CONTINUOUS
 62
    7
 10
4675.8471682418913
 20
3360.6593604063169
 11
4675.8471682418913
 21
3245.1757310249827
  0
LINE
  8
_0-0_
  6
CONTINUOUS
 62
    7
 10
4981.8470890611488
 20
3360.6593604063169
 11
4981.8470890611488
 21
3245.1757310249827
  0
LINE
  8
_0-0_
  6
CONTINUOUS
 62
    7
 10
5287.8470098804046
 20
3360.6593604063169
 11
5287.8470098804046
 21
3245.1757310249827
  0
LINE
  8
_0-0_
  6
CONTINUOUS
 62
    7
 10
5593.8469306996631
 20
3360.6593604063169
 11
5593.8469306996631
 21
3245.1757310249827
  0
LINE
  8
_0-0_
  6
CONTINUOUS
 62
    7
 10
5899.8468515189188
 20
3360.6593604063169
 11
5899.8468515189188
 21
3245.1757310249827
  0
LINE
  8
_0-0_
  6
CONTINUOUS
 62
    7
 10
6205.8467723381746
 20
3360.6593604063169
 11
6205.8467723381746
 21
3245.1757310249827
  0
LINE
  8
_0-0_
  6
CONTINUOUS
 62
    7
 10
6511.8466931574312
 20
3360.6593604063169
 11
6511.8466931574312
 21
3245.1757310249827
  0
LINE
  8
_0-0_
  6
CONTINUOUS
 62
    7
 10
6817.8466139766897
 20
3360.6593604063169
 11
6817.8466139766897
 21
3245.1757310249827
  0
LINE
  8
_0-0_
  6
CONTINUOUS
 62
    7
 10
7123.8460399162996
 20
3360.6593604063169
 11
7123.8460399162996
 21
3245.1757310249827
  0
LINE
  8
_0-0_
  6
CONTINUOUS
 62
    7
 10
7429.845960735558
 20
3360.6593604063169
 11
7429.845960735558
 21
3245.1757310249827
  0
LINE
  8
_0-0_
  6
CONTINUOUS
 62
    7
 10
7735.8458815548147
 20
3360.6593604063169
 11
7735.8458815548147
 21
3245.1757310249827
  0
LINE
  8
_0-0_
  6
CONTINUOUS
 62
    7
 10
7582.8469109044772
 20
3476.1432372274744
 11
7582.8469109044772
 21
3360.6593604063169
  0
LINE
  8
_0-0_
  6
CONTINUOUS
 62
    7
 10
7276.8469900852187
 20
3476.1432372274744
 11
7276.8469900852187
 21
3360.6593604063169
  0
LINE
  8
_0-0_
  6
CONTINUOUS
 62
    7
 10
6970.8465743863162
 20
3476.1432372274744
 11
6970.8465743863162
 21
3360.6593604063169
  0
LINE
  8
_0-0_
  6
CONTINUOUS
 62
    7
 10
6664.8466535670605
 20
3476.1432372274744
 11
6664.8466535670605
 21
3360.6593604063169
  0
LINE
  8
_0-0_
  6
CONTINUOUS
 62
    7
 10
6358.8467327478047
 20
3476.1432372274744
 11
6358.8467327478047
 21
3360.6593604063169
  0
LINE
  8
_0-0_
  6
CONTINUOUS
 62
    7
 10
6052.846811928548
 20
3476.1432372274744
 11
6052.846811928548
 21
3360.6593604063169
  0
LINE
  8
_0-0_
  6
CONTINUOUS
 62
    7
 10
5746.8468911092896
 20
3476.1432372274744
 11
5746.8468911092896
 21
3360.6593604063169
  0
LINE
  8
_0-0_
  6
CONTINUOUS
 62
    7
 10
5440.8469702900329
 20
3476.1432372274744
 11
5440.8469702900329
 21
3360.6593604063169
  0
LINE
  8
_0-0_
  6
CONTINUOUS
 62
    7
 10
5134.8470494707763
 20
3476.1432372274744
 11
5134.8470494707763
 21
3360.6593604063169
  0
LINE
  8
_0-0_
  6
CONTINUOUS
 62
    7
 10
4828.8471286515205
 20
3476.1432372274744
 11
4828.8471286515205
 21
3360.6593604063169
  0
LINE
  8
_0-0_
  6
CONTINUOUS
 62
    7
 10
4522.8472078322629
 20
3476.1432372274744
 11
4522.8472078322629
 21
3360.6593604063169
  0
LINE
  8
_0-0_
  6
CONTINUOUS
 62
    7
 10
4216.8472870130063
 20
3476.1432372274744
 11
4216.8472870130063
 21
3360.6593604063169
  0
LINE
  8
_0-0_
  6
CONTINUOUS
 62
    7
 10
4063.847326603378
 20
3591.627114048631
 11
4063.847326603378
 21
3476.1432372274744
  0
LINE
  8
_0-0_
  6
CONTINUOUS
 62
    7
 10
4369.8472474226346
 20
3591.627114048631
 11
4369.8472474226346
 21
3476.1432372274744
  0
LINE
  8
_0-0_
  6
CONTINUOUS
 62
    7
 10
4675.8471682418913
 20
3591.627114048631
 11
4675.8471682418913
 21
3476.1432372274744
  0
LINE
  8
_0-0_
  6
CONTINUOUS
 62
    7
 10
4981.8470890611488
 20
3591.627114048631
 11
4981.8470890611488
 21
3476.1432372274744
  0
LINE
  8
_0-0_
  6
CONTINUOUS
 62
    7
 10
5287.8470098804046
 20
3591.627114048631
 11
5287.8470098804046
 21
3476.1432372274744
  0
LINE
  8
_0-0_
  6
CONTINUOUS
 62
    7
 10
5593.8469306996631
 20
3591.627114048631
 11
5593.8469306996631
 21
3476.1432372274744
  0
LINE
  8
_0-0_
  6
CONTINUOUS
 62
    7
 10
5899.8468515189188
 20
3591.627114048631
 11
5899.8468515189188
 21
3476.1432372274744
  0
LINE
  8
_0-0_
  6
CONTINUOUS
 62
    7
 10
6205.8467723381746
 20
3591.627114048631
 11
6205.8467723381746
 21
3476.1432372274744
  0
LINE
  8
_0-0_
  6
CONTINUOUS
 62
    7
 10
6511.8466931574312
 20
3591.627114048631
 11
6511.8466931574312
 21
3476.1432372274744
  0
LINE
  8
_0-0_
  6
CONTINUOUS
 62
    7
 10
6817.8466139766897
 20
3591.627114048631
 11
6817.8466139766897
 21
3476.1432372274744
  0
LINE
  8
_0-0_
  6
CONTINUOUS
 62
    7
 10
7123.8460399162996
 20
3591.627114048631
 11
7123.8460399162996
 21
3476.1432372274744
  0
LINE
  8
_0-0_
  6
CONTINUOUS
 62
    7
 10
7429.845960735558
 20
3591.627114048631
 11
7429.845960735558
 21
3476.1432372274744
  0
LINE
  8
_0-0_
  6
CONTINUOUS
 62
    7
 10
7735.8458815548147
 20
3591.627114048631
 11
7735.8458815548147
 21
3476.1432372274744
  0
LINE
  8
_0-0_
  6
CONTINUOUS
 62
    7
 10
7582.8469109044772
 20
3707.1109908697881
 11
7582.8469109044772
 21
3591.627114048631
  0
LINE
  8
_0-0_
  6
CONTINUOUS
 62
    7
 10
7276.8469900852187
 20
3707.1109908697881
 11
7276.8469900852187
 21
3591.627114048631
  0
LINE
  8
_0-0_
  6
CONTINUOUS
 62
    7
 10
6970.8465743863162
 20
3707.1109908697881
 11
6970.8465743863162
 21
3591.627114048631
  0
LINE
  8
_0-0_
  6
CONTINUOUS
 62
    7
 10
6664.8466535670605
 20
3707.1109908697881
 11
6664.8466535670605
 21
3591.627114048631
  0
LINE
  8
_0-0_
  6
CONTINUOUS
 62
    7
 10
6358.8467327478047
 20
3707.1109908697881
 11
6358.8467327478047
 21
3591.627114048631
  0
LINE
  8
_0-0_
  6
CONTINUOUS
 62
    7
 10
6052.846811928548
 20
3707.1109908697881
 11
6052.846811928548
 21
3591.627114048631
  0
LINE
  8
_0-0_
  6
CONTINUOUS
 62
    7
 10
5746.8468911092896
 20
3707.1109908697881
 11
5746.8468911092896
 21
3591.627114048631
  0
LINE
  8
_0-0_
  6
CONTINUOUS
 62
    7
 10
5440.8469702900329
 20
3707.1109908697881
 11
5440.8469702900329
 21
3591.627114048631
  0
LINE
  8
_0-0_
  6
CONTINUOUS
 62
    7
 10
5134.8470494707763
 20
3707.1109908697881
 11
5134.8470494707763
 21
3591.627114048631
  0
LINE
  8
_0-0_
  6
CONTINUOUS
 62
    7
 10
4828.8471286515205
 20
3707.1109908697881
 11
4828.8471286515205
 21
3591.627114048631
  0
LINE
  8
_0-0_
  6
CONTINUOUS
 62
    7
 10
4522.8472078322629
 20
3707.1109908697881
 11
4522.8472078322629
 21
3591.627114048631
  0
LINE
  8
_0-0_
  6
CONTINUOUS
 62
    7
 10
4216.8472870130063
 20
3707.1109908697881
 11
4216.8472870130063
 21
3591.627114048631
  0
LINE
  8
_0-0_
  6
CONTINUOUS
 62
    7
 10
4063.847326603378
 20
3822.5948676909452
 11
4063.847326603378
 21
3707.1109908697881
  0
LINE
  8
_0-0_
  6
CONTINUOUS
 62
    7
 10
4369.8472474226346
 20
3822.5948676909452
 11
4369.8472474226346
 21
3707.1109908697881
  0
LINE
  8
_0-0_
  6
CONTINUOUS
 62
    7
 10
4675.8471682418913
 20
3822.5948676909452
 11
4675.8471682418913
 21
3707.1109908697881
  0
LINE
  8
_0-0_
  6
CONTINUOUS
 62
    7
 10
4981.8470890611488
 20
3822.5948676909452
 11
4981.8470890611488
 21
3707.1109908697881
  0
LINE
  8
_0-0_
  6
CONTINUOUS
 62
    7
 10
5287.8470098804046
 20
3822.5948676909452
 11
5287.8470098804046
 21
3707.1109908697881
  0
LINE
  8
_0-0_
  6
CONTINUOUS
 62
    7
 10
5593.8469306996631
 20
3822.5948676909452
 11
5593.8469306996631
 21
3707.1109908697881
  0
LINE
  8
_0-0_
  6
CONTINUOUS
 62
    7
 10
5899.8468515189188
 20
3822.5948676909452
 11
5899.8468515189188
 21
3707.1109908697881
  0
LINE
  8
_0-0_
  6
CONTINUOUS
 62
    7
 10
6205.8467723381746
 20
3822.5948676909452
 11
6205.8467723381746
 21
3707.1109908697881
  0
LINE
  8
_0-0_
  6
CONTINUOUS
 62
    7
 10
6511.8466931574312
 20
3822.5948676909452
 11
6511.8466931574312
 21
3707.1109908697881
  0
LINE
  8
_0-0_
  6
CONTINUOUS
 62
    7
 10
6817.8466139766897
 20
3822.5948676909452
 11
6817.8466139766897
 21
3707.1109908697881
  0
LINE
  8
_0-0_
  6
CONTINUOUS
 62
    7
 10
7123.8460399162996
 20
3822.5948676909452
 11
7123.8460399162996
 21
3707.1109908697881
  0
LINE
  8
_0-0_
  6
CONTINUOUS
 62
    7
 10
7429.845960735558
 20
3822.5948676909452
 11
7429.845960735558
 21
3707.1109908697881
  0
LINE
  8
_0-0_
  6
CONTINUOUS
 62
    7
 10
7735.8458815548147
 20
3822.5948676909452
 11
7735.8458815548147
 21
3707.1109908697881
  0
LINE
  8
_0-0_
  6
CONTINUOUS
 62
    7
 10
7582.8469109044772
 20
3938.0784970722798
 11
7582.8469109044772
 21
3822.5948676909452
  0
LINE
  8
_0-0_
  6
CONTINUOUS
 62
    7
 10
7276.8469900852187
 20
3938.0784970722798
 11
7276.8469900852187
 21
3822.5948676909452
  0
LINE
  8
_0-0_
  6
CONTINUOUS
 62
    7
 10
6970.8465743863162
 20
3938.0784970722798
 11
6970.8465743863162
 21
3822.5948676909452
  0
LINE
  8
_0-0_
  6
CONTINUOUS
 62
    7
 10
6664.8466535670605
 20
3938.0784970722798
 11
6664.8466535670605
 21
3822.5948676909452
  0
LINE
  8
_0-0_
  6
CONTINUOUS
 62
    7
 10
6358.8467327478047
 20
3938.0784970722798
 11
6358.8467327478047
 21
3822.5948676909452
  0
LINE
  8
_0-0_
  6
CONTINUOUS
 62
    7
 10
6052.846811928548
 20
3938.0784970722798
 11
6052.846811928548
 21
3822.5948676909452
  0
LINE
  8
_0-0_
  6
CONTINUOUS
 62
    7
 10
5746.8468911092896
 20
3938.0784970722798
 11
5746.8468911092896
 21
3822.5948676909452
  0
LINE
  8
_0-0_
  6
CONTINUOUS
 62
    7
 10
5440.8469702900329
 20
3938.0784970722798
 11
5440.8469702900329
 21
3822.5948676909452
  0
LINE
  8
_0-0_
  6
CONTINUOUS
 62
    7
 10
5134.8470494707763
 20
3938.0784970722798
 11
5134.8470494707763
 21
3822.5948676909452
  0
LINE
  8
_0-0_
  6
CONTINUOUS
 62
    7
 10
4828.8471286515205
 20
3938.0784970722798
 11
4828.8471286515205
 21
3822.5948676909452
  0
LINE
  8
_0-0_
  6
CONTINUOUS
 62
    7
 10
4522.8472078322629
 20
3938.0784970722798
 11
4522.8472078322629
 21
3822.5948676909452
  0
LINE
  8
_0-0_
  6
CONTINUOUS
 62
    7
 10
4216.8472870130063
 20
3938.0784970722798
 11
4216.8472870130063
 21
3822.5948676909452
  0
LINE
  8
_0-0_
  6
CONTINUOUS
 62
    7
 10
4063.847326603378
 20
4053.5626213332598
 11
4063.847326603378
 21
3938.0784970722798
  0
LINE
  8
_0-0_
  6
CONTINUOUS
 62
    7
 10
4369.8472474226346
 20
4053.5626213332598
 11
4369.8472474226346
 21
3938.0784970722798
  0
LINE
  8
_0-0_
  6
CONTINUOUS
 62
    7
 10
4675.8471682418913
 20
4053.5626213332598
 11
4675.8471682418913
 21
3938.0784970722798
  0
LINE
  8
_0-0_
  6
CONTINUOUS
 62
    7
 10
4981.8470890611488
 20
4053.5626213332598
 11
4981.8470890611488
 21
3938.0784970722798
  0
LINE
  8
_0-0_
  6
CONTINUOUS
 62
    7
 10
5287.8470098804046
 20
4053.5626213332598
 11
5287.8470098804046
 21
3938.0784970722798
  0
LINE
  8
_0-0_
  6
CONTINUOUS
 62
    7
 10
5593.8469306996631
 20
4053.5626213332598
 11
5593.8469306996631
 21
3938.0784970722798
  0
LINE
  8
_0-0_
  6
CONTINUOUS
 62
    7
 10
5899.8468515189188
 20
4053.5626213332598
 11
5899.8468515189188
 21
3938.0784970722798
  0
LINE
  8
_0-0_
  6
CONTINUOUS
 62
    7
 10
6205.8467723381746
 20
4053.5626213332598
 11
6205.8467723381746
 21
3938.0784970722798
  0
LINE
  8
_0-0_
  6
CONTINUOUS
 62
    7
 10
6511.8466931574312
 20
4053.5626213332598
 11
6511.8466931574312
 21
3938.0784970722798
  0
LINE
  8
_0-0_
  6
CONTINUOUS
 62
    7
 10
6817.8466139766897
 20
4053.5626213332598
 11
6817.8466139766897
 21
3938.0784970722798
  0
LINE
  8
_0-0_
  6
CONTINUOUS
 62
    7
 10
7123.8460399162996
 20
4053.5626213332598
 11
7123.8460399162996
 21
3938.0784970722798
  0
LINE
  8
_0-0_
  6
CONTINUOUS
 62
    7
 10
7429.845960735558
 20
4053.5626213332598
 11
7429.845960735558
 21
3938.0784970722798
  0
LINE
  8
_0-0_
  6
CONTINUOUS
 62
    7
 10
7735.8458815548147
 20
4053.5626213332598
 11
7735.8458815548147
 21
3938.0784970722798
  0
LINE
  8
_0-0_
  6
CONTINUOUS
 62
    7
 10
7582.8469109044772
 20
4169.046250714594
 11
7582.8469109044772
 21
4053.5626213332598
  0
LINE
  8
_0-0_
  6
CONTINUOUS
 62
    7
 10
7276.8469900852187
 20
4169.046250714594
 11
7276.8469900852187
 21
4053.5626213332598
  0
LINE
  8
_0-0_
  6
CONTINUOUS
 62
    7
 10
6970.8465743863162
 20
4169.046250714594
 11
6970.8465743863162
 21
4053.5626213332598
  0
LINE
  8
_0-0_
  6
CONTINUOUS
 62
    7
 10
6664.8466535670605
 20
4169.046250714594
 11
6664.8466535670605
 21
4053.5626213332598
  0
LINE
  8
_0-0_
  6
CONTINUOUS
 62
    7
 10
6358.8467327478047
 20
4169.046250714594
 11
6358.8467327478047
 21
4053.5626213332598
  0
LINE
  8
_0-0_
  6
CONTINUOUS
 62
    7
 10
6052.846811928548
 20
4169.046250714594
 11
6052.846811928548
 21
4053.5626213332598
  0
LINE
  8
_0-0_
  6
CONTINUOUS
 62
    7
 10
5746.8468911092896
 20
4169.046250714594
 11
5746.8468911092896
 21
4053.5626213332598
  0
LINE
  8
_0-0_
  6
CONTINUOUS
 62
    7
 10
5440.8469702900329
 20
4169.046250714594
 11
5440.8469702900329
 21
4053.5626213332598
  0
LINE
  8
_0-0_
  6
CONTINUOUS
 62
    7
 10
5134.8470494707763
 20
4169.046250714594
 11
5134.8470494707763
 21
4053.5626213332598
  0
LINE
  8
_0-0_
  6
CONTINUOUS
 62
    7
 10
4828.8471286515205
 20
4169.046250714594
 11
4828.8471286515205
 21
4053.5626213332598
  0
LINE
  8
_0-0_
  6
CONTINUOUS
 62
    7
 10
4522.8472078322629
 20
4169.046250714594
 11
4522.8472078322629
 21
4053.5626213332598
  0
LINE
  8
_0-0_
  6
CONTINUOUS
 62
    7
 10
4216.8472870130063
 20
4169.046250714594
 11
4216.8472870130063
 21
4053.5626213332598
  0
LINE
  8
_0-0_
  6
CONTINUOUS
 62
    7
 10
4063.847326603378
 20
4284.530374975574
 11
4063.847326603378
 21
4169.046250714594
  0
LINE
  8
_0-0_
  6
CONTINUOUS
 62
    7
 10
4369.8472474226346
 20
4284.530374975574
 11
4369.8472474226346
 21
4169.046250714594
  0
LINE
  8
_0-0_
  6
CONTINUOUS
 62
    7
 10
4675.8471682418913
 20
4284.530374975574
 11
4675.8471682418913
 21
4169.046250714594
  0
LINE
  8
_0-0_
  6
CONTINUOUS
 62
    7
 10
4981.8470890611488
 20
4284.530374975574
 11
4981.8470890611488
 21
4169.046250714594
  0
LINE
  8
_0-0_
  6
CONTINUOUS
 62
    7
 10
5287.8470098804046
 20
4284.530374975574
 11
5287.8470098804046
 21
4169.046250714594
  0
LINE
  8
_0-0_
  6
CONTINUOUS
 62
    7
 10
5593.8469306996631
 20
4284.530374975574
 11
5593.8469306996631
 21
4169.046250714594
  0
LINE
  8
_0-0_
  6
CONTINUOUS
 62
    7
 10
5899.8468515189188
 20
4284.530374975574
 11
5899.8468515189188
 21
4169.046250714594
  0
LINE
  8
_0-0_
  6
CONTINUOUS
 62
    7
 10
6205.8467723381746
 20
4284.530374975574
 11
6205.8467723381746
 21
4169.046250714594
  0
LINE
  8
_0-0_
  6
CONTINUOUS
 62
    7
 10
6511.8466931574312
 20
4284.530374975574
 11
6511.8466931574312
 21
4169.046250714594
  0
LINE
  8
_0-0_
  6
CONTINUOUS
 62
    7
 10
6817.8466139766897
 20
4284.530374975574
 11
6817.8466139766897
 21
4169.046250714594
  0
LINE
  8
_0-0_
  6
CONTINUOUS
 62
    7
 10
7123.8460399162996
 20
4284.530374975574
 11
7123.8460399162996
 21
4169.046250714594
  0
LINE
  8
_0-0_
  6
CONTINUOUS
 62
    7
 10
7429.845960735558
 20
4199.0463496905231
 11
7429.845960735558
 21
4169.046250714594
  0
LINE
  8
_0-0_
  6
CONTINUOUS
 62
    7
 10
7429.845960735558
 20
4284.530374975574
 11
7429.845960735558
 21
4169.046250714594
  0
LINE
  8
_0-0_
  6
CONTINUOUS
 62
    7
 10
7735.8458815548147
 20
4284.530374975574
 11
7735.8458815548147
 21
4169.046250714594
  0
LINE
  8
_0-0_
  6
CONTINUOUS
 62
    7
 10
7582.8469109044772
 20
4400.0140043569081
 11
7582.8469109044772
 21
4284.530374975574
  0
LINE
  8
_0-0_
  6
CONTINUOUS
 62
    7
 10
7276.8469900852187
 20
4400.0140043569081
 11
7276.8469900852187
 21
4284.530374975574
  0
LINE
  8
_0-0_
  6
CONTINUOUS
 62
    7
 10
6970.8465743863162
 20
4400.0140043569081
 11
6970.8465743863162
 21
4284.530374975574
  0
LINE
  8
_0-0_
  6
CONTINUOUS
 62
    7
 10
6664.8466535670605
 20
4400.0140043569081
 11
6664.8466535670605
 21
4284.530374975574
  0
LINE
  8
_0-0_
  6
CONTINUOUS
 62
    7
 10
6358.8467327478047
 20
4400.0140043569081
 11
6358.8467327478047
 21
4284.530374975574
  0
LINE
  8
_0-0_
  6
CONTINUOUS
 62
    7
 10
6052.846811928548
 20
4400.0140043569081
 11
6052.846811928548
 21
4284.530374975574
  0
LINE
  8
_0-0_
  6
CONTINUOUS
 62
    7
 10
5746.8468911092896
 20
4400.0140043569081
 11
5746.8468911092896
 21
4284.530374975574
  0
LINE
  8
_0-0_
  6
CONTINUOUS
 62
    7
 10
5440.8469702900329
 20
4400.0140043569081
 11
5440.8469702900329
 21
4284.530374975574
  0
LINE
  8
_0-0_
  6
CONTINUOUS
 62
    7
 10
5134.8470494707763
 20
4400.0140043569081
 11
5134.8470494707763
 21
4284.530374975574
  0
LINE
  8
_0-0_
  6
CONTINUOUS
 62
    7
 10
4828.8471286515205
 20
4400.0140043569081
 11
4828.8471286515205
 21
4284.530374975574
  0
LINE
  8
_0-0_
  6
CONTINUOUS
 62
    7
 10
4522.8472078322629
 20
4400.0140043569081
 11
4522.8472078322629
 21
4284.530374975574
  0
LINE
  8
_0-0_
  6
CONTINUOUS
 62
    7
 10
4216.8472870130063
 20
4400.0140043569081
 11
4216.8472870130063
 21
4284.530374975574
  0
LINE
  8
_0-0_
  6
CONTINUOUS
 62
    7
 10
3779.8472804146109
 20
4446.0138097042473
 11
3779.8472804146109
 21
4495.0294116098648
  0
LINE
  8
_0-0_
  6
CONTINUOUS
 62
    7
 10
3779.8472804146109
 20
4441.0137932082598
 11
3792.1326676084459
 21
4495.0294116098648
  0
LINE
  8
_0-0_
  6
CONTINUOUS
 62
    7
 10
3910.8473661937487
 20
2947.2445753820352
 11
3910.8473661937487
 21
4495.0294116098648
  0
LINE
  8
_0-0_
  6
CONTINUOUS
 62
    7
 10
4063.847326603378
 20
4495.0294116098648
 11
4063.847326603378
 21
4400.0140043569081
  0
LINE
  8
_0-0_
  6
CONTINUOUS
 62
    7
 10
4369.8472474226346
 20
4495.0294116098648
 11
4369.8472474226346
 21
4400.0140043569081
  0
LINE
  8
_0-0_
  6
CONTINUOUS
 62
    7
 10
4675.8471682418913
 20
4495.0294116098648
 11
4675.8471682418913
 21
4400.0140043569081
  0
LINE
  8
_0-0_
  6
CONTINUOUS
 62
    7
 10
4981.8470890611488
 20
4495.0294116098648
 11
4981.8470890611488
 21
4400.0140043569081
  0
LINE
  8
_0-0_
  6
CONTINUOUS
 62
    7
 10
5287.8470098804046
 20
4495.0294116098648
 11
5287.8470098804046
 21
4400.0140043569081
  0
LINE
  8
_0-0_
  6
CONTINUOUS
 62
    7
 10
5593.8469306996631
 20
4495.0294116098648
 11
5593.8469306996631
 21
4400.0140043569081
  0
LINE
  8
_0-0_
  6
CONTINUOUS
 62
    7
 10
5899.8468515189188
 20
4495.0294116098648
 11
5899.8468515189188
 21
4400.0140043569081
  0
LINE
  8
_0-0_
  6
CONTINUOUS
 62
    7
 10
6205.8467723381746
 20
4495.0294116098648
 11
6205.8467723381746
 21
4400.0140043569081
  0
LINE
  8
_0-0_
  6
CONTINUOUS
 62
    7
 10
6511.8466931574312
 20
4495.0294116098648
 11
6511.8466931574312
 21
4400.0140043569081
  0
LINE
  8
_0-0_
  6
CONTINUOUS
 62
    7
 10
6817.8466139766897
 20
4495.0294116098648
 11
6817.8466139766897
 21
4400.0140043569081
  0
LINE
  8
_0-0_
  6
CONTINUOUS
 62
    7
 10
7123.8460399162996
 20
4495.0294116098648
 11
7123.8460399162996
 21
4400.0140043569081
  0
LINE
  8
_0-0_
  6
CONTINUOUS
 62
    7
 10
7429.845960735558
 20
4495.0294116098648
 11
7429.845960735558
 21
4400.0140043569081
  0
LINE
  8
_0-0_
  6
CONTINUOUS
 62
    7
 10
7735.8458815548147
 20
4495.0294116098648
 11
7735.8458815548147
 21
4400.0140043569081
  0
LINE
  8
_0-0_
  6
CONTINUOUS
 62
    7
 10
8019.8464226232272
 20
4441.0137932082598
 11
8007.1646368335314
 21
4495.0294116098648
  0
LINE
  8
_0-0_
  6
CONTINUOUS
 62
    7
 10
8019.8464226232272
 20
4446.0138097042473
 11
8019.8464226232272
 21
4495.0294116098648
  0
LINE
  8
_0-0_
  6
CONTINUOUS
 62
    7
 10
7888.846831723733
 20
2947.2445753820352
 11
7888.846831723733
 21
4495.0294116098648
  0
LINE
  8
ADD_LINE
  6
DOT
 62
    3
 10
3779.8472804146109
 20
2817.2441464863423
 11
3768.6832904969597
 21
2817.2441464863423
  0
LINE
  8
ADD_LINE
  6
DOT
 62
    3
 10
3779.8472804146109
 20
2803.2759210587665
 11
3779.8472804146109
 21
2818.4862943959706
  0
LINE
  8
_0-0_
  6
CONTINUOUS
 62
    7
 10
3784.8470494707763
 20
3054.8925278999827
 11
3805.8472672178209
 21
3054.8925278999827
  0
LINE
  8
_0-0_
  6
CONTINUOUS
 62
    7
 10
3805.8472672178209
 20
3054.8925278999827
 11
3805.8472672178209
 21
3159.6917057399323
  0
LINE
  8
_0-0_
  6
CONTINUOUS
 62
    7
 10
3815.8468053301513
 20
3054.8925278999827
 11
3815.8468053301513
 21
3159.6917057399323
  0
LINE
  8
_0-0_
  6
CONTINUOUS
 62
    7
 10
3805.8472672178209
 20
3173.0777052648477
 11
3805.8472672178209
 21
3275.1758300009119
  0
LINE
  8
_0-0_
  6
CONTINUOUS
 62
    7
 10
3815.8468053301513
 20
3173.0777052648477
 11
3815.8468053301513
 21
3275.1758300009119
  0
LINE
  8
_0-0_
  6
CONTINUOUS
 62
    7
 10
3805.8472672178209
 20
3288.5618295258273
 11
3805.8472672178209
 21
3390.659459382246
  0
LINE
  8
_0-0_
  6
CONTINUOUS
 62
    7
 10
3815.8468053301513
 20
3288.5618295258273
 11
3815.8468053301513
 21
3390.659459382246
  0
LINE
  8
_0-0_
  6
CONTINUOUS
 62
    7
 10
3805.8472672178209
 20
3404.0454589071619
 11
3805.8472672178209
 21
3506.1433362034036
  0
LINE
  8
_0-0_
  6
CONTINUOUS
 62
    7
 10
3815.8468053301513
 20
3404.0454589071619
 11
3815.8468053301513
 21
3506.1433362034036
  0
LINE
  8
_0-0_
  6
CONTINUOUS
 62
    7
 10
3805.8472672178209
 20
3519.5293357283185
 11
3805.8472672178209
 21
3621.6272130245602
  0
LINE
  8
_0-0_
  6
CONTINUOUS
 62
    7
 10
3815.8468053301513
 20
3519.5293357283185
 11
3815.8468053301513
 21
3621.6272130245602
  0
LINE
  8
_0-0_
  6
CONTINUOUS
 62
    7
 10
3805.8472672178209
 20
3635.0132125494756
 11
3805.8472672178209
 21
3737.1110898457173
  0
LINE
  8
_0-0_
  6
CONTINUOUS
 62
    7
 10
3815.8468053301513
 20
3635.0132125494756
 11
3815.8468053301513
 21
3737.1110898457173
  0
LINE
  8
_0-0_
  6
CONTINUOUS
 62
    7
 10
3805.8472672178209
 20
3750.4970893706327
 11
3805.8472672178209
 21
3852.5949666668744
  0
LINE
  8
_0-0_
  6
CONTINUOUS
 62
    7
 10
3815.8468053301513
 20
3750.4970893706327
 11
3815.8468053301513
 21
3852.5949666668744
  0
LINE
  8
_0-0_
  6
CONTINUOUS
 62
    7
 10
3805.8472672178209
 20
3865.9809661917898
 11
3805.8472672178209
 21
3968.0785960482085
  0
LINE
  8
_0-0_
  6
CONTINUOUS
 62
    7
 10
3815.8468053301513
 20
3865.9809661917898
 11
3815.8468053301513
 21
3968.0785960482085
  0
LINE
  8
_0-0_
  6
CONTINUOUS
 62
    7
 10
3805.8472672178209
 20
3981.4645955731244
 11
3805.8472672178209
 21
4083.562720309189
  0
LINE
  8
_0-0_
  6
CONTINUOUS
 62
    7
 10
3815.8468053301513
 20
3981.4645955731244
 11
3815.8468053301513
 21
4083.562720309189
  0
LINE
  8
_0-0_
  6
CONTINUOUS
 62
    7
 10
3805.8472672178209
 20
4096.9487198341039
 11
3805.8472672178209
 21
4199.0463496905231
  0
LINE
  8
_0-0_
  6
CONTINUOUS
 62
    7
 10
3815.8468053301513
 20
4096.9487198341039
 11
3815.8468053301513
 21
4199.0463496905231
  0
LINE
  8
_0-0_
  6
CONTINUOUS
 62
    7
 10
3805.8472672178209
 20
4212.432349215439
 11
3805.8472672178209
 21
4314.5304739515032
  0
LINE
  8
_0-0_
  6
CONTINUOUS
 62
    7
 10
3815.8468053301513
 20
4212.432349215439
 11
3815.8468053301513
 21
4314.5304739515032
  0
LINE
  8
_0-0_
  6
CONTINUOUS
 62
    7
 10
3815.8468053301513
 20
4327.9164734764181
 11
3815.8468053301513
 21
4430.0141033328373
  0
LINE
  8
_0-0_
  6
CONTINUOUS
 62
    7
 10
3805.8472672178209
 20
4327.9164734764181
 11
3805.8472672178209
 21
4430.0141033328373
  0
LINE
  8
_0-0_
  6
CONTINUOUS
 62
    7
 10
3815.8468053301513
 20
4443.4001028577532
 11
3815.8468053301513
 21
4495.0294116098648
  0
LINE
  8
_0-0_
  6
CONTINUOUS
 62
    7
 10
3805.8472672178209
 20
4443.4001028577532
 11
3805.8472672178209
 21
4495.0294116098648
  0
LINE
  8
_0-0_
  6
CONTINUOUS
 62
    7
 10
7983.8468977076855
 20
3054.8925278999827
 11
7983.8468977076855
 21
3159.6917057399323
  0
LINE
  8
_0-0_
  6
CONTINUOUS
 62
    7
 10
7993.8464358200163
 20
3054.8925278999827
 11
7993.8464358200163
 21
3159.6917057399323
  0
LINE
  8
_0-0_
  6
CONTINUOUS
 62
    7
 10
7983.8468977076855
 20
3173.0777052648477
 11
7983.8468977076855
 21
3275.1758300009119
  0
LINE
  8
_0-0_
  6
CONTINUOUS
 62
    7
 10
7993.8464358200163
 20
3173.0777052648477
 11
7993.8464358200163
 21
3275.1758300009119
  0
LINE
  8
_0-0_
  6
CONTINUOUS
 62
    7
 10
7983.8468977076855
 20
3288.5618295258273
 11
7983.8468977076855
 21
3390.659459382246
  0
LINE
  8
_0-0_
  6
CONTINUOUS
 62
    7
 10
7993.8464358200163
 20
3288.5618295258273
 11
7993.8464358200163
 21
3390.659459382246
  0
LINE
  8
_0-0_
  6
CONTINUOUS
 62
    7
 10
7983.8468977076855
 20
3404.0454589071619
 11
7983.8468977076855
 21
3506.1433362034036
  0
LINE
  8
_0-0_
  6
CONTINUOUS
 62
    7
 10
7993.8464358200163
 20
3404.0454589071619
 11
7993.8464358200163
 21
3506.1433362034036
  0
LINE
  8
_0-0_
  6
CONTINUOUS
 62
    7
 10
7983.8468977076855
 20
3519.5293357283185
 11
7983.8468977076855
 21
3621.6272130245602
  0
LINE
  8
_0-0_
  6
CONTINUOUS
 62
    7
 10
7993.8464358200163
 20
3519.5293357283185
 11
7993.8464358200163
 21
3621.6272130245602
  0
LINE
  8
_0-0_
  6
CONTINUOUS
 62
    7
 10
7983.8468977076855
 20
3635.0132125494756
 11
7983.8468977076855
 21
3737.1110898457173
  0
LINE
  8
_0-0_
  6
CONTINUOUS
 62
    7
 10
7993.8464358200163
 20
3635.0132125494756
 11
7993.8464358200163
 21
3737.1110898457173
  0
LINE
  8
_0-0_
  6
CONTINUOUS
 62
    7
 10
7983.8468977076855
 20
3750.4970893706327
 11
7983.8468977076855
 21
3852.5949666668744
  0
LINE
  8
_0-0_
  6
CONTINUOUS
 62
    7
 10
7993.8464358200163
 20
3750.4970893706327
 11
7993.8464358200163
 21
3852.5949666668744
  0
LINE
  8
_0-0_
  6
CONTINUOUS
 62
    7
 10
7983.8468977076855
 20
3865.9809661917898
 11
7983.8468977076855
 21
3968.0785960482085
  0
LINE
  8
_0-0_
  6
CONTINUOUS
 62
    7
 10
7993.8464358200163
 20
3865.9809661917898
 11
7993.8464358200163
 21
3968.0785960482085
  0
LINE
  8
_0-0_
  6
CONTINUOUS
 62
    7
 10
7983.8468977076855
 20
3981.4645955731244
 11
7983.8468977076855
 21
4083.562720309189
  0
LINE
  8
_0-0_
  6
CONTINUOUS
 62
    7
 10
7993.8464358200163
 20
3981.4645955731244
 11
7993.8464358200163
 21
4083.562720309189
  0
LINE
  8
_0-0_
  6
CONTINUOUS
 62
    7
 10
7983.8468977076855
 20
4096.9487198341039
 11
7983.8468977076855
 21
4199.0463496905231
  0
LINE
  8
_0-0_
  6
CONTINUOUS
 62
    7
 10
7993.8464358200163
 20
4096.9487198341039
 11
7993.8464358200163
 21
4199.0463496905231
  0
LINE
  8
_0-0_
  6
CONTINUOUS
 62
    7
 10
7983.8468977076855
 20
4212.432349215439
 11
7983.8468977076855
 21
4314.5304739515032
  0
LINE
  8
_0-0_
  6
CONTINUOUS
 62
    7
 10
7993.8464358200163
 20
4212.432349215439
 11
7993.8464358200163
 21
4314.5304739515032
  0
LINE
  8
_0-0_
  6
CONTINUOUS
 62
    7
 10
7983.8468977076855
 20
4327.9164734764181
 11
7983.8468977076855
 21
4430.0141033328373
  0
LINE
  8
_0-0_
  6
CONTINUOUS
 62
    7
 10
7993.8464358200163
 20
4327.9164734764181
 11
7993.8464358200163
 21
4430.0141033328373
  0
LINE
  8
_0-0_
  6
CONTINUOUS
 62
    7
 10
7983.8468977076855
 20
4443.4001028577532
 11
7983.8468977076855
 21
4495.0294116098648
  0
LINE
  8
_0-0_
  6
CONTINUOUS
 62
    7
 10
7993.8464358200163
 20
4443.4001028577532
 11
7993.8464358200163
 21
4495.0294116098648
  0
CIRCLE
  8
_0-0_
  6
CONTINUOUS
 62
    7
 10
3336.6310905919763
 20
2973.6555597306415
 40
2.9999997970220211
  0
CIRCLE
  8
_0-0_
  6
CONTINUOUS
 62
    7
 10
3430.9551509804896
 20
2940.4454239356669
 40
2.9999997970220211
  0
ARC
  8
_0-0_
  6
CONTINUOUS
 62
    7
 10
3303.7413893673138
 20
3075.9652455150585
 40
4.9999995811565503
 50
340.60356140136719
 51
56.566970825195291
  0
CIRCLE
  8
_0-0_
  6
CONTINUOUS
 62
    7
 10
3078.3682501147805
 20
3104.3253133465619
 40
5.401953491004738
  0
CIRCLE
  8
_0-0_
  6
CONTINUOUS
 62
    7
 10
3172.6933002625847
 20
3071.1149301117648
 40
5.401953491004738
  0
ARC
  8
_0-0_
  6
CONTINUOUS
 62
    7
 10
3047.5535792427359
 20
3191.4491223362161
 40
4.9999995811565503
 50
340.60356140136719
 51
56.566970825195291
  0
CIRCLE
  8
_0-0_
  6
CONTINUOUS
 62
    7
 10
2822.1804399902021
 20
3219.809190167719
 40
5.401953491004738
  0
CIRCLE
  8
_0-0_
  6
CONTINUOUS
 62
    7
 10
2916.5049952583609
 20
3186.5988069329214
 40
5.401953491004738
  0
ARC
  8
_0-0_
  6
CONTINUOUS
 62
    7
 10
2791.3657691181579
 20
3306.9327517175502
 40
4.9999995811565503
 50
340.60356140136719
 51
56.566970825195291
  0
CIRCLE
  8
_0-0_
  6
CONTINUOUS
 62
    7
 10
2565.9926298656246
 20
3335.2930669888765
 40
5.401953491004738
  0
CIRCLE
  8
_0-0_
  6
CONTINUOUS
 62
    7
 10
2660.3171851337829
 20
3302.082683754079
 40
5.401953491004738
  0
ARC
  8
_0-0_
  6
CONTINUOUS
 62
    7
 10
2535.1777115537579
 20
3422.4168759785298
 40
4.9999995811565503
 50
340.60356140136719
 51
56.566970825195291
  0
CIRCLE
  8
_0-0_
  6
CONTINUOUS
 62
    7
 10
2309.8048197410471
 20
3450.7769438100331
 40
5.401953491004738
  0
CIRCLE
  8
_0-0_
  6
CONTINUOUS
 62
    7
 10
2404.1296224490279
 20
3417.5665605752365
 40
5.401953491004738
  0
ARC
  8
_0-0_
  6
CONTINUOUS
 62
    7
 10
2278.9899014291805
 20
3537.9005053598644
 40
4.9999995811565503
 50
340.60356140136719
 51
56.566970825195291
  0
CIRCLE
  8
_0-0_
  6
CONTINUOUS
 62
    7
 10
2053.6170096164692
 20
3566.2608206311907
 40
5.401953491004738
  0
CIRCLE
  8
_0-0_
  6
CONTINUOUS
 62
    7
 10
2147.941564884628
 20
3533.0504373963931
 40
5.401953491004738
  0
ARC
  8
_0-0_
  6
CONTINUOUS
 62
    7
 10
2022.8020913046025
 20
3653.384382181021
 40
4.9999995811565503
 50
340.60356140136719
 51
56.566970825195291
  0
CIRCLE
  8
_0-0_
  6
CONTINUOUS
 62
    7
 10
1797.4291994918913
 20
3681.7446974523473
 40
5.401953491004738
  0
CIRCLE
  8
_0-0_
  6
CONTINUOUS
 62
    7
 10
1891.7537547600496
 20
3648.5343142175502
 40
5.401953491004738
  0
ARC
  8
_0-0_
  6
CONTINUOUS
 62
    7
 10
1766.614528619848
 20
3768.8682590021785
 40
4.9999995811565503
 50
340.60356140136719
 51
56.566970825195291
  0
CIRCLE
  8
_0-0_
  6
CONTINUOUS
 62
    7
 10
1541.2413893673136
 20
3797.2283268336823
 40
5.401953491004738
  0
CIRCLE
  8
_0-0_
  6
CONTINUOUS
 62
    7
 10
1635.565944635473
 20
3764.0179435988848
 40
5.401953491004738
  0
ARC
  8
_0-0_
  6
CONTINUOUS
 62
    7
 10
1510.4262236156239
 20
3884.3523832631581
 40
4.9999995811565503
 50
340.60356140136719
 51
56.566970825195291
  0
CIRCLE
  8
_0-0_
  6
CONTINUOUS
 62
    7
 10
1285.0533318029129
 20
3912.7124510946619
 40
5.401953491004738
  0
CIRCLE
  8
_0-0_
  6
CONTINUOUS
 62
    7
 10
1379.3781345108948
 20
3879.5020678598644
 40
5.401953491004738
  0
ARC
  8
_0-0_
  6
CONTINUOUS
 62
    7
 10
1254.2386609308687
 20
3999.8360126444923
 40
4.9999995811565503
 50
340.60356140136719
 51
56.566970825195291
  0
CIRCLE
  8
_0-0_
  6
CONTINUOUS
 62
    7
 10
1028.8655216783354
 20
4028.196080475996
 40
5.401953491004738
  0
CIRCLE
  8
_0-0_
  6
CONTINUOUS
 62
    7
 10
1123.1905718261396
 20
3994.985697241199
 40
5.401953491004738
  0
ARC
  8
_0-0_
  6
CONTINUOUS
 62
    7
 10
998.05060336646875
 20
4115.3198894656498
 40
4.9999995811565503
 50
340.60356140136719
 51
56.566970825195291
  0
CIRCLE
  8
_0-0_
  6
CONTINUOUS
 62
    7
 10
772.67771155375783
 20
4143.6799572971531
 40
5.401953491004738
  0
CIRCLE
  8
_0-0_
  6
CONTINUOUS
 62
    7
 10
867.00251426173963
 20
4110.4698215021781
 40
5.401953491004738
  0
ARC
  8
_0-0_
  6
CONTINUOUS
 62
    7
 10
741.86279324189115
 20
4230.8037662868073
 40
4.9999995811565503
 50
340.60356140136719
 51
56.566970825195291
  0
CIRCLE
  8
_0-0_
  6
CONTINUOUS
 62
    7
 10
610.81470413716204
 20
4225.9534508835131
 40
5.401953491004738
  0
ARC
  8
_0-0_
  6
CONTINUOUS
 62
    7
 10
3784.8470494707763
 20
3049.8922639641714
 40
4.9999995811565503
 50
90
 51
180
  0
ARC
  8
_0-0_
  6
CONTINUOUS
 62
    7
 10
3784.8470494707763
 20
3170.6913956153544
 40
4.9999995811565503
 50
90
 51
180
  0
ARC
  8
_0-0_
  6
CONTINUOUS
 62
    7
 10
3784.8470494707763
 20
3286.175519876334
 40
4.9999995811565503
 50
90
 51
180
  0
ARC
  8
_0-0_
  6
CONTINUOUS
 62
    7
 10
3784.8470494707763
 20
3401.6591492576686
 40
4.9999995811565503
 50
90
 51
180
  0
ARC
  8
_0-0_
  6
CONTINUOUS
 62
    7
 10
3784.8470494707763
 20
3517.1430260788252
 40
4.9999995811565503
 50
90
 51
180
  0
ARC
  8
_0-0_
  6
CONTINUOUS
 62
    7
 10
3784.8470494707763
 20
3632.6269028999827
 40
4.9999995811565503
 50
90
 51
180
  0
ARC
  8
_0-0_
  6
CONTINUOUS
 62
    7
 10
3784.8470494707763
 20
3748.1107797211394
 40
4.9999995811565503
 50
90
 51
180
  0
ARC
  8
_0-0_
  6
CONTINUOUS
 62
    7
 10
3784.8470494707763
 20
3863.5946565422964
 40
4.9999995811565503
 50
90
 51
180
  0
ARC
  8
_0-0_
  6
CONTINUOUS
 62
    7
 10
3784.8470494707763
 20
3979.078285923631
 40
4.9999995811565503
 50
90
 51
180
  0
ARC
  8
_0-0_
  6
CONTINUOUS
 62
    7
 10
3784.8470494707763
 20
4094.5624101846106
 40
4.9999995811565503
 50
90
 51
180
  0
ARC
  8
_0-0_
  6
CONTINUOUS
 62
    7
 10
3784.8470494707763
 20
4210.0460395659456
 40
4.9999995811565503
 50
90
 51
180
  0
ARC
  8
_0-0_
  6
CONTINUOUS
 62
    7
 10
3784.8470494707763
 20
4325.5301638269257
 40
4.9999995811565503
 50
90
 51
180
  0
ARC
  8
_0-0_
  6
CONTINUOUS
 62
    7
 10
3784.8470494707763
 20
4441.0137932082598
 40
4.9999995811565503
 50
90
 51
180
  0
ARC
  8
_0-0_
  6
CONTINUOUS
 62
    7
 10
8014.8471484467063
 20
3049.8922639641714
 40
4.9999995811565503
 50
0
 51
90
  0
ARC
  8
_0-0_
  6
CONTINUOUS
 62
    7
 10
8014.8471484467063
 20
3170.6913956153544
 40
4.9999995811565503
 50
0
 51
90
  0
ARC
  8
_0-0_
  6
CONTINUOUS
 62
    7
 10
8014.8471484467063
 20
3286.175519876334
 40
4.9999995811565503
 50
0
 51
90
  0
ARC
  8
_0-0_
  6
CONTINUOUS
 62
    7
 10
8014.8471484467063
 20
3401.6591492576686
 40
4.9999995811565503
 50
0
 51
90
  0
ARC
  8
_0-0_
  6
CONTINUOUS
 62
    7
 10
8014.8471484467063
 20
3517.1430260788252
 40
4.9999995811565503
 50
0
 51
90
  0
ARC
  8
_0-0_
  6
CONTINUOUS
 62
    7
 10
8014.8471484467063
 20
3632.6269028999827
 40
4.9999995811565503
 50
0
 51
90
  0
ARC
  8
_0-0_
  6
CONTINUOUS
 62
    7
 10
8014.8471484467063
 20
3748.1107797211394
 40
4.9999995811565503
 50
0
 51
90
  0
ARC
  8
_0-0_
  6
CONTINUOUS
 62
    7
 10
8014.8471484467063
 20
3863.5946565422964
 40
4.9999995811565503
 50
0
 51
90
  0
ARC
  8
_0-0_
  6
CONTINUOUS
 62
    7
 10
8014.8471484467063
 20
3979.078285923631
 40
4.9999995811565503
 50
0
 51
90
  0
ARC
  8
_0-0_
  6
CONTINUOUS
 62
    7
 10
8014.8471484467063
 20
4094.5624101846106
 40
4.9999995811565503
 50
0
 51
90
  0
ARC
  8
_0-0_
  6
CONTINUOUS
 62
    7
 10
8014.8471484467063
 20
4210.0460395659456
 40
4.9999995811565503
 50
0
 51
90
  0
ARC
  8
_0-0_
  6
CONTINUOUS
 62
    7
 10
8014.8471484467063
 20
4325.5301638269257
 40
4.9999995811565503
 50
0
 51
90
  0
ARC
  8
_0-0_
  6
CONTINUOUS
 62
    7
 10
8014.8471484467063
 20
4441.0137932082598
 40
4.9999995811565503
 50
0
 51
90
  0
CIRCLE
  8
ADD_LINE
  6
DOT
 62
    3
 10
3779.8472804146109
 20
2817.2441464863423
 40
2.9999997970220211
  0
LINE
  8
_0-1_
  6
CONTINUOUS
 62
    7
 10
3779.8473089653517
 20
5068.2121227907191
 11
3779.8473089653517
 21
4984.2121178419238
  0
LINE
  8
_0-1_
  6
CONTINUOUS
 62
    7
 10
3779.8473089653517
 20
5068.2121227907191
 11
4050.8472998925577
 21
5068.2121227907191
  0
LINE
  8
_0-1_
  6
CONTINUOUS
 62
    7
 10
4050.8472998925577
 20
5014.2121240279184
 11
3779.8473089653517
 21
5014.2121240279184
  0
LINE
  8
_0-1_
  6
CONTINUOUS
 62
    7
 10
4050.8472998925577
 20
5068.2121227907191
 11
4050.8472998925577
 21
5033.0093541040642
  0
LINE
  8
_0-1_
  6
CONTINUOUS
 62
    7
 10
4050.8472998925577
 20
5033.0093541040642
 11
4050.8472998925577
 21
5022.7170946815559
  0
LINE
  8
_0-1_
  6
CONTINUOUS
 62
    7
 10
4050.8472998925577
 20
5022.7170946815559
 11
4050.8472998925577
 21
4984.2121178419238
  0
LINE
  8
_0-1_
  6
CONTINUOUS
 62
    7
 10
3755.8473782485021
 20
5077.2121277395163
 11
3754.9737919546887
 21
5076.7380330393471
  0
LINE
  8
_0-1_
  6
CONTINUOUS
 62
    7
 10
3754.9737919546887
 20
5076.7380330393471
 11
3754.1556321811454
 21
5076.2936929778507
  0
LINE
  8
_0-1_
  6
CONTINUOUS
 62
    7
 10
3754.1556321811454
 20
5076.2936929778507
 11
3753.390300809735
 21
5075.8763857169761
  0
LINE
  8
_0-1_
  6
CONTINUOUS
 62
    7
 10
3753.390300809735
 20
5075.8763857169761
 11
3752.6749522824966
 21
5075.4834512786319
  0
LINE
  8
_0-1_
  6
CONTINUOUS
 62
    7
 10
3752.6749522824966
 20
5075.4834512786319
 11
3752.0068647613816
 21
5075.1116729451223
  0
LINE
  8
_0-1_
  6
CONTINUOUS
 62
    7
 10
3752.0068647613816
 20
5075.1116729451223
 11
3751.3831926884304
 21
5074.7580195786204
  0
LINE
  8
_0-1_
  6
CONTINUOUS
 62
    7
 10
3751.3831926884304
 20
5074.7580195786204
 11
3750.8009667857696
 21
5074.4192744614329
  0
LINE
  8
_0-1_
  6
CONTINUOUS
 62
    7
 10
3750.8009667857696
 20
5074.4192744614329
 11
3750.2572177755292
 21
5074.0922827358208
  0
LINE
  8
_0-1_
  6
CONTINUOUS
 62
    7
 10
3750.2572177755292
 20
5074.0922827358208
 11
3749.748605220102
 21
5073.7735183843106
  0
LINE
  8
_0-1_
  6
CONTINUOUS
 62
    7
 10
3749.748605220102
 20
5073.7735183843106
 11
3749.2720361217071
 21
5073.4595172493864
  0
LINE
  8
_0-1_
  6
CONTINUOUS
 62
    7
 10
3749.2720361217071
 20
5073.4595172493864
 11
3748.8241700427375
 21
5073.1466295936652
  0
LINE
  8
_0-1_
  6
CONTINUOUS
 62
    7
 10
3748.8241700427375
 20
5073.1466295936652
 11
3748.4015428256766
 21
5072.8311438198052
  0
LINE
  8
_0-1_
  6
CONTINUOUS
 62
    7
 10
3748.4015428256766
 20
5072.8311438198052
 11
3748.0008140329187
 21
5072.5091627506017
  0
LINE
  8
_0-1_
  6
CONTINUOUS
 62
    7
 10
3748.0008140329187
 20
5072.5091627506017
 11
3747.6181483472137
 21
5072.1767273488913
  0
LINE
  8
_0-1_
  6
CONTINUOUS
 62
    7
 10
3747.6181483472137
 20
5072.1767273488913
 11
3747.2502053309554
 21
5071.8298785775114
  0
LINE
  8
_0-1_
  6
CONTINUOUS
 62
    7
 10
3747.2502053309554
 20
5071.8298785775114
 11
3746.8929022270704
 21
5071.4642862395694
  0
LINE
  8
_0-1_
  6
CONTINUOUS
 62
    7
 10
3746.8929022270704
 20
5071.4642862395694
 11
3746.5427748780417
 21
5071.0757438580758
  0
LINE
  8
_0-1_
  6
CONTINUOUS
 62
    7
 10
3746.5427748780417
 20
5071.0757438580758
 11
3746.1956168068846
 21
5070.659921236138
  0
LINE
  8
_0-1_
  6
CONTINUOUS
 62
    7
 10
3746.1956168068846
 20
5070.659921236138
 11
3745.8473452565254
 21
5070.2121170171231
  0
LINE
  8
_0-1_
  6
CONTINUOUS
 62
    7
 10
3779.8473089653517
 20
5077.2121277395163
 11
3755.8473782485021
 21
5077.2121277395163
  0
LINE
  8
_0-1_
  6
CONTINUOUS
 62
    7
 10
3779.8473089653517
 20
4997.2121421735055
 11
3755.8473782485021
 21
4997.2121421735055
  0
LINE
  8
_0-1_
  6
CONTINUOUS
 62
    7
 10
3745.8473452565254
 20
5070.2121170171231
 11
3745.8473452565254
 21
4991.013465316717
  0
LINE
  8
_0-1_
  6
CONTINUOUS
 62
    7
 10
3779.8473089653517
 20
5077.2121277395163
 11
3779.8472471053956
 21
4869.2120477339731
  0
LINE
  8
_0-1_
  6
CONTINUOUS
 62
    7
 10
3755.8475019684129
 20
4871.712179701879
 11
3758.3473864964958
 21
4869.2121095939283
  0
LINE
  8
_0-1_
  6
CONTINUOUS
 62
    7
 10
3779.8472471053956
 20
4869.2120477339731
 11
3758.3473864964958
 21
4869.2121095939283
  0
LINE
  8
_0-1_
  6
CONTINUOUS
 62
    7
 10
3755.8473782485021
 20
4983.2121516586985
 11
3752.5566760472771
 21
4983.2121516586985
  0
LINE
  8
_0-1_
  6
CONTINUOUS
 62
    7
 10
3758.3473864964958
 20
4869.2121095939283
 11
3755.8473782485021
 21
4983.2121516586985
  0
LINE
  8
_0-1_
  6
CONTINUOUS
 62
    7
 10
4050.8472998925577
 20
4984.2121178419238
 11
3779.8473089653517
 21
4984.2121178419238
  0
LINE
  8
_0-1_
  6
CONTINUOUS
 62
    7
 10
3755.8473782485021
 20
4997.2121421735055
 11
3751.9311481756549
 21
4997.2121421735055
  0
LINE
  8
_0-1_
  6
CONTINUOUS
 62
    7
 10
3755.8473782485021
 20
4983.2121516586985
 11
3755.8475019684129
 21
4871.712179701879
  0
LINE
  8
_0-1_
  6
CONTINUOUS
 62
    7
 10
3751.9311481756549
 20
4997.2121421735055
 11
3745.8473452565254
 21
4994.4214849238488
  0
LINE
  8
_0-1_
  6
CONTINUOUS
 62
    7
 10
3755.8473782485021
 20
5077.2121277395163
 11
3751.9311481756549
 21
4997.2121421735055
  0
ARC
  8
_0-1_
  6
CONTINUOUS
 62
    7
 10
3754.0711314817154
 20
4991.3003408610848
 40
8.2287891491039389
 50
181.99055480957028
 51
259.39462280273437
  0
CIRCLE
  8
ADD_LINE
  6
DOT
 62
    3
 10
3779.8473089653517
 20
4984.2121178419238
 40
2.9999997970220211
  0
LINE
  8
_0-1_
  6
CONTINUOUS
 62
    7
 10
4050.8472998925577
 20
4984.2121178419238
 11
4385.8472916445644
 21
4984.2121178419238
  0
LINE
  8
_0-1_
  6
CONTINUOUS
 62
    7
 10
4100.8472792725734
 20
5084.2120766019525
 11
4100.8472792725734
 21
4984.2121178419238
  0
LINE
  8
_0-1_
  6
CONTINUOUS
 62
    7
 10
4050.8472998925577
 20
5084.2121384619086
 11
4050.8472998925577
 21
4984.2121178419238
  0
LINE
  8
ADD_LINE
  6
DOT
 62
    3
 10
4050.8472998925577
 20
4984.2121178419238
 11
4032.6432140012466
 21
4984.2121178419238
  0
LINE
  8
ADD_LINE
  6
DOT
 62
    3
 10
4050.8472998925577
 20
4984.2121178419238
 11
4050.8472998925577
 21
4969.1620236498311
  0
LINE
  8
ADD_LINE
  6
DOT
 62
    3
 10
4352.8472941189621
 20
4998.9687484043698
 11
4352.8472941189621
 21
4968.6807222648276
  0
ARC
  8
_0-1_
  6
CONTINUOUS
 62
    7
 10
4075.8472586525877
 20
5005.8787838212575
 40
28.333326932546257
 50
28.072448730468754
 51
151.927490234375
  0
ARC
  8
_0-1_
  6
CONTINUOUS
 62
    7
 10
4075.8472586525877
 20
5070.8787817592583
 40
28.333326932546257
 50
28.072448730468754
 51
151.927490234375
  0
CIRCLE
  8
ADD_LINE
  6
DOT
 62
    3
 10
4050.8472998925577
 20
4984.2121178419238
 40
2.9999997970220211
  0
CIRCLE
  8
ADD_LINE
  6
DOT
 62
    3
 10
4352.8472941189621
 20
4984.2121178419238
 40
2.9999997970220211
  0
LINE
  8
_0-1_
  6
CONTINUOUS
 62
    7
 10
4352.8472941189621
 20
4984.2121178419238
 11
4687.8472858709683
 21
4984.2121178419238
  0
LINE
  8
_0-1_
  6
CONTINUOUS
 62
    7
 10
4402.8472734989773
 20
5084.2120766019525
 11
4402.8472734989773
 21
4984.2121178419238
  0
LINE
  8
_0-1_
  6
CONTINUOUS
 62
    7
 10
4352.8472941189621
 20
5084.2121384619086
 11
4352.8472941189621
 21
4984.2121178419238
  0
LINE
  8
ADD_LINE
  6
DOT
 62
    3
 10
4352.8472941189621
 20
4984.2121178419238
 11
4334.6432082276515
 21
4984.2121178419238
  0
LINE
  8
ADD_LINE
  6
DOT
 62
    3
 10
4352.8472941189621
 20
4984.2121178419238
 11
4352.8472941189621
 21
4969.1620236498311
  0
LINE
  8
ADD_LINE
  6
DOT
 62
    3
 10
4654.847288345366
 20
4998.9687484043698
 11
4654.847288345366
 21
4968.6807222648276
  0
ARC
  8
_0-1_
  6
CONTINUOUS
 62
    7
 10
4377.8472528789916
 20
5005.8787838212575
 40
28.333326932546257
 50
28.072448730468754
 51
151.927490234375
  0
ARC
  8
_0-1_
  6
CONTINUOUS
 62
    7
 10
4377.8472528789916
 20
5070.8787817592583
 40
28.333326932546257
 50
28.072448730468754
 51
151.927490234375
  0
CIRCLE
  8
ADD_LINE
  6
DOT
 62
    3
 10
4352.8472941189621
 20
4984.2121178419238
 40
2.9999997970220211
  0
CIRCLE
  8
ADD_LINE
  6
DOT
 62
    3
 10
4654.847288345366
 20
4984.2121178419238
 40
2.9999997970220211
  0
LINE
  8
_0-1_
  6
CONTINUOUS
 62
    7
 10
4654.847288345366
 20
4984.2121178419238
 11
4989.8472800973723
 21
4984.2121178419238
  0
LINE
  8
_0-1_
  6
CONTINUOUS
 62
    7
 10
4704.8472677253812
 20
5084.2120766019525
 11
4704.8472677253812
 21
4984.2121178419238
  0
LINE
  8
_0-1_
  6
CONTINUOUS
 62
    7
 10
4654.847288345366
 20
5084.2121384619086
 11
4654.847288345366
 21
4984.2121178419238
  0
LINE
  8
ADD_LINE
  6
DOT
 62
    3
 10
4654.847288345366
 20
4984.2121178419238
 11
4636.6432024540554
 21
4984.2121178419238
  0
LINE
  8
ADD_LINE
  6
DOT
 62
    3
 10
4654.847288345366
 20
4984.2121178419238
 11
4654.847288345366
 21
4969.1620236498311
  0
LINE
  8
ADD_LINE
  6
DOT
 62
    3
 10
4956.8472825717699
 20
4998.9687484043698
 11
4956.8472825717699
 21
4968.6807222648276
  0
ARC
  8
_0-1_
  6
CONTINUOUS
 62
    7
 10
4679.8472471053956
 20
5005.8787838212575
 40
28.333326932546257
 50
28.072448730468754
 51
151.927490234375
  0
ARC
  8
_0-1_
  6
CONTINUOUS
 62
    7
 10
4679.8472471053956
 20
5070.8787817592583
 40
28.333326932546257
 50
28.072448730468754
 51
151.927490234375
  0
CIRCLE
  8
ADD_LINE
  6
DOT
 62
    3
 10
4654.847288345366
 20
4984.2121178419238
 40
2.9999997970220211
  0
CIRCLE
  8
ADD_LINE
  6
DOT
 62
    3
 10
4956.8472825717699
 20
4984.2121178419238
 40
2.9999997970220211
  0
LINE
  8
_0-1_
  6
CONTINUOUS
 62
    7
 10
4956.8472825717699
 20
4984.2121178419238
 11
5291.8472743237762
 21
4984.2121178419238
  0
LINE
  8
_0-1_
  6
CONTINUOUS
 62
    7
 10
5006.8472619517852
 20
5084.2120766019525
 11
5006.8472619517852
 21
4984.2121178419238
  0
LINE
  8
_0-1_
  6
CONTINUOUS
 62
    7
 10
4956.8472825717699
 20
5084.2121384619086
 11
4956.8472825717699
 21
4984.2121178419238
  0
LINE
  8
ADD_LINE
  6
DOT
 62
    3
 10
4956.8472825717699
 20
4984.2121178419238
 11
4938.6431966804594
 21
4984.2121178419238
  0
LINE
  8
ADD_LINE
  6
DOT
 62
    3
 10
4956.8472825717699
 20
4984.2121178419238
 11
4956.8472825717699
 21
4969.1620236498311
  0
LINE
  8
ADD_LINE
  6
DOT
 62
    3
 10
5258.8472767981748
 20
4998.9687484043698
 11
5258.8472767981748
 21
4968.6807222648276
  0
ARC
  8
_0-1_
  6
CONTINUOUS
 62
    7
 10
4981.8472413317995
 20
5005.8787838212575
 40
28.333326932546257
 50
28.072448730468754
 51
151.927490234375
  0
ARC
  8
_0-1_
  6
CONTINUOUS
 62
    7
 10
4981.8472413317995
 20
5070.8787817592583
 40
28.333326932546257
 50
28.072448730468754
 51
151.927490234375
  0
CIRCLE
  8
ADD_LINE
  6
DOT
 62
    3
 10
4956.8472825717699
 20
4984.2121178419238
 40
2.9999997970220211
  0
CIRCLE
  8
ADD_LINE
  6
DOT
 62
    3
 10
5258.8472767981748
 20
4984.2121178419238
 40
2.9999997970220211
  0
LINE
  8
_0-1_
  6
CONTINUOUS
 62
    7
 10
5258.8472767981748
 20
4984.2121178419238
 11
5593.8472685501802
 21
4984.2121178419238
  0
LINE
  8
_0-1_
  6
CONTINUOUS
 62
    7
 10
5308.8472561781891
 20
5084.2120766019525
 11
5308.8472561781891
 21
4984.2121178419238
  0
LINE
  8
_0-1_
  6
CONTINUOUS
 62
    7
 10
5258.8472767981748
 20
5084.2121384619086
 11
5258.8472767981748
 21
4984.2121178419238
  0
LINE
  8
ADD_LINE
  6
DOT
 62
    3
 10
5258.8472767981748
 20
4984.2121178419238
 11
5240.6431909068633
 21
4984.2121178419238
  0
LINE
  8
ADD_LINE
  6
DOT
 62
    3
 10
5258.8472767981748
 20
4984.2121178419238
 11
5258.8472767981748
 21
4969.1620236498311
  0
LINE
  8
ADD_LINE
  6
DOT
 62
    3
 10
5560.8472710245787
 20
4998.9687484043698
 11
5560.8472710245787
 21
4968.6807222648276
  0
ARC
  8
_0-1_
  6
CONTINUOUS
 62
    7
 10
5283.8472355582044
 20
5005.8787838212575
 40
28.333326932546257
 50
28.072448730468754
 51
151.927490234375
  0
ARC
  8
_0-1_
  6
CONTINUOUS
 62
    7
 10
5283.8472355582044
 20
5070.8787817592583
 40
28.333326932546257
 50
28.072448730468754
 51
151.927490234375
  0
CIRCLE
  8
ADD_LINE
  6
DOT
 62
    3
 10
5258.8472767981748
 20
4984.2121178419238
 40
2.9999997970220211
  0
CIRCLE
  8
ADD_LINE
  6
DOT
 62
    3
 10
5560.8472710245787
 20
4984.2121178419238
 40
2.9999997970220211
  0
LINE
  8
_0-1_
  6
CONTINUOUS
 62
    7
 10
5560.8472710245787
 20
4984.2121178419238
 11
5895.8472627765859
 21
4984.2121178419238
  0
LINE
  8
_0-1_
  6
CONTINUOUS
 62
    7
 10
5610.847250404594
 20
5084.2120766019525
 11
5610.847250404594
 21
4984.2121178419238
  0
LINE
  8
_0-1_
  6
CONTINUOUS
 62
    7
 10
5560.8472710245787
 20
5084.2121384619086
 11
5560.8472710245787
 21
4984.2121178419238
  0
LINE
  8
ADD_LINE
  6
DOT
 62
    3
 10
5560.8472710245787
 20
4984.2121178419238
 11
5542.6431851332673
 21
4984.2121178419238
  0
LINE
  8
ADD_LINE
  6
DOT
 62
    3
 10
5560.8472710245787
 20
4984.2121178419238
 11
5560.8472710245787
 21
4969.1620236498311
  0
LINE
  8
ADD_LINE
  6
DOT
 62
    3
 10
5862.8472652509827
 20
4998.9687484043698
 11
5862.8472652509827
 21
4968.6807222648276
  0
ARC
  8
_0-1_
  6
CONTINUOUS
 62
    7
 10
5585.8472297846083
 20
5005.8787838212575
 40
28.333326932546257
 50
28.072448730468754
 51
151.927490234375
  0
ARC
  8
_0-1_
  6
CONTINUOUS
 62
    7
 10
5585.8472297846083
 20
5070.8787817592583
 40
28.333326932546257
 50
28.072448730468754
 51
151.927490234375
  0
CIRCLE
  8
ADD_LINE
  6
DOT
 62
    3
 10
5560.8472710245787
 20
4984.2121178419238
 40
2.9999997970220211
  0
CIRCLE
  8
ADD_LINE
  6
DOT
 62
    3
 10
5862.8472652509827
 20
4984.2121178419238
 40
2.9999997970220211
  0
LINE
  8
_0-1_
  6
CONTINUOUS
 62
    7
 10
5862.8472652509827
 20
4984.2121178419238
 11
6197.847257002988
 21
4984.2121178419238
  0
LINE
  8
_0-1_
  6
CONTINUOUS
 62
    7
 10
5912.8472446309979
 20
5084.2120766019525
 11
5912.8472446309979
 21
4984.2121178419238
  0
LINE
  8
_0-1_
  6
CONTINUOUS
 62
    7
 10
5862.8472652509827
 20
5084.2121384619086
 11
5862.8472652509827
 21
4984.2121178419238
  0
LINE
  8
ADD_LINE
  6
DOT
 62
    3
 10
5862.8472652509827
 20
4984.2121178419238
 11
5844.6431793596721
 21
4984.2121178419238
  0
LINE
  8
ADD_LINE
  6
DOT
 62
    3
 10
5862.8472652509827
 20
4984.2121178419238
 11
5862.8472652509827
 21
4969.1620236498311
  0
LINE
  8
ADD_LINE
  6
DOT
 62
    3
 10
6164.8472594773875
 20
4998.9687484043698
 11
6164.8472594773875
 21
4968.6807222648276
  0
ARC
  8
_0-1_
  6
CONTINUOUS
 62
    7
 10
5887.8472240110123
 20
5005.8787838212575
 40
28.333326932546257
 50
28.072448730468754
 51
151.927490234375
  0
ARC
  8
_0-1_
  6
CONTINUOUS
 62
    7
 10
5887.8472240110123
 20
5070.8787817592583
 40
28.333326932546257
 50
28.072448730468754
 51
151.927490234375
  0
CIRCLE
  8
ADD_LINE
  6
DOT
 62
    3
 10
5862.8472652509827
 20
4984.2121178419238
 40
2.9999997970220211
  0
CIRCLE
  8
ADD_LINE
  6
DOT
 62
    3
 10
6164.8472594773875
 20
4984.2121178419238
 40
2.9999997970220211
  0
LINE
  8
_0-1_
  6
CONTINUOUS
 62
    7
 10
6164.8472594773875
 20
4984.2121178419238
 11
6499.8472512293938
 21
4984.2121178419238
  0
LINE
  8
_0-1_
  6
CONTINUOUS
 62
    7
 10
6214.8472388574019
 20
5084.2120766019525
 11
6214.8472388574019
 21
4984.2121178419238
  0
LINE
  8
_0-1_
  6
CONTINUOUS
 62
    7
 10
6164.8472594773875
 20
5084.2121384619086
 11
6164.8472594773875
 21
4984.2121178419238
  0
LINE
  8
ADD_LINE
  6
DOT
 62
    3
 10
6164.8472594773875
 20
4984.2121178419238
 11
6146.643173586076
 21
4984.2121178419238
  0
LINE
  8
ADD_LINE
  6
DOT
 62
    3
 10
6164.8472594773875
 20
4984.2121178419238
 11
6164.8472594773875
 21
4969.1620236498311
  0
LINE
  8
ADD_LINE
  6
DOT
 62
    3
 10
6466.8472537037906
 20
4998.9687484043698
 11
6466.8472537037906
 21
4968.6807222648276
  0
ARC
  8
_0-1_
  6
CONTINUOUS
 62
    7
 10
6189.8472182374171
 20
5005.8787838212575
 40
28.333326932546257
 50
28.072448730468754
 51
151.927490234375
  0
ARC
  8
_0-1_
  6
CONTINUOUS
 62
    7
 10
6189.8472182374171
 20
5070.8787817592583
 40
28.333326932546257
 50
28.072448730468754
 51
151.927490234375
  0
CIRCLE
  8
ADD_LINE
  6
DOT
 62
    3
 10
6164.8472594773875
 20
4984.2121178419238
 40
2.9999997970220211
  0
CIRCLE
  8
ADD_LINE
  6
DOT
 62
    3
 10
6466.8472537037906
 20
4984.2121178419238
 40
2.9999997970220211
  0
LINE
  8
_0-1_
  6
CONTINUOUS
 62
    7
 10
6466.8472537037906
 20
4984.2121178419238
 11
6801.8472454557968
 21
4984.2121178419238
  0
LINE
  8
_0-1_
  6
CONTINUOUS
 62
    7
 10
6516.8472330838067
 20
5084.2120766019525
 11
6516.8472330838067
 21
4984.2121178419238
  0
LINE
  8
_0-1_
  6
CONTINUOUS
 62
    7
 10
6801.8472454557968
 20
5068.2121227907191
 11
6801.8472454557968
 21
4984.2121178419238
  0
LINE
  8
_0-1_
  6
CONTINUOUS
 62
    7
 10
6516.8472330838067
 20
5014.2121240279184
 11
6801.8472454557968
 21
5014.2121240279184
  0
LINE
  8
_0-1_
  6
CONTINUOUS
 62
    7
 10
6779.8472471053974
 20
5068.2121227907191
 11
6779.8472471053974
 21
4991.2121285643152
  0
LINE
  8
_0-1_
  6
CONTINUOUS
 62
    7
 10
6779.8472471053974
 20
4991.2121285643152
 11
6786.8472578277888
 21
4991.2121285643152
  0
LINE
  8
_0-1_
  6
CONTINUOUS
 62
    7
 10
6786.8472578277888
 20
5068.2121227907191
 11
6786.8472578277888
 21
4991.2121285643152
  0
LINE
  8
_0-1_
  6
CONTINUOUS
 62
    7
 10
6516.8472330838067
 20
5068.2121227907191
 11
6779.8472471053974
 21
5068.2121227907191
  0
LINE
  8
_0-1_
  6
CONTINUOUS
 62
    7
 10
6786.8472578277888
 20
5068.2121227907191
 11
6801.8472454557968
 21
5068.2121227907191
  0
LINE
  8
_0-1_
  6
CONTINUOUS
 62
    7
 10
6466.8472537037906
 20
5084.2121384619086
 11
6466.8472537037906
 21
4984.2121178419238
  0
LINE
  8
ADD_LINE
  6
DOT
 62
    3
 10
6466.8472537037906
 20
4984.2121178419238
 11
6448.64316781248
 21
4984.2121178419238
  0
LINE
  8
ADD_LINE
  6
DOT
 62
    3
 10
6466.8472537037906
 20
4984.2121178419238
 11
6466.8472537037906
 21
4969.1620236498311
  0
LINE
  8
ADD_LINE
  6
DOT
 62
    3
 10
6768.8472479301963
 20
4998.9687484043698
 11
6768.8472479301963
 21
4968.6807222648276
  0
ARC
  8
_0-1_
  6
CONTINUOUS
 62
    7
 10
6491.8472124638211
 20
5005.8787838212575
 40
28.333326932546257
 50
28.072448730468754
 51
151.927490234375
  0
ARC
  8
_0-1_
  6
CONTINUOUS
 62
    7
 10
6491.8472124638211
 20
5070.8787817592583
 40
28.333326932546257
 50
28.072448730468754
 51
151.927490234375
  0
ARC
  8
_0-1_
  6
CONTINUOUS
 62
    7
 10
6783.3472833965698
 20
5068.7537685624684
 40
3.5416690078941553
 50
188.79698181152341
 51
351.20286560058594
  0
CIRCLE
  8
ADD_LINE
  6
DOT
 62
    3
 10
6466.8472537037906
 20
4984.2121178419238
 40
2.9999997970220211
  0
CIRCLE
  8
ADD_LINE
  6
DOT
 62
    3
 10
6768.8472479301963
 20
4984.2121178419238
 40
2.9999997970220211
  0
LINE
  8
_0-1_
  6
CONTINUOUS
 62
    7
 10
6214.8472388574019
 20
5068.2121227907191
 11
6466.8472537037906
 21
5068.2121227907191
  0
LINE
  8
_0-1_
  6
CONTINUOUS
 62
    7
 10
6214.8472388574019
 20
5014.2121240279184
 11
6466.8472537037906
 21
5014.2121240279184
  0
LINE
  8
_0-1_
  6
CONTINUOUS
 62
    7
 10
5912.8472446309979
 20
5014.2121240279184
 11
6164.8472594773875
 21
5014.2121240279184
  0
LINE
  8
_0-1_
  6
CONTINUOUS
 62
    7
 10
5912.8472446309979
 20
5068.2121227907191
 11
6164.8472594773875
 21
5068.2121227907191
  0
LINE
  8
_0-1_
  6
CONTINUOUS
 62
    7
 10
5610.847250404594
 20
5068.2121227907191
 11
5862.8472652509827
 21
5068.2121227907191
  0
LINE
  8
_0-1_
  6
CONTINUOUS
 62
    7
 10
5610.847250404594
 20
5014.2121240279184
 11
5862.8472652509827
 21
5014.2121240279184
  0
LINE
  8
_0-1_
  6
CONTINUOUS
 62
    7
 10
5308.8472561781891
 20
5068.2121227907191
 11
5560.8472710245787
 21
5068.2121227907191
  0
LINE
  8
_0-1_
  6
CONTINUOUS
 62
    7
 10
5308.8472561781891
 20
5014.2121240279184
 11
5560.8472710245787
 21
5014.2121240279184
  0
LINE
  8
_0-1_
  6
CONTINUOUS
 62
    7
 10
5006.8472619517852
 20
5068.2121227907191
 11
5258.8472767981748
 21
5068.2121227907191
  0
LINE
  8
_0-1_
  6
CONTINUOUS
 62
    7
 10
5006.8472619517852
 20
5014.2121240279184
 11
5258.8472767981748
 21
5014.2121240279184
  0
LINE
  8
_0-1_
  6
CONTINUOUS
 62
    7
 10
4704.8472677253812
 20
5068.2121227907191
 11
4956.8472825717699
 21
5068.2121227907191
  0
LINE
  8
_0-1_
  6
CONTINUOUS
 62
    7
 10
4704.8472677253812
 20
5014.2121240279184
 11
4956.8472825717699
 21
5014.2121240279184
  0
LINE
  8
_0-1_
  6
CONTINUOUS
 62
    7
 10
4402.8472734989773
 20
5014.2121240279184
 11
4654.847288345366
 21
5014.2121240279184
  0
LINE
  8
_0-1_
  6
CONTINUOUS
 62
    7
 10
4402.8472734989773
 20
5068.2121227907191
 11
4654.847288345366
 21
5068.2121227907191
  0
LINE
  8
_0-1_
  6
CONTINUOUS
 62
    7
 10
4100.8472792725734
 20
5068.2121227907191
 11
4352.8472941189621
 21
5068.2121227907191
  0
LINE
  8
_0-1_
  6
CONTINUOUS
 62
    7
 10
4100.8472792725734
 20
5014.2121240279184
 11
4352.8472941189621
 21
5014.2121240279184
  0
LINE
  8
_0-1_
  6
CONTINUOUS
 62
    7
 10
485.42828561414638
 20
4330.5304277627356
 11
444.52969965025318
 21
4214.368565827559
  0
TEXT
  8
_0-1_
 62
    7
 10
7020.9461516481815
 20
4968.6688851913477
 40
60
 41
1
 50
0
  1
三角冠+止め
  0
LINE
  8
ADD_LINE
  6
DOT
 62
    4
 10
2603.5518562070188
 20
4786.5378666743472
 11
2603.5518562070188
 21
4493.0272234627764
  0
TEXT
  8
_0-0_
 62
    7
 10
2456.7964232533132
 20
4618.8177112161547
 40
60
 41
1
 50
0
  1
三角用止
  0
LINE
  8
ADD_LINE
  6
DOT
 62
    4
 10
3758.3473864964958
 20
4869.2121095939283
 11
2431.7879451174963
 21
4869.2121095939283
  0
LINE
  8
_0-0_
  6
CONTINUOUS
 62
    7
 10
2581.8214435433783
 20
4874.3237214499259
 11
2578.73698243432
 21
4874.2084144925775
  0
LINE
  8
_0-0_
  6
CONTINUOUS
 62
    7
 10
2585.0886389614525
 20
4874.4390284072733
 11
2581.8214435433783
 21
4874.3237214499259
  0
LINE
  8
_0-0_
  6
CONTINUOUS
 62
    7
 10
2588.7846475921538
 20
4874.5667073557534
 11
2585.0886389614525
 21
4874.4390284072733
  0
LINE
  8
_0-0_
  6
CONTINUOUS
 62
    7
 10
2592.0910622221159
 20
4874.680529674165
 11
2588.7846475921538
 21
4874.5667073557534
  0
LINE
  8
_0-0_
  6
CONTINUOUS
 62
    7
 10
2595.6681760180409
 20
4874.8057342244192
 11
2592.0910622221159
 21
4874.680529674165
  0
LINE
  8
_0-0_
  6
CONTINUOUS
 62
    7
 10
2599.3855881933996
 20
4874.9403414879325
 11
2595.6681760180409
 21
4874.8057342244192
  0
LINE
  8
_0-0_
  6
CONTINUOUS
 62
    7
 10
2603.1210634758108
 20
4875.0818770664791
 11
2599.3855881933996
 21
4874.9403414879325
  0
LINE
  8
_0-0_
  6
CONTINUOUS
 62
    7
 10
2606.8543117998183
 20
4875.2323204786426
 11
2603.1210634758108
 21
4875.0818770664791
  0
LINE
  8
_0-0_
  6
CONTINUOUS
 62
    7
 10
2610.583477366753
 20
4875.3931563633541
 11
2606.8543117998183
 21
4875.2323204786426
  0
LINE
  8
_0-0_
  6
CONTINUOUS
 62
    7
 10
2614.2775064788725
 20
4875.5648796002624
 11
2610.583477366753
 21
4875.3931563633541
  0
LINE
  8
_0-0_
  6
CONTINUOUS
 62
    7
 10
2617.9182123092146
 20
4875.7479850690124
 11
2614.2775064788725
 21
4875.5648796002624
  0
LINE
  8
_0-0_
  6
CONTINUOUS
 62
    7
 10
2621.4846861927663
 20
4875.9429676492491
 11
2617.9182123092146
 21
4875.7479850690124
  0
LINE
  8
_0-0_
  6
CONTINUOUS
 62
    7
 10
2624.9662882171538
 20
4876.1503222206184
 11
2621.4846861927663
 21
4875.9429676492491
  0
LINE
  8
_0-0_
  6
CONTINUOUS
 62
    7
 10
2628.3443366757688
 20
4876.3705436627624
 11
2624.9662882171538
 21
4876.1503222206184
  0
LINE
  8
_0-0_
  6
CONTINUOUS
 62
    7
 10
2631.6086865358825
 20
4876.60313709604
 11
2628.3443366757688
 21
4876.3705436627624
  0
LINE
  8
_0-0_
  6
CONTINUOUS
 62
    7
 10
2634.7467183665412
 20
4876.8476076408033
 11
2631.6086865358825
 21
4876.60313709604
  0
LINE
  8
_0-0_
  6
CONTINUOUS
 62
    7
 10
2637.7538545310263
 20
4877.1049450563441
 11
2634.7467183665412
 21
4876.8476076408033
  0
LINE
  8
_0-0_
  6
CONTINUOUS
 62
    7
 10
2640.6225481147467
 20
4877.3736647037267
 11
2637.7538545310263
 21
4877.1049450563441
  0
LINE
  8
_0-0_
  6
CONTINUOUS
 62
    7
 10
2643.3461182424917
 20
4877.6537665829492
 11
2640.6225481147467
 21
4877.3736647037267
  0
LINE
  8
_0-0_
  6
CONTINUOUS
 62
    7
 10
2645.92728675231
 20
4877.9452506940124
 11
2643.3461182424917
 21
4877.6537665829492
  0
LINE
  8
_0-0_
  6
CONTINUOUS
 62
    7
 10
2648.3611048477492
 20
4878.2471272776284
 11
2645.92728675231
 21
4877.9452506940124
  0
LINE
  8
_0-0_
  6
CONTINUOUS
 62
    7
 10
2650.6533873646413
 20
4878.5589014541483
 11
2648.3611048477492
 21
4878.2471272776284
  0
LINE
  8
_0-0_
  6
CONTINUOUS
 62
    7
 10
2652.8006701454688
 20
4878.8800783439283
 11
2650.6533873646413
 21
4878.5589014541483
  0
LINE
  8
_0-0_
  6
CONTINUOUS
 62
    7
 10
2654.8148303017188
 20
4879.21164770626
 11
2652.8006701454688
 21
4878.8800783439283
  0
LINE
  8
_0-0_
  6
CONTINUOUS
 62
    7
 10
2656.6967338727704
 20
4879.5521249022058
 11
2654.8148303017188
 21
4879.21164770626
  0
LINE
  8
_0-0_
  6
CONTINUOUS
 62
    7
 10
2658.4549175325042
 20
4879.9020048114116
 11
2656.6967338727704
 21
4879.5521249022058
  0
LINE
  8
_0-0_
  6
CONTINUOUS
 62
    7
 10
2660.1022481516975
 20
4880.2627720728142
 11
2658.4549175325042
 21
4879.9020048114116
  0
LINE
  8
_0-0_
  6
CONTINUOUS
 62
    7
 10
2661.6477572838767
 20
4880.6344266864116
 11
2660.1022481516975
 21
4880.2627720728142
  0
LINE
  8
_0-0_
  6
CONTINUOUS
 62
    7
 10
2663.1036932002621
 20
4881.0194430504325
 11
2661.6477572838767
 21
4880.6344266864116
  0
LINE
  8
_0-0_
  6
CONTINUOUS
 62
    7
 10
2664.4855208897679
 20
4881.4198006834558
 11
2663.1036932002621
 21
4881.0194430504325
  0
LINE
  8
_0-0_
  6
CONTINUOUS
 62
    7
 10
2665.8094476607771
 20
4881.8384688633541
 11
2664.4855208897679
 21
4881.4198006834558
  0
LINE
  8
_0-0_
  6
CONTINUOUS
 62
    7
 10
2667.0913096619379
 20
4882.2803963865808
 11
2665.8094476607771
 21
4881.8384688633541
  0
LINE
  8
_0-0_
  6
CONTINUOUS
 62
    7
 10
2668.351149518885
 20
4882.7505320495875
 11
2667.0913096619379
 21
4882.2803963865808
  0
LINE
  8
_0-0_
  6
CONTINUOUS
 62
    7
 10
2669.6097521767188
 20
4883.2567939266992
 11
2668.351149518885
 21
4882.7505320495875
  0
LINE
  8
_0-0_
  6
CONTINUOUS
 62
    7
 10
2670.8843147031125
 20
4883.8056154533033
 11
2669.6097521767188
 21
4883.2567939266992
  0
LINE
  8
_0-0_
  6
CONTINUOUS
 62
    7
 10
2672.1985913210387
 20
4884.4063993426616
 11
2670.8843147031125
 21
4883.8056154533033
  0
LINE
  8
_0-0_
  6
CONTINUOUS
 62
    7
 10
2673.5655726211867
 20
4885.0670636690984
 11
2672.1985913210387
 21
4884.4063993426616
  0
LINE
  8
_0-0_
  6
CONTINUOUS
 62
    7
 10
2674.1543556791471
 20
4885.3654760951958
 11
2673.5655726211867
 21
4885.0670636690984
  0
LINE
  8
_0-0_
  6
CONTINUOUS
 62
    7
 10
2576.0251656981509
 20
4874.3237214499259
 11
2579.1096268072083
 21
4874.2084144925775
  0
LINE
  8
_0-0_
  6
CONTINUOUS
 62
    7
 10
2572.7579702800763
 20
4874.4390284072733
 11
2576.0251656981509
 21
4874.3237214499259
  0
LINE
  8
_0-0_
  6
CONTINUOUS
 62
    7
 10
2569.061961649375
 20
4874.5667073557534
 11
2572.7579702800763
 21
4874.4390284072733
  0
LINE
  8
_0-0_
  6
CONTINUOUS
 62
    7
 10
2565.7555470194129
 20
4874.680529674165
 11
2569.061961649375
 21
4874.5667073557534
  0
LINE
  8
_0-0_
  6
CONTINUOUS
 62
    7
 10
2562.1785569433996
 20
4874.8057342244192
 11
2565.7555470194129
 21
4874.680529674165
  0
LINE
  8
_0-0_
  6
CONTINUOUS
 62
    7
 10
2558.4611447680409
 20
4874.9403414879325
 11
2562.1785569433996
 21
4874.8057342244192
  0
LINE
  8
_0-0_
  6
CONTINUOUS
 62
    7
 10
2554.7256694856292
 20
4875.0818770664791
 11
2558.4611447680409
 21
4874.9403414879325
  0
LINE
  8
_0-0_
  6
CONTINUOUS
 62
    7
 10
2550.9924211616217
 20
4875.2323204786426
 11
2554.7256694856292
 21
4875.0818770664791
  0
LINE
  8
_0-0_
  6
CONTINUOUS
 62
    7
 10
2547.2632555946875
 20
4875.3931563633541
 11
2550.9924211616217
 21
4875.2323204786426
  0
LINE
  8
_0-0_
  6
CONTINUOUS
 62
    7
 10
2543.569226482568
 20
4875.5648796002624
 11
2547.2632555946875
 21
4875.3931563633541
  0
LINE
  8
_0-0_
  6
CONTINUOUS
 62
    7
 10
2539.9285206522254
 20
4875.7479850690124
 11
2543.569226482568
 21
4875.5648796002624
  0
LINE
  8
_0-0_
  6
CONTINUOUS
 62
    7
 10
2536.3620467686742
 20
4875.9429676492491
 11
2539.9285206522254
 21
4875.7479850690124
  0
LINE
  8
_0-0_
  6
CONTINUOUS
 62
    7
 10
2532.8804447442867
 20
4876.1503222206184
 11
2536.3620467686742
 21
4875.9429676492491
  0
LINE
  8
_0-0_
  6
CONTINUOUS
 62
    7
 10
2529.5023962856721
 20
4876.3705436627624
 11
2532.8804447442867
 21
4876.1503222206184
  0
LINE
  8
_0-0_
  6
CONTINUOUS
 62
    7
 10
2526.2379227056458
 20
4876.60313709604
 11
2529.5023962856721
 21
4876.3705436627624
  0
LINE
  8
_0-0_
  6
CONTINUOUS
 62
    7
 10
2523.1000145948992
 20
4876.8476076408033
 11
2526.2379227056458
 21
4876.60313709604
  0
LINE
  8
_0-0_
  6
CONTINUOUS
 62
    7
 10
2520.0928784304137
 20
4877.1049450563441
 11
2523.1000145948992
 21
4876.8476076408033
  0
LINE
  8
_0-0_
  6
CONTINUOUS
 62
    7
 10
2517.2241848466938
 20
4877.3736647037267
 11
2520.0928784304137
 21
4877.1049450563441
  0
LINE
  8
_0-0_
  6
CONTINUOUS
 62
    7
 10
2514.5006147189488
 20
4877.6537665829492
 11
2517.2241848466938
 21
4877.3736647037267
  0
LINE
  8
_0-0_
  6
CONTINUOUS
 62
    7
 10
2511.9193224892188
 20
4877.9452506940124
 11
2514.5006147189488
 21
4877.6537665829492
  0
LINE
  8
_0-0_
  6
CONTINUOUS
 62
    7
 10
2509.4855043937796
 20
4878.2471272776284
 11
2511.9193224892188
 21
4877.9452506940124
  0
LINE
  8
_0-0_
  6
CONTINUOUS
 62
    7
 10
2507.1932218768875
 20
4878.5589014541483
 11
2509.4855043937796
 21
4878.2471272776284
  0
LINE
  8
_0-0_
  6
CONTINUOUS
 62
    7
 10
2505.04593909606
 20
4878.8800783439283
 11
2507.1932218768875
 21
4878.5589014541483
  0
LINE
  8
_0-0_
  6
CONTINUOUS
 62
    7
 10
2503.0319026597217
 20
4879.21164770626
 11
2505.04593909606
 21
4878.8800783439283
  0
LINE
  8
_0-0_
  6
CONTINUOUS
 62
    7
 10
2501.1498753687583
 20
4879.5521249022058
 11
2503.0319026597217
 21
4879.21164770626
  0
LINE
  8
_0-0_
  6
CONTINUOUS
 62
    7
 10
2499.3918154289358
 20
4879.9020048114116
 11
2501.1498753687583
 21
4879.5521249022058
  0
LINE
  8
_0-0_
  6
CONTINUOUS
 62
    7
 10
2497.7443610898313
 20
4880.2627720728142
 11
2499.3918154289358
 21
4879.9020048114116
  0
LINE
  8
_0-0_
  6
CONTINUOUS
 62
    7
 10
2496.1989756775638
 20
4880.6344266864116
 11
2497.7443610898313
 21
4880.2627720728142
  0
LINE
  8
_0-0_
  6
CONTINUOUS
 62
    7
 10
2494.7429160412667
 20
4881.0194430504325
 11
2496.1989756775638
 21
4880.6344266864116
  0
LINE
  8
_0-0_
  6
CONTINUOUS
 62
    7
 10
2493.3612120716725
 20
4881.4198006834558
 11
2494.7429160412667
 21
4881.0194430504325
  0
LINE
  8
_0-0_
  6
CONTINUOUS
 62
    7
 10
2492.0372853006629
 20
4881.8384688633541
 11
2493.3612120716725
 21
4881.4198006834558
  0
LINE
  8
_0-0_
  6
CONTINUOUS
 62
    7
 10
2490.7554232995021
 20
4882.2803963865808
 11
2492.0372853006629
 21
4881.8384688633541
  0
LINE
  8
_0-0_
  6
CONTINUOUS
 62
    7
 10
2489.4955834425555
 20
4882.7505320495875
 11
2490.7554232995021
 21
4882.2803963865808
  0
LINE
  8
_0-0_
  6
CONTINUOUS
 62
    7
 10
2488.23685706481
 20
4883.2567939266992
 11
2489.4955834425555
 21
4882.7505320495875
  0
LINE
  8
_0-0_
  6
CONTINUOUS
 62
    7
 10
2486.9624182583284
 20
4883.8056154533033
 11
2488.23685706481
 21
4883.2567939266992
  0
LINE
  8
_0-0_
  6
CONTINUOUS
 62
    7
 10
2485.6481416404013
 20
4884.4063993426616
 11
2486.9624182583284
 21
4883.8056154533033
  0
LINE
  8
_0-0_
  6
CONTINUOUS
 62
    7
 10
2484.2811603402533
 20
4885.0670636690984
 11
2485.6481416404013
 21
4884.4063993426616
  0
LINE
  8
_0-0_
  6
CONTINUOUS
 62
    7
 10
2483.6922535623817
 20
4885.3654760951958
 11
2484.2811603402533
 21
4885.0670636690984
  0
LINE
  8
_0-0_
  6
CONTINUOUS
 62
    7
 10
2582.0039304125721
 20
4869.3269216716317
 11
2578.9233046207642
 21
4869.2121095939283
  0
LINE
  8
_0-0_
  6
CONTINUOUS
 62
    7
 10
2585.2690225921538
 20
4869.4422286289791
 11
2582.0039304125721
 21
4869.3269216716317
  0
LINE
  8
_0-0_
  6
CONTINUOUS
 62
    7
 10
2588.6881460613263
 20
4869.5605048641992
 11
2585.2690225921538
 21
4869.4422286289791
  0
LINE
  8
_0-0_
  6
CONTINUOUS
 62
    7
 10
2592.2301234024367
 20
4869.6822452569359
 11
2588.6881460613263
 21
4869.5605048641992
  0
LINE
  8
_0-0_
  6
CONTINUOUS
 62
    7
 10
2595.8661278761483
 20
4869.80942932577
 11
2592.2301234024367
 21
4869.6822452569359
  0
LINE
  8
_0-0_
  6
CONTINUOUS
 62
    7
 10
2599.5679513426821
 20
4869.9435417096374
 11
2595.8661278761483
 21
4869.80942932577
  0
LINE
  8
_0-0_
  6
CONTINUOUS
 62
    7
 10
2603.3084991414571
 20
4870.0855721678308
 11
2599.5679513426821
 21
4869.9435417096374
  0
LINE
  8
_0-0_
  6
CONTINUOUS
 62
    7
 10
2607.0626561304771
 20
4870.2370053392842
 11
2603.3084991414571
 21
4870.0855721678308
  0
LINE
  8
_0-0_
  6
CONTINUOUS
 62
    7
 10
2610.8070392465033
 20
4870.3983361036426
 11
2607.0626561304771
 21
4870.2370053392842
  0
LINE
  8
_0-0_
  6
CONTINUOUS
 62
    7
 10
2614.5196263453208
 20
4870.5705542201958
 11
2610.8070392465033
 21
4870.3983361036426
  0
LINE
  8
_0-0_
  6
CONTINUOUS
 62
    7
 10
2618.1806222411196
 20
4870.7546494482358
 11
2614.5196263453208
 21
4870.5705542201958
  0
LINE
  8
_0-0_
  6
CONTINUOUS
 62
    7
 10
2621.7722112666684
 20
4870.9511166674092
 11
2618.1806222411196
 21
4870.7546494482358
  0
LINE
  8
_0-0_
  6
CONTINUOUS
 62
    7
 10
2625.2781861135854
 20
4871.1599558777125
 11
2621.7722112666684
 21
4870.9511166674092
  0
LINE
  8
_0-0_
  6
CONTINUOUS
 62
    7
 10
2628.6848138717146
 20
4871.3821568384392
 11
2625.2781861135854
 21
4871.1599558777125
  0
LINE
  8
_0-0_
  6
CONTINUOUS
 62
    7
 10
2631.9803411494809
 20
4871.6167297902975
 11
2628.6848138717146
 21
4871.3821568384392
  0
LINE
  8
_0-0_
  6
CONTINUOUS
 62
    7
 10
2635.1544991942446
 20
4871.8641696129325
 11
2631.9803411494809
 21
4871.6167297902975
  0
LINE
  8
_0-0_
  6
CONTINUOUS
 62
    7
 10
2638.1999885312375
 20
4872.12497118599
 11
2635.1544991942446
 21
4871.8641696129325
  0
LINE
  8
_0-0_
  6
CONTINUOUS
 62
    7
 10
2641.1107468848058
 20
4872.3976498705342
 11
2638.1999885312375
 21
4872.12497118599
  0
LINE
  8
_0-0_
  6
CONTINUOUS
 62
    7
 10
2643.88306265761
 20
4872.6827005462101
 11
2641.1107468848058
 21
4872.3976498705342
  0
LINE
  8
_0-0_
  6
CONTINUOUS
 62
    7
 10
2646.5149563310683
 20
4872.9796283333708
 11
2643.88306265761
 21
4872.6827005462101
  0
LINE
  8
_0-0_
  6
CONTINUOUS
 62
    7
 10
2649.0064279051821
 20
4873.28843323202
 11
2646.5149563310683
 21
4872.9796283333708
  0
LINE
  8
_0-0_
  6
CONTINUOUS
 62
    7
 10
2651.3593331786196
 20
4873.6091152421559
 11
2649.0064279051821
 21
4873.28843323202
  0
LINE
  8
_0-0_
  6
CONTINUOUS
 62
    7
 10
2653.5771363088979
 20
4873.9406846044858
 11
2651.3593331786196
 21
4873.6091152421559
  0
LINE
  8
_0-0_
  6
CONTINUOUS
 62
    7
 10
2655.6649098123817
 20
4874.2841310783033
 11
2653.5771363088979
 21
4873.9406846044858
  0
LINE
  8
_0-0_
  6
CONTINUOUS
 62
    7
 10
2657.6293345642816
 20
4874.6394546636075
 11
2655.6649098123817
 21
4874.2841310783033
  0
LINE
  8
_0-0_
  6
CONTINUOUS
 62
    7
 10
2659.4786997986566
 20
4875.0076451196892
 11
2657.6293345642816
 21
4874.6394546636075
  0
LINE
  8
_0-0_
  6
CONTINUOUS
 62
    7
 10
2661.2224082287667
 20
4875.3891973261925
 11
2659.4786997986566
 21
4875.0076451196892
  0
LINE
  8
_0-0_
  6
CONTINUOUS
 62
    7
 10
2662.8717183665412
 20
4875.7865856813441
 11
2661.2224082287667
 21
4875.3891973261925
  0
LINE
  8
_0-0_
  6
CONTINUOUS
 62
    7
 10
2664.4382598836446
 20
4876.20030506479
 11
2662.8717183665412
 21
4875.7865856813441
  0
LINE
  8
_0-0_
  6
CONTINUOUS
 62
    7
 10
2665.9355182504096
 20
4876.6343145136925
 11
2664.4382598836446
 21
4876.20030506479
  0
LINE
  8
_0-0_
  6
CONTINUOUS
 62
    7
 10
2667.3779686964608
 20
4877.0905935466317
 11
2665.9355182504096
 21
4876.6343145136925
  0
LINE
  8
_0-0_
  6
CONTINUOUS
 62
    7
 10
2668.7803338912458
 20
4877.5740909600609
 11
2667.3779686964608
 21
4877.0905935466317
  0
LINE
  8
_0-0_
  6
CONTINUOUS
 62
    7
 10
2670.1591923028805
 20
4878.0887657911426
 11
2668.7803338912458
 21
4877.5740909600609
  0
LINE
  8
_0-0_
  6
CONTINUOUS
 62
    7
 10
2671.5308749596579
 20
4878.6405565956184
 11
2670.1591923028805
 21
4878.0887657911426
  0
LINE
  8
_0-0_
  6
CONTINUOUS
 62
    7
 10
2672.9134449686317
 20
4879.2354019292325
 11
2671.5308749596579
 21
4878.6405565956184
  0
LINE
  8
_0-0_
  6
CONTINUOUS
 62
    7
 10
2674.324841716943
 20
4879.880724986665
 11
2672.9134449686317
 21
4879.2354019292325
  0
LINE
  8
_0-0_
  6
CONTINUOUS
 62
    7
 10
2675.7841180709333
 20
4880.5859284811759
 11
2674.324841716943
 21
4879.880724986665
  0
LINE
  8
_0-0_
  6
CONTINUOUS
 62
    7
 10
2677.3103268969471
 20
4881.3594253667325
 11
2675.7841180709333
 21
4880.5859284811759
  0
LINE
  8
_0-0_
  6
CONTINUOUS
 62
    7
 10
2678.9233871007054
 20
4882.2121029955342
 11
2677.3103268969471
 21
4881.3594253667325
  0
LINE
  8
_0-0_
  6
CONTINUOUS
 62
    7
 10
2575.8428025488683
 20
4869.3269216716317
 11
2578.9233046207642
 21
4869.2121095939283
  0
LINE
  8
_0-0_
  6
CONTINUOUS
 62
    7
 10
2572.577586649375
 20
4869.4422286289791
 11
2575.8428025488683
 21
4869.3269216716317
  0
LINE
  8
_0-0_
  6
CONTINUOUS
 62
    7
 10
2569.1585869001142
 20
4869.5605048641992
 11
2572.577586649375
 21
4869.4422286289791
  0
LINE
  8
_0-0_
  6
CONTINUOUS
 62
    7
 10
2565.6164858390921
 20
4869.6822452569359
 11
2569.1585869001142
 21
4869.5605048641992
  0
LINE
  8
_0-0_
  6
CONTINUOUS
 62
    7
 10
2561.9804813653805
 20
4869.80942932577
 11
2565.6164858390921
 21
4869.6822452569359
  0
LINE
  8
_0-0_
  6
CONTINUOUS
 62
    7
 10
2558.2786578988471
 20
4869.9435417096374
 11
2561.9804813653805
 21
4869.80942932577
  0
LINE
  8
_0-0_
  6
CONTINUOUS
 62
    7
 10
2554.5381101000721
 20
4870.0855721678308
 11
2558.2786578988471
 21
4869.9435417096374
  0
LINE
  8
_0-0_
  6
CONTINUOUS
 62
    7
 10
2550.7839531110517
 20
4870.2370053392842
 11
2554.5381101000721
 21
4870.0855721678308
  0
LINE
  8
_0-0_
  6
CONTINUOUS
 62
    7
 10
2547.0395699950259
 20
4870.3983361036426
 11
2550.7839531110517
 21
4870.2370053392842
  0
LINE
  8
_0-0_
  6
CONTINUOUS
 62
    7
 10
2543.3269828962079
 20
4870.5705542201958
 11
2547.0395699950259
 21
4870.3983361036426
  0
LINE
  8
_0-0_
  6
CONTINUOUS
 62
    7
 10
2539.6659870004096
 20
4870.7546494482358
 11
2543.3269828962079
 21
4870.5705542201958
  0
LINE
  8
_0-0_
  6
CONTINUOUS
 62
    7
 10
2536.0743979748604
 20
4870.9511166674092
 11
2539.6659870004096
 21
4870.7546494482358
  0
LINE
  8
_0-0_
  6
CONTINUOUS
 62
    7
 10
2532.5684231279438
 20
4871.1599558777125
 11
2536.0743979748604
 21
4870.9511166674092
  0
LINE
  8
_0-0_
  6
CONTINUOUS
 62
    7
 10
2529.1617953698146
 20
4871.3821568384392
 11
2532.5684231279438
 21
4871.1599558777125
  0
LINE
  8
_0-0_
  6
CONTINUOUS
 62
    7
 10
2525.8663918119596
 20
4871.6167297902975
 11
2529.1617953698146
 21
4871.3821568384392
  0
LINE
  8
_0-0_
  6
CONTINUOUS
 62
    7
 10
2522.6921100472846
 20
4871.8641696129325
 11
2525.8663918119596
 21
4871.6167297902975
  0
LINE
  8
_0-0_
  6
CONTINUOUS
 62
    7
 10
2519.6467444302034
 20
4872.12497118599
 11
2522.6921100472846
 21
4871.8641696129325
  0
LINE
  8
_0-0_
  6
CONTINUOUS
 62
    7
 10
2516.7359860766346
 20
4872.3976498705342
 11
2519.6467444302034
 21
4872.12497118599
  0
LINE
  8
_0-0_
  6
CONTINUOUS
 62
    7
 10
2513.9635465839187
 20
4872.6827005462101
 11
2516.7359860766346
 21
4872.3976498705342
  0
LINE
  8
_0-0_
  6
CONTINUOUS
 62
    7
 10
2511.3317766303721
 20
4872.9796283333708
 11
2513.9635465839187
 21
4872.6827005462101
  0
LINE
  8
_0-0_
  6
CONTINUOUS
 62
    7
 10
2508.8401813363471
 20
4873.28843323202
 11
2511.3317766303721
 21
4872.9796283333708
  0
LINE
  8
_0-0_
  6
CONTINUOUS
 62
    7
 10
2506.4872760629096
 20
4873.6091152421559
 11
2508.8401813363471
 21
4873.28843323202
  0
LINE
  8
_0-0_
  6
CONTINUOUS
 62
    7
 10
2504.2695966525425
 20
4873.9406846044858
 11
2506.4872760629096
 21
4873.6091152421559
  0
LINE
  8
_0-0_
  6
CONTINUOUS
 62
    7
 10
2502.1816994291471
 20
4874.2841310783033
 11
2504.2695966525425
 21
4873.9406846044858
  0
LINE
  8
_0-0_
  6
CONTINUOUS
 62
    7
 10
2500.2172746772471
 20
4874.6394546636075
 11
2502.1816994291471
 21
4874.2841310783033
  0
LINE
  8
_0-0_
  6
CONTINUOUS
 62
    7
 10
2498.3679094428721
 20
4875.0076451196892
 11
2500.2172746772471
 21
4874.6394546636075
  0
LINE
  8
_0-0_
  6
CONTINUOUS
 62
    7
 10
2496.6242010127621
 20
4875.3891973261925
 11
2498.3679094428721
 21
4875.0076451196892
  0
LINE
  8
_0-0_
  6
CONTINUOUS
 62
    7
 10
2494.9750145948992
 20
4875.7865856813441
 11
2496.6242010127621
 21
4875.3891973261925
  0
LINE
  8
_0-0_
  6
CONTINUOUS
 62
    7
 10
2493.4083493578846
 20
4876.20030506479
 11
2494.9750145948992
 21
4875.7865856813441
  0
LINE
  8
_0-0_
  6
CONTINUOUS
 62
    7
 10
2491.9110909911187
 20
4876.6343145136925
 11
2493.4083493578846
 21
4876.20030506479
  0
LINE
  8
_0-0_
  6
CONTINUOUS
 62
    7
 10
2490.4687642649792
 20
4877.0905935466317
 11
2491.9110909911187
 21
4876.6343145136925
  0
LINE
  8
_0-0_
  6
CONTINUOUS
 62
    7
 10
2489.0662753502834
 20
4877.5740909600609
 11
2490.4687642649792
 21
4877.0905935466317
  0
LINE
  8
_0-0_
  6
CONTINUOUS
 62
    7
 10
2487.68754065856
 20
4878.0887657911426
 11
2489.0662753502834
 21
4877.5740909600609
  0
LINE
  8
_0-0_
  6
CONTINUOUS
 62
    7
 10
2486.3157342818708
 20
4878.6405565956184
 11
2487.68754065856
 21
4878.0887657911426
  0
LINE
  8
_0-0_
  6
CONTINUOUS
 62
    7
 10
2484.9331642728971
 20
4879.2354019292325
 11
2486.3157342818708
 21
4878.6405565956184
  0
LINE
  8
_0-0_
  6
CONTINUOUS
 62
    7
 10
2483.5218912444975
 20
4879.880724986665
 11
2484.9331642728971
 21
4879.2354019292325
  0
LINE
  8
_0-0_
  6
CONTINUOUS
 62
    7
 10
2482.0626148905067
 20
4880.5859284811759
 11
2483.5218912444975
 21
4879.880724986665
  0
LINE
  8
_0-0_
  6
CONTINUOUS
 62
    7
 10
2480.5364060644933
 20
4881.3594253667325
 11
2482.0626148905067
 21
4880.5859284811759
  0
LINE
  8
_0-0_
  6
CONTINUOUS
 62
    7
 10
2478.923345860735
 20
4882.2121029955342
 11
2480.5364060644933
 21
4881.3594253667325
  0
ARC
  8
_0-0_
  6
CONTINUOUS
 62
    7
 10
2578.9233046207642
 20
5043.721003417787
 40
24.840220889529672
 50
56.480224609375007
 51
123.52009582519531
  0
ARC
  8
_0-0_
  6
CONTINUOUS
 62
    7
 10
2578.9233046207642
 20
5043.721003417787
 40
29.840219987405312
 50
56.350357055664105
 51
123.64964294433598
  0
LINE
  8
ADD_LINE
  6
DOT
 62
    4
 10
2578.9233046207642
 20
5068.5609923324846
 11
2578.9233046207642
 21
4843.2433002083708
  0
LINE
  8
_0-0_
  6
CONTINUOUS
 62
    7
 10
2682.7161447020571
 20
5001.358810903007
 11
2592.6407497880996
 21
5064.430231933412
  0
LINE
  8
_0-0_
  6
CONTINUOUS
 62
    7
 10
2475.1304645394721
 20
5001.358810903007
 11
2565.2058594534292
 21
5064.430231933412
  0
LINE
  8
_0-0_
  6
CONTINUOUS
 62
    7
 10
2674.1543556791471
 20
4885.3654760951958
 11
2682.7161447020571
 21
5001.358810903007
  0
LINE
  8
_0-0_
  6
CONTINUOUS
 62
    7
 10
2483.6922535623817
 20
4885.3654760951958
 11
2475.1304645394721
 21
5001.358810903007
  0
LINE
  8
_0-0_
  6
CONTINUOUS
 62
    7
 10
2687.9232683295904
 20
5003.8163832214195
 11
2595.4582233285346
 21
5068.5609923324846
  0
LINE
  8
_0-0_
  6
CONTINUOUS
 62
    7
 10
2678.9233871007054
 20
4882.2121029955342
 11
2687.9232683295904
 21
5003.8163832214195
  0
LINE
  8
_0-0_
  6
CONTINUOUS
 62
    7
 10
2469.9233409119388
 20
5003.8163832214195
 11
2562.3885096329054
 21
5068.5609923324846
  0
LINE
  8
_0-0_
  6
CONTINUOUS
 62
    7
 10
2478.923345860735
 20
4882.2121029955342
 11
2469.9233409119388
 21
5003.8163832214195
  0
LINE
  8
_1-0_
  6
CONTINUOUS
 62
    7
 10
2340.0979535534912
 20
4583.9372260874143
 11
2840.0979535534912
 21
4583.9372260874143
  0
LINE
  8
_1-0_
  6
CONTINUOUS
 62
    7
 10
2840.0979535534912
 20
4583.9372260874143
 11
2840.0979535534912
 21
4703.9372260874143
  0
LINE
  8
_1-0_
  6
CONTINUOUS
 62
    7
 10
2840.0979535534912
 20
4703.9372260874143
 11
2340.0979535534912
 21
4703.9372260874143
  0
LINE
  8
_1-0_
  6
CONTINUOUS
 62
    7
 10
2340.0979535534912
 20
4703.9372260874143
 11
2340.0979535534912
 21
4583.9372260874143
  0
LINE
  8
_1-0_
  6
CONTINUOUS
 62
    7
 10
6952.6433230292132
 20
4936.6222961730455
 11
7452.6433230292132
 21
4936.6222961730455
  0
LINE
  8
_1-0_
  6
CONTINUOUS
 62
    7
 10
7452.6433230292132
 20
4936.6222961730455
 11
7452.6433230292132
 21
5056.6222961730455
  0
LINE
  8
_1-0_
  6
CONTINUOUS
 62
    7
 10
7452.6433230292132
 20
5056.6222961730455
 11
6952.6433230292132
 21
5056.6222961730455
  0
LINE
  8
_1-0_
  6
CONTINUOUS
 62
    7
 10
6952.6433230292132
 20
5056.6222961730455
 11
6952.6433230292132
 21
4936.6222961730455
  0
LINE
  8
_0-3_
  6
CONTINUOUS
 62
    7
 10
1236.1318064004058
 20
2608.7890660013081
 11
1233.592455220612
 21
2608.3658201846902
  0
LINE
  8
_1-0_
  6
CONTINUOUS
 62
    7
 10
2512.0485842607472
 20
2653.1140478729812
 11
3012.0486255007177
 21
2653.1140478729812
  0
LINE
  8
_1-0_
  6
CONTINUOUS
 62
    7
 10
3012.0486255007177
 20
2653.1140478729812
 11
3012.0486255007177
 21
2773.1139488970525
  0
LINE
  8
_1-0_
  6
CONTINUOUS
 62
    7
 10
3012.0486255007177
 20
2773.1139488970525
 11
2512.0485842607472
 21
2773.1139488970525
  0
LINE
  8
_1-0_
  6
CONTINUOUS
 62
    7
 10
2512.0485842607472
 20
2773.1139488970525
 11
2512.0485842607472
 21
2653.1140478729812
  0
TEXT
  8
_1-0_
 62
    7
 10
2662.3647221353208
 20
2678.7682481499223
 40
60
 41
1
 50
0
  1
袖　瓦
  0
LINE
  8
ADD_LINE
  6
DOT
 62
    4
 10
4216.8472870130063
 20
2918.2441332895519
 11
4216.8472870130063
 21
2047.5374376039936
  0
LINE
  8
ADD_LINE
  6
DOT
 62
    4
 10
3815.6405990016638
 20
2473.8269550748751
 11
8001.6638935108149
 21
2473.8269550748751
  0
LINE
  8
_0-2_
  6
CONTINUOUS
 62
    7
 10
1026.4978168349166
 20
2524.9471839425682
 11
985.46134502986035
 21
2433.7552168289703
  0
ARC
  8
_0-2_
  6
CONTINUOUS
 62
    7
 10
1017.1506538149634
 20
2443.2544316199337
 40
28.333326932546257
 50
3.8447570800781441
 51
127.6997985839844
  0
ARC
  8
_0-2_
  6
CONTINUOUS
 62
    7
 10
1043.8243573952532
 20
2502.5291360118254
 40
28.333326932546257
 50
3.8447570800781441
 51
127.6997985839844
  0
LINE
  8
_0-2_
  6
CONTINUOUS
 62
    7
 10
1072.0938622516719
 20
2504.4289789700179
 11
1031.0573904466146
 21
2413.2370118564199
  0
LINE
  8
_0-2_
  6
CONTINUOUS
 62
    7
 10
1031.0573904466146
 20
2413.2370118564199
 11
985.46134502986035
 21
2433.7552168289703
  0
LINE
  8
_0-2_
  6
CONTINUOUS
 62
    7
 10
1306.4577274596525
 20
2289.3067766896124
 11
1000.964006657552
 21
2426.7788984695953
  0
LINE
  8
_0-2_
  6
CONTINUOUS
 62
    7
 10
3394.7578447461296
 20
1349.5717146317047
 11
3382.4469712505634
 21
1322.2140255216962
  0
LINE
  8
_0-2_
  6
CONTINUOUS
 62
    7
 10
3268.7303096426667
 20
1498.3973033735228
 11
3254.2842779175821
 21
1466.295079384397
  0
LINE
  8
_0-2_
  6
CONTINUOUS
 62
    7
 10
3254.2842779175821
 20
1466.295079384397
 11
3250.060727585023
 21
1456.9094394720239
  0
LINE
  8
_0-2_
  6
CONTINUOUS
 62
    7
 10
3250.060727585023
 20
1456.9094394720239
 11
3234.2597153911884
 21
1421.7958728414283
  0
LINE
  8
_0-2_
  6
CONTINUOUS
 62
    7
 10
3234.2597153911884
 20
1421.7958728414283
 11
2928.7660564490425
 21
1559.2679946214114
  0
LINE
  8
_0-2_
  6
CONTINUOUS
 62
    7
 10
3229.7001417794909
 20
1533.5061686474883
 11
3188.6637318343892
 21
1442.3140778139791
  0
LINE
  8
_0-2_
  6
CONTINUOUS
 62
    7
 10
3275.2961253362901
 20
1512.9880873948489
 11
3234.2597153911884
 21
1421.7958728414283
  0
LINE
  8
ADD_LINE
  6
DOT
 62
    3
 10
3234.2597153911884
 20
1421.7958728414283
 11
3250.8604530917796
 21
1414.325540876162
  0
LINE
  8
ADD_LINE
  6
DOT
 62
    3
 10
2964.915035017455
 20
1559.1828753224249
 11
2952.4858852866696
 21
1531.5626525606003
  0
LINE
  8
_0-2_
  6
CONTINUOUS
 62
    7
 10
2958.859440238105
 20
1545.7259842883243
 11
2653.36578129596
 21
1683.1982297882189
  0
LINE
  8
_0-2_
  6
CONTINUOUS
 62
    7
 10
2954.2998666264075
 20
1657.4364038142958
 11
2913.2634566813063
 21
1566.2441892608749
  0
LINE
  8
_0-2_
  6
CONTINUOUS
 62
    7
 10
2999.8958501832067
 20
1636.9181988417449
 11
2958.859440238105
 21
1545.7259842883243
  0
LINE
  8
ADD_LINE
  6
DOT
 62
    3
 10
2958.859440238105
 20
1545.7259842883243
 11
2975.4601779386962
 21
1538.2556523230583
  0
LINE
  8
ADD_LINE
  6
DOT
 62
    3
 10
2958.859440238105
 20
1545.7259842883243
 11
2952.6833422651321
 21
1532.0014870860439
  0
LINE
  8
ADD_LINE
  6
DOT
 62
    3
 10
2689.5147598643725
 20
1683.112986769321
 11
2677.0856101335867
 21
1655.4927640074968
  0
LINE
  8
_0-2_
  6
CONTINUOUS
 62
    7
 10
2683.4591650850225
 20
1669.6560957352203
 11
2377.9655061428771
 21
1807.1283412351149
  0
LINE
  8
_0-2_
  6
CONTINUOUS
 62
    7
 10
2678.899591473325
 20
1781.3665152611918
 11
2637.8631815282233
 21
1690.1744244276824
  0
LINE
  8
_0-2_
  6
CONTINUOUS
 62
    7
 10
2724.4955750301237
 20
1760.848310288641
 11
2683.4591650850225
 21
1669.6560957352203
  0
LINE
  8
ADD_LINE
  6
DOT
 62
    3
 10
2683.4591650850225
 20
1669.6560957352203
 11
2700.0599027856142
 21
1662.1858874898658
  0
LINE
  8
ADD_LINE
  6
DOT
 62
    3
 10
2683.4591650850225
 20
1669.6560957352203
 11
2677.2830671120491
 21
1655.9315985329399
  0
LINE
  8
ADD_LINE
  6
DOT
 62
    3
 10
2414.1144847112896
 20
1807.0432219361285
 11
2401.6853349805042
 21
1779.4228754543929
  0
LINE
  8
_0-2_
  6
CONTINUOUS
 62
    7
 10
2408.0588899319396
 20
1793.5863309020281
 11
2102.5651072698829
 21
1931.0584526820112
  0
LINE
  8
_0-2_
  6
CONTINUOUS
 62
    7
 10
2403.4991926003304
 20
1905.2966267080878
 11
2362.4627826552296
 21
1814.1045358745785
  0
LINE
  8
_0-2_
  6
CONTINUOUS
 62
    7
 10
2449.0952998770408
 20
1884.778421735537
 11
2408.0588899319396
 21
1793.5863309020281
  0
LINE
  8
ADD_LINE
  6
DOT
 62
    3
 10
2408.0588899319396
 20
1793.5863309020281
 11
2424.6595039126196
 21
1786.1159989367618
  0
LINE
  8
ADD_LINE
  6
DOT
 62
    3
 10
2408.0588899319396
 20
1793.5863309020281
 11
2401.8827919589667
 21
1779.8618336997474
  0
LINE
  8
ADD_LINE
  6
DOT
 62
    3
 10
2138.7142095582067
 20
1930.9733333830245
 11
2126.2850598274213
 21
1903.3529869012889
  0
LINE
  8
_0-2_
  6
CONTINUOUS
 62
    7
 10
2132.6586147788571
 20
1917.5164423489241
 11
1827.1648321168004
 21
2054.988564128907
  0
LINE
  8
_0-2_
  6
CONTINUOUS
 62
    7
 10
2128.0989174472479
 20
2029.2267381549841
 11
2087.0625075021462
 21
1938.0346473214745
  0
LINE
  8
_0-2_
  6
CONTINUOUS
 62
    7
 10
2173.6950247239583
 20
2008.7085331824333
 11
2132.6586147788571
 21
1917.5164423489241
  0
LINE
  8
ADD_LINE
  6
DOT
 62
    3
 10
2132.6586147788571
 20
1917.5164423489241
 11
2149.2592287595371
 21
1910.0461103836578
  0
LINE
  8
ADD_LINE
  6
DOT
 62
    3
 10
2132.6586147788571
 20
1917.5164423489241
 11
2126.4825168058837
 21
1903.7919451466437
  0
LINE
  8
ADD_LINE
  6
DOT
 62
    3
 10
1863.3139344051233
 20
2054.9034448299208
 11
1850.8847846743379
 21
2027.2830983481849
  0
LINE
  8
_0-2_
  6
CONTINUOUS
 62
    7
 10
1857.2582159058629
 20
2041.4465537958201
 11
1551.7645569637175
 21
2178.9186755758033
  0
LINE
  8
_0-2_
  6
CONTINUOUS
 62
    7
 10
1852.698642294165
 20
2153.1568496018799
 11
1811.662232349064
 21
2061.9647587683708
  0
LINE
  8
_0-2_
  6
CONTINUOUS
 62
    7
 10
1898.2947495708754
 20
2132.6387683492408
 11
1857.2582159058629
 21
2041.4465537958201
  0
LINE
  8
ADD_LINE
  6
DOT
 62
    3
 10
1857.2582159058629
 20
2041.4465537958201
 11
1873.8589536064535
 21
2033.9762218305541
  0
LINE
  8
ADD_LINE
  6
DOT
 62
    3
 10
1857.2582159058629
 20
2041.4465537958201
 11
1851.0822416528008
 21
2027.7220565935397
  0
LINE
  8
ADD_LINE
  6
DOT
 62
    3
 10
1587.9135355321296
 20
2178.833556276817
 11
1575.4845095212556
 21
2151.2132097950812
  0
LINE
  8
_0-2_
  6
CONTINUOUS
 62
    7
 10
1581.85794075278
 20
2165.3766652427162
 11
1276.3642818106348
 21
2302.8487870226995
  0
LINE
  8
_0-2_
  6
CONTINUOUS
 62
    7
 10
1577.2983671410821
 20
2277.0869610487762
 11
1536.2619571959806
 21
2185.894870215267
  0
LINE
  8
_0-2_
  6
CONTINUOUS
 62
    7
 10
1622.8944744177925
 20
2256.568879796137
 11
1581.85794075278
 21
2165.3766652427162
  0
LINE
  8
ADD_LINE
  6
DOT
 62
    3
 10
1581.85794075278
 20
2165.3766652427162
 11
1598.4586784533712
 21
2157.9063332774504
  0
LINE
  8
ADD_LINE
  6
DOT
 62
    3
 10
1581.85794075278
 20
2165.3766652427162
 11
1575.6819664997181
 21
2151.6521680404358
  0
LINE
  8
ADD_LINE
  6
DOT
 62
    3
 10
1312.5133222390025
 20
2302.7636677237128
 11
1300.0841725082171
 21
2275.1434449618887
  0
LINE
  8
_0-2_
  6
CONTINUOUS
 62
    7
 10
1301.8980919879994
 20
2401.0171962155837
 11
1260.8616201829427
 21
2309.8249816621633
  0
LINE
  8
_0-2_
  6
CONTINUOUS
 62
    7
 10
1347.4941992647098
 20
2380.4989912430328
 11
1306.4577274596525
 21
2289.3067766896124
  0
LINE
  8
ADD_LINE
  6
DOT
 62
    3
 10
1306.4577274596525
 20
2289.3067766896124
 11
1323.0584033002883
 21
2281.8364447243462
  0
LINE
  8
ADD_LINE
  6
DOT
 62
    3
 10
1306.4577274596525
 20
2289.3067766896124
 11
1300.2816913466354
 21
2275.582279487332
  0
LINE
  8
ADD_LINE
  6
DOT
 62
    3
 10
1031.0573904466146
 20
2413.2370118564199
 11
1047.6581281472063
 21
2405.7665561712424
  0
LINE
  8
_0-2_
  6
CONTINUOUS
 62
    7
 10
1295.3322762943765
 20
2386.4264121942579
 11
1065.528046558049
 21
2489.8384423885145
  0
LINE
  8
_0-2_
  6
CONTINUOUS
 62
    7
 10
1273.1725555384639
 20
2337.1826707721716
 11
1043.3683258021365
 21
2440.5947009664283
  0
LINE
  8
_0-2_
  6
CONTINUOUS
 62
    7
 10
1548.5728306915466
 20
2213.2525593252753
 11
1318.7686628151744
 21
2316.6644657996208
  0
LINE
  8
_0-2_
  6
CONTINUOUS
 62
    7
 10
1570.7325514474587
 20
2262.4963007473616
 11
1340.9283217111306
 21
2365.908207221707
  0
LINE
  8
_0-2_
  6
CONTINUOUS
 62
    7
 10
1846.1328266005421
 20
2138.5661893004653
 11
1616.3286587241691
 21
2241.9780957748108
  0
LINE
  8
_0-2_
  6
CONTINUOUS
 62
    7
 10
1823.9731058446296
 20
2089.3224478783795
 11
1594.1689379682571
 21
2192.7343543527245
  0
LINE
  8
_0-2_
  6
CONTINUOUS
 62
    7
 10
2121.5331017536246
 20
2014.6360778535695
 11
1891.7289338772521
 21
2118.0479843279145
  0
LINE
  8
_0-2_
  6
CONTINUOUS
 62
    7
 10
2099.3735047176233
 20
1965.3923364314833
 11
1869.56921312134
 21
2068.8042429058287
  0
LINE
  8
_0-2_
  6
CONTINUOUS
 62
    7
 10
2396.933376906708
 20
1890.705966406673
 11
2167.129209030335
 21
1994.1178728810187
  0
LINE
  8
_0-2_
  6
CONTINUOUS
 62
    7
 10
2374.7737798707067
 20
1841.4621012646758
 11
2144.9694882744229
 21
1944.8740077390212
  0
LINE
  8
_0-2_
  6
CONTINUOUS
 62
    7
 10
2672.3337757797017
 20
1766.7757312398658
 11
2442.5294841834175
 21
1870.1876377142112
  0
LINE
  8
_0-2_
  6
CONTINUOUS
 62
    7
 10
2650.1740550237896
 20
1717.5319898177795
 11
2420.3697634275059
 21
1820.9438962921251
  0
LINE
  8
_0-2_
  6
CONTINUOUS
 62
    7
 10
2925.5743301768725
 20
1593.6018783708835
 11
2695.7700385805883
 21
1697.0137848452291
  0
LINE
  8
_0-2_
  6
CONTINUOUS
 62
    7
 10
2947.7340509327842
 20
1642.8456197929697
 11
2717.9297593365004
 21
1746.2575262673149
  0
LINE
  8
_0-2_
  6
CONTINUOUS
 62
    7
 10
3223.1343260858675
 20
1518.9155083460732
 11
2993.3300344895833
 21
1622.3274148204189
  0
LINE
  8
_0-2_
  6
CONTINUOUS
 62
    7
 10
3200.974605329955
 20
1469.6717669239874
 11
2971.1703137336713
 21
1573.0836733983326
  0
LINE
  8
_0-2_
  6
CONTINUOUS
 62
    7
 10
3266.2680359676242
 20
1492.9257902955035
 11
3234.2597153911884
 21
1421.7958728414283
  0
LINE
  8
_0-2_
  6
CONTINUOUS
 62
    7
 10
3382.4469712505634
 20
1322.2140255216962
 11
3455.4006439173709
 21
1289.3848851936243
  0
LINE
  8
_0-2_
  6
CONTINUOUS
 62
    7
 10
3234.2597153911884
 20
1421.7958728414283
 11
3394.7578447461296
 21
1349.5717146317047
  0
LINE
  8
_0-2_
  6
CONTINUOUS
 62
    7
 10
3443.1256491960867
 20
1419.9194129464745
 11
3268.7303096426667
 21
1498.3973033735228
  0
LINE
  8
_0-2_
  6
CONTINUOUS
 62
    7
 10
3480.0226383483255
 20
1344.1002015536853
 11
3455.4006439173709
 21
1289.3848851936243
  0
LINE
  8
_0-2_
  6
CONTINUOUS
 62
    7
 10
3246.5705888867546
 20
1449.1535619514368
 11
3480.0226383483255
 21
1344.1002015536853
  0
ARC
  8
_0-2_
  6
CONTINUOUS
 62
    7
 10
3220.3528550396259
 20
1451.8132926049418
 40
28.333326932546257
 50
3.8447570800781441
 51
127.6997985839844
  0
ARC
  8
_0-2_
  6
CONTINUOUS
 62
    7
 10
3247.0266204798709
 20
1511.0882444366562
 40
28.333326932546257
 50
3.8447570800781441
 51
127.6997985839844
  0
CIRCLE
  8
ADD_LINE
  6
DOT
 62
    3
 10
2958.859440238105
 20
1545.7259842883243
 40
2.9999997970220211
  0
ARC
  8
_0-2_
  6
CONTINUOUS
 62
    7
 10
2944.9525798865425
 20
1575.7434040518378
 40
28.333326932546257
 50
3.8447570800781441
 51
127.6997985839844
  0
ARC
  8
_0-2_
  6
CONTINUOUS
 62
    7
 10
2971.6263453267879
 20
1635.0183558835524
 40
28.333326932546257
 50
3.8447570800781441
 51
127.6997985839844
  0
CIRCLE
  8
ADD_LINE
  6
DOT
 62
    3
 10
2958.859440238105
 20
1545.7259842883243
 40
2.9999997970220211
  0
CIRCLE
  8
ADD_LINE
  6
DOT
 62
    3
 10
2683.4591650850225
 20
1669.6560957352203
 40
2.9999997970220211
  0
ARC
  8
_0-2_
  6
CONTINUOUS
 62
    7
 10
2669.55230473346
 20
1699.6735154987341
 40
28.333326932546257
 50
3.8447570800781441
 51
127.6997985839844
  0
ARC
  8
_0-2_
  6
CONTINUOUS
 62
    7
 10
2696.226070173705
 20
1758.9484673304487
 40
28.333326932546257
 50
3.8447570800781441
 51
127.6997985839844
  0
CIRCLE
  8
ADD_LINE
  6
DOT
 62
    3
 10
2683.4591650850225
 20
1669.6560957352203
 40
2.9999997970220211
  0
CIRCLE
  8
ADD_LINE
  6
DOT
 62
    3
 10
2408.0588899319396
 20
1793.5863309020281
 40
2.9999997970220211
  0
ARC
  8
_0-2_
  6
CONTINUOUS
 62
    7
 10
2394.1520295803771
 20
1823.6036269456301
 40
28.333326932546257
 50
3.8447570800781441
 51
127.6997985839844
  0
ARC
  8
_0-2_
  6
CONTINUOUS
 62
    7
 10
2420.8257950206225
 20
1882.8785787773447
 40
28.333326932546257
 50
3.8447570800781441
 51
127.6997985839844
  0
CIRCLE
  8
ADD_LINE
  6
DOT
 62
    3
 10
2408.0588899319396
 20
1793.5863309020281
 40
2.9999997970220211
  0
CIRCLE
  8
ADD_LINE
  6
DOT
 62
    3
 10
2132.6586147788571
 20
1917.5164423489241
 40
2.9999997970220211
  0
ARC
  8
_0-2_
  6
CONTINUOUS
 62
    7
 10
2118.7517544272941
 20
1947.5338621124376
 40
28.333326932546257
 50
3.8447570800781441
 51
127.6997985839844
  0
ARC
  8
_0-2_
  6
CONTINUOUS
 62
    7
 10
2145.4255198675396
 20
2006.8086902242408
 40
28.333326932546257
 50
3.8447570800781441
 51
127.6997985839844
  0
CIRCLE
  8
ADD_LINE
  6
DOT
 62
    3
 10
2132.6586147788571
 20
1917.5164423489241
 40
2.9999997970220211
  0
CIRCLE
  8
ADD_LINE
  6
DOT
 62
    3
 10
1857.2582159058629
 20
2041.4465537958201
 40
2.9999997970220211
  0
ARC
  8
_0-2_
  6
CONTINUOUS
 62
    7
 10
1843.3514792742119
 20
2071.4639735593337
 40
28.333326932546257
 50
3.8447570800781441
 51
127.6997985839844
  0
ARC
  8
_0-2_
  6
CONTINUOUS
 62
    7
 10
1870.0252447144567
 20
2130.738801671137
 40
28.333326932546257
 50
3.8447570800781441
 51
127.6997985839844
  0
CIRCLE
  8
ADD_LINE
  6
DOT
 62
    3
 10
1857.2582159058629
 20
2041.4465537958201
 40
2.9999997970220211
  0
CIRCLE
  8
ADD_LINE
  6
DOT
 62
    3
 10
1581.85794075278
 20
2165.3766652427162
 40
2.9999997970220211
  0
ARC
  8
_0-2_
  6
CONTINUOUS
 62
    7
 10
1567.9512041211285
 20
2195.3940850062299
 40
28.333326932546257
 50
3.8447570800781441
 51
127.6997985839844
  0
ARC
  8
_0-2_
  6
CONTINUOUS
 62
    7
 10
1594.6249695613737
 20
2254.6689131180328
 40
28.333326932546257
 50
3.8447570800781441
 51
127.6997985839844
  0
CIRCLE
  8
ADD_LINE
  6
DOT
 62
    3
 10
1581.85794075278
 20
2165.3766652427162
 40
2.9999997970220211
  0
CIRCLE
  8
ADD_LINE
  6
DOT
 62
    3
 10
1306.4577274596525
 20
2289.3067766896124
 40
2.9999997970220211
  0
ARC
  8
_0-2_
  6
CONTINUOUS
 62
    7
 10
1292.5509289680463
 20
2319.3241964531258
 40
28.333326932546257
 50
3.8447570800781441
 51
127.6997985839844
  0
ARC
  8
_0-2_
  6
CONTINUOUS
 62
    7
 10
1319.2246325483352
 20
2378.5991482848403
 40
28.333326932546257
 50
3.8447570800781441
 51
127.6997985839844
  0
CIRCLE
  8
ADD_LINE
  6
DOT
 62
    3
 10
1306.4577274596525
 20
2289.3067766896124
 40
2.9999997970220211
  0
CIRCLE
  8
ADD_LINE
  6
DOT
 62
    3
 10
1031.0573904466146
 20
2413.2370118564199
 40
2.9999997970220211
  0
ARC
  8
_0-2_
  6
CONTINUOUS
 62
    7
 10
3412.5240240113321
 20
1358.1399370900031
 40
68.943144824053789
 50
348.24993896484375
 51
63.649078369140611
  0
ARC
  8
_0-3_
  6
CONTINUOUS
 62
    7
 10
866.67016350437052
 20
2534.3291993304283
 40
20.861176324255091
 50
16.520328705690979
 51
163.47967129430901
  0
LINE
  8
_0-3_
  6
CONTINUOUS
 62
    7
 10
846.67015938037366
 20
2540.2611899467192
 11
846.67015938037366
 21
2456.4698286944854
  0
LINE
  8
_0-3_
  6
CONTINUOUS
 62
    7
 10
886.67016762836738
 20
2456.4698286944854
 11
846.67015938037366
 21
2456.4698286944854
  0
LINE
  8
_0-3_
  6
CONTINUOUS
 62
    7
 10
886.67016762836738
 20
2456.469890554441
 11
886.67016762836738
 21
2540.2611899467192
  0
ARC
  8
_0-3_
  6
CONTINUOUS
 62
    7
 10
866.67016350437052
 20
2484.591300022219
 40
21.149744999832066
 50
18.979383721514676
 51
161.02061627848531
  0
LINE
  8
_0-3_
  6
CONTINUOUS
 62
    7
 10
961.5580290217838
 20
2535.261235310687
 11
1020.4370344749412
 21
2514.0286759905275
  0
LINE
  8
_0-3_
  6
CONTINUOUS
 62
    7
 10
961.5580290217838
 20
2535.261235310687
 11
886.67016762836738
 21
2535.261235310687
  0
LINE
  8
_0-3_
  6
CONTINUOUS
 62
    7
 10
921.27423529394434
 20
2462.639394443232
 11
886.67016762836738
 21
2462.639394443232
  0
LINE
  8
_0-3_
  6
CONTINUOUS
 62
    7
 10
985.46134502986035
 20
2433.7552168289703
 11
921.27423529394434
 21
2462.639394443232
  0
LINE
  8
_0-3_
  6
CONTINUOUS
 62
    7
 10
963.74412824318881
 20
2534.4728986015152
 11
921.27423529394434
 21
2462.639394443232
  0
LINE
  8
_0-2_
  6
CONTINUOUS
 62
    7
 10
1795.7322038839238
 20
1337.7994715235227
 11
1754.6957320788674
 21
1246.6075044099248
  0
ARC
  8
_0-2_
  6
CONTINUOUS
 62
    7
 10
1786.3850408639705
 20
1256.1067192008877
 40
28.333326932546257
 50
3.8447570800781441
 51
127.6997985839844
  0
ARC
  8
_0-2_
  6
CONTINUOUS
 62
    7
 10
1813.0587444442604
 20
1315.3814235927794
 40
28.333326932546257
 50
3.8447570800781441
 51
127.6997985839844
  0
LINE
  8
_0-2_
  6
CONTINUOUS
 62
    7
 10
1841.3282493006791
 20
1317.2812665509721
 11
1800.2917774956218
 21
1226.0892994373742
  0
LINE
  8
_0-2_
  6
CONTINUOUS
 62
    7
 10
1800.2917774956218
 20
1226.0892994373742
 11
1754.6957320788674
 21
1246.6075044099248
  0
LINE
  8
_0-2_
  6
CONTINUOUS
 62
    7
 10
2075.6921145086599
 20
1102.1590642705669
 11
1770.1983937065593
 21
1239.6311860505498
  0
LINE
  8
ADD_LINE
  6
DOT
 62
    3
 10
2632.5483214541305
 20
867.75573241087523
 11
2620.1191717233451
 21
840.13538592913937
  0
LINE
  8
_0-2_
  6
CONTINUOUS
 62
    7
 10
2626.4926029548701
 20
854.29884137677482
 11
2320.9989440127247
 21
991.77096315675749
  0
LINE
  8
_0-2_
  6
CONTINUOUS
 62
    7
 10
2621.9330293431722
 20
966.00913718283459
 11
2580.8966193980714
 21
874.81704634932521
  0
LINE
  8
_0-2_
  6
CONTINUOUS
 62
    7
 10
2667.5291366198826
 20
945.49105593019499
 11
2626.4926029548701
 21
854.29884137677482
  0
LINE
  8
ADD_LINE
  6
DOT
 62
    3
 10
2626.4926029548701
 20
854.29884137677482
 11
2643.0933406554605
 21
846.82850941150855
  0
LINE
  8
ADD_LINE
  6
DOT
 62
    3
 10
2626.4926029548701
 20
854.29884137677482
 11
2620.316628701808
 21
840.57434417449394
  0
LINE
  8
ADD_LINE
  6
DOT
 62
    3
 10
2357.1479225811368
 20
991.68584385777103
 11
2344.7188965702626
 21
964.06549737603564
  0
LINE
  8
_0-2_
  6
CONTINUOUS
 62
    7
 10
2351.0923278017872
 20
978.22895282367062
 11
2045.598668859642
 21
1115.701074603654
  0
LINE
  8
_0-2_
  6
CONTINUOUS
 62
    7
 10
2346.5327541900892
 20
1089.9392486297304
 11
2305.496344244988
 21
998.7471577962217
  0
LINE
  8
_0-2_
  6
CONTINUOUS
 62
    7
 10
2392.1288614667997
 20
1069.4211673770915
 11
2351.0923278017872
 21
978.22895282367062
  0
LINE
  8
ADD_LINE
  6
DOT
 62
    3
 10
2351.0923278017872
 20
978.22895282367062
 11
2367.6930655023784
 21
970.75862085840436
  0
LINE
  8
ADD_LINE
  6
DOT
 62
    3
 10
2351.0923278017872
 20
978.22895282367062
 11
2344.9163535487251
 21
964.50445562139043
  0
LINE
  8
ADD_LINE
  6
DOT
 62
    3
 10
2081.7477092880099
 20
1115.6159553046675
 11
2069.318559557224
 21
1087.9957325428429
  0
LINE
  8
_0-2_
  6
CONTINUOUS
 62
    7
 10
2071.1324790370063
 20
1213.8694837965384
 11
2030.0960072319499
 21
1122.6772692431175
  0
LINE
  8
_0-2_
  6
CONTINUOUS
 62
    7
 10
2116.7285863137167
 20
1193.3512788239873
 11
2075.6921145086599
 21
1102.1590642705669
  0
LINE
  8
ADD_LINE
  6
DOT
 62
    3
 10
2075.6921145086599
 20
1102.1590642705669
 11
2092.2927903492955
 21
1094.6887323053008
  0
LINE
  8
ADD_LINE
  6
DOT
 62
    3
 10
2075.6921145086599
 20
1102.1590642705669
 11
2069.5160783956426
 21
1088.4345670682862
  0
LINE
  8
ADD_LINE
  6
DOT
 62
    3
 10
1800.2917774956218
 20
1226.0892994373742
 11
1816.8925151962135
 21
1218.6188437521971
  0
LINE
  8
_0-2_
  6
CONTINUOUS
 62
    7
 10
2064.5666633433839
 20
1199.2786997752123
 11
1834.7624336070562
 21
1302.690729969469
  0
LINE
  8
_0-2_
  6
CONTINUOUS
 62
    7
 10
2042.4069425874711
 20
1150.0349583531258
 11
1812.6027128511437
 21
1253.4469885473825
  0
LINE
  8
_0-2_
  6
CONTINUOUS
 62
    7
 10
2317.8072177405538
 20
1026.10484690623
 11
2088.0030498641818
 21
1129.5167533805752
  0
LINE
  8
_0-2_
  6
CONTINUOUS
 62
    7
 10
2339.9669384964659
 20
1075.3485883283158
 11
2110.1627087601378
 21
1178.7604948026612
  0
LINE
  8
_0-2_
  6
CONTINUOUS
 62
    7
 10
2615.3672136495493
 20
951.41847688142002
 11
2385.5630457731763
 21
1054.8303833557654
  0
LINE
  8
_0-2_
  6
CONTINUOUS
 62
    7
 10
2593.2074928936368
 20
902.17473545933353
 11
2363.4033250172643
 21
1005.5866419336789
  0
CIRCLE
  8
ADD_LINE
  6
DOT
 62
    3
 10
2626.4926029548701
 20
854.29884137677482
 40
2.9999997970220211
  0
ARC
  8
_0-2_
  6
CONTINUOUS
 62
    7
 10
2612.5858663232193
 20
884.31626114028836
 40
28.333326932546257
 50
3.8447570800781441
 51
127.6997985839844
  0
ARC
  8
_0-2_
  6
CONTINUOUS
 62
    7
 10
2639.2596317634639
 20
943.59108925209148
 40
28.333326932546257
 50
3.8447570800781441
 51
127.6997985839844
  0
CIRCLE
  8
ADD_LINE
  6
DOT
 62
    3
 10
2626.4926029548701
 20
854.29884137677482
 40
2.9999997970220211
  0
CIRCLE
  8
ADD_LINE
  6
DOT
 62
    3
 10
2351.0923278017872
 20
978.22895282367062
 40
2.9999997970220211
  0
ARC
  8
_0-2_
  6
CONTINUOUS
 62
    7
 10
2337.1855911701359
 20
1008.2463725871842
 40
28.333326932546257
 50
3.8447570800781441
 51
127.6997985839844
  0
ARC
  8
_0-2_
  6
CONTINUOUS
 62
    7
 10
2363.8593566103809
 20
1067.5212006989873
 40
28.333326932546257
 50
3.8447570800781441
 51
127.6997985839844
  0
CIRCLE
  8
ADD_LINE
  6
DOT
 62
    3
 10
2351.0923278017872
 20
978.22895282367062
 40
2.9999997970220211
  0
CIRCLE
  8
ADD_LINE
  6
DOT
 62
    3
 10
2075.6921145086599
 20
1102.1590642705669
 40
2.9999997970220211
  0
ARC
  8
_0-2_
  6
CONTINUOUS
 62
    7
 10
2061.7853160170534
 20
1132.1764840340804
 40
28.333326932546257
 50
3.8447570800781441
 51
127.6997985839844
  0
ARC
  8
_0-2_
  6
CONTINUOUS
 62
    7
 10
2088.4590195973424
 20
1191.451435865795
 40
28.333326932546257
 50
3.8447570800781441
 51
127.6997985839844
  0
CIRCLE
  8
ADD_LINE
  6
DOT
 62
    3
 10
2075.6921145086599
 20
1102.1590642705669
 40
2.9999997970220211
  0
CIRCLE
  8
ADD_LINE
  6
DOT
 62
    3
 10
1800.2917774956218
 20
1226.0892994373742
 40
2.9999997970220211
  0
LINE
  8
_0-3_
  6
CONTINUOUS
 62
    7
 10
2220.7434194686311
 20
1436.8610890930113
 11
2218.2040682888373
 21
1436.4378432763942
  0
LINE
  8
_0-2_
  6
CONTINUOUS
 62
    7
 10
1713.6592602738115
 20
1337.7994715235227
 11
1754.6957320788674
 21
1246.6075044099248
  0
ARC
  8
_0-2_
  6
CONTINUOUS
 62
    7
 10
1723.0064232937643
 20
1256.1067192008877
 40
28.33332693254626
 50
52.300201416015604
 51
176.15524291992185
  0
ARC
  8
_0-2_
  6
CONTINUOUS
 62
    7
 10
1696.3327197134749
 20
1315.3814235927794
 40
28.33332693254626
 50
52.300201416015604
 51
176.15524291992185
  0
LINE
  8
_0-2_
  6
CONTINUOUS
 62
    7
 10
1668.0632148570562
 20
1317.2812665509721
 11
1709.0996866621135
 21
1226.0892994373742
  0
LINE
  8
_0-2_
  6
CONTINUOUS
 62
    7
 10
1709.0996866621135
 20
1226.0892994373742
 11
1754.6957320788674
 21
1246.6075044099248
  0
LINE
  8
_0-2_
  6
CONTINUOUS
 62
    7
 10
1433.6993496490754
 20
1102.1590642705669
 11
1739.193070451176
 21
1239.6311860505498
  0
LINE
  8
ADD_LINE
  6
DOT
 62
    3
 10
876.8431427036046
 20
867.75573241087523
 11
889.27229243439001
 21
840.13538592913937
  0
LINE
  8
_0-2_
  6
CONTINUOUS
 62
    7
 10
882.89886120286496
 20
854.29884137677482
 11
1188.3925201450102
 21
991.77096315675749
  0
LINE
  8
_0-2_
  6
CONTINUOUS
 62
    7
 10
887.45843481456291
 20
966.00913718283459
 11
928.49484475966392
 21
874.81704634932521
  0
LINE
  8
_0-2_
  6
CONTINUOUS
 62
    7
 10
841.86232753785248
 20
945.49105593019499
 11
882.89886120286496
 21
854.29884137677482
  0
LINE
  8
ADD_LINE
  6
DOT
 62
    3
 10
882.89886120286496
 20
854.29884137677482
 11
866.29812350227439
 21
846.82850941150855
  0
LINE
  8
ADD_LINE
  6
DOT
 62
    3
 10
882.89886120286496
 20
854.29884137677482
 11
889.07483545592697
 21
840.57434417449394
  0
LINE
  8
ADD_LINE
  6
DOT
 62
    3
 10
1152.2435415765983
 20
991.68584385777103
 11
1164.6725675874723
 21
964.06549737603564
  0
LINE
  8
_0-2_
  6
CONTINUOUS
 62
    7
 10
1158.2991363559477
 20
978.22895282367062
 11
1463.7927952980931
 21
1115.701074603654
  0
LINE
  8
_0-2_
  6
CONTINUOUS
 62
    7
 10
1162.8587099676456
 20
1089.9392486297304
 11
1203.8951199127473
 21
998.7471577962217
  0
LINE
  8
_0-2_
  6
CONTINUOUS
 62
    7
 10
1117.2626026909352
 20
1069.4211673770915
 11
1158.2991363559477
 21
978.22895282367062
  0
LINE
  8
ADD_LINE
  6
DOT
 62
    3
 10
1158.2991363559477
 20
978.22895282367062
 11
1141.6983986553566
 21
970.75862085840436
  0
LINE
  8
ADD_LINE
  6
DOT
 62
    3
 10
1158.2991363559477
 20
978.22895282367062
 11
1164.4751106090098
 21
964.50445562139043
  0
LINE
  8
ADD_LINE
  6
DOT
 62
    3
 10
1427.6437548697254
 20
1115.6159553046675
 11
1440.0729046005108
 21
1087.9957325428429
  0
LINE
  8
_0-2_
  6
CONTINUOUS
 62
    7
 10
1438.2589851207285
 20
1213.8694837965384
 11
1479.2954569257854
 21
1122.6772692431175
  0
LINE
  8
_0-2_
  6
CONTINUOUS
 62
    7
 10
1392.6628778440181
 20
1193.3512788239873
 11
1433.6993496490754
 21
1102.1590642705669
  0
LINE
  8
ADD_LINE
  6
DOT
 62
    3
 10
1433.6993496490754
 20
1102.1590642705669
 11
1417.0986738084393
 21
1094.6887323053008
  0
LINE
  8
ADD_LINE
  6
DOT
 62
    3
 10
1433.6993496490754
 20
1102.1590642705669
 11
1439.8753857620927
 21
1088.4345670682862
  0
LINE
  8
ADD_LINE
  6
DOT
 62
    3
 10
1709.0996866621135
 20
1226.0892994373742
 11
1692.4989489615218
 21
1218.6188437521971
  0
LINE
  8
_0-2_
  6
CONTINUOUS
 62
    7
 10
1444.8248008143514
 20
1199.2786997752123
 11
1674.6290305506791
 21
1302.690729969469
  0
LINE
  8
_0-2_
  6
CONTINUOUS
 62
    7
 10
1466.984521570264
 20
1150.0349583531258
 11
1696.7887513065916
 21
1253.4469885473825
  0
LINE
  8
_0-2_
  6
CONTINUOUS
 62
    7
 10
1191.584246417181
 20
1026.10484690623
 11
1421.3884142935535
 21
1129.5167533805752
  0
LINE
  8
_0-2_
  6
CONTINUOUS
 62
    7
 10
1169.4245256612692
 20
1075.3485883283158
 11
1399.2287553975973
 21
1178.7604948026612
  0
LINE
  8
_0-2_
  6
CONTINUOUS
 62
    7
 10
894.02425050818579
 20
951.41847688142002
 11
1123.8284183845587
 21
1054.8303833557654
  0
LINE
  8
_0-2_
  6
CONTINUOUS
 62
    7
 10
916.18397126409832
 20
902.17473545933353
 11
1145.9881391404706
 21
1005.5866419336789
  0
CIRCLE
  8
ADD_LINE
  6
DOT
 62
    3
 10
882.89886120286496
 20
854.29884137677482
 40
2.9999997970220211
  0
ARC
  8
_0-2_
  6
CONTINUOUS
 62
    7
 10
896.80559783451599
 20
884.31626114028836
 40
28.33332693254626
 50
52.300201416015604
 51
176.15524291992185
  0
ARC
  8
_0-2_
  6
CONTINUOUS
 62
    7
 10
870.13183239427121
 20
943.59108925209148
 40
28.33332693254626
 50
52.300201416015604
 51
176.15524291992185
  0
CIRCLE
  8
ADD_LINE
  6
DOT
 62
    3
 10
882.89886120286496
 20
854.29884137677482
 40
2.9999997970220211
  0
CIRCLE
  8
ADD_LINE
  6
DOT
 62
    3
 10
1158.2991363559477
 20
978.22895282367062
 40
2.9999997970220211
  0
ARC
  8
_0-2_
  6
CONTINUOUS
 62
    7
 10
1172.2058729875994
 20
1008.2463725871842
 40
28.33332693254626
 50
52.300201416015604
 51
176.15524291992185
  0
ARC
  8
_0-2_
  6
CONTINUOUS
 62
    7
 10
1145.5321075473539
 20
1067.5212006989873
 40
28.33332693254626
 50
52.300201416015604
 51
176.15524291992185
  0
CIRCLE
  8
ADD_LINE
  6
DOT
 62
    3
 10
1158.2991363559477
 20
978.22895282367062
 40
2.9999997970220211
  0
CIRCLE
  8
ADD_LINE
  6
DOT
 62
    3
 10
1433.6993496490754
 20
1102.1590642705669
 40
2.9999997970220211
  0
ARC
  8
_0-2_
  6
CONTINUOUS
 62
    7
 10
1447.6061481406816
 20
1132.1764840340804
 40
28.33332693254626
 50
52.300201416015604
 51
176.15524291992185
  0
ARC
  8
_0-2_
  6
CONTINUOUS
 62
    7
 10
1420.9324445603925
 20
1191.451435865795
 40
28.33332693254626
 50
52.300201416015604
 51
176.15524291992185
  0
CIRCLE
  8
ADD_LINE
  6
DOT
 62
    3
 10
1433.6993496490754
 20
1102.1590642705669
 40
2.9999997970220211
  0
CIRCLE
  8
ADD_LINE
  6
DOT
 62
    3
 10
1709.0996866621135
 20
1226.0892994373742
 40
2.9999997970220211
  0
LINE
  8
_0-1_
  6
CONTINUOUS
 62
    7
 10
1754.6957320788674
 20
1246.6075044099248
 11
1754.6957320788674
 21
1339.4936664388385
  0
LINE
  8
_0-1_
  6
CONTINUOUS
 62
    7
 10
1716.7584358229726
 20
1330.912429282148
 11
1754.6957320788674
 21
1344.5931273015535
  0
LINE
  8
_0-1_
  6
CONTINUOUS
 62
    7
 10
1754.6957320788674
 20
1344.5931273015535
 11
1792.6330283347625
 21
1330.912429282148
  0
LINE
  8
_0-1_
  6
CONTINUOUS
 62
    7
 10
1754.6957320788674
 20
1339.4936664388385
 11
1754.6957320788674
 21
1344.5931273015535
  0
TEXT
  8
_0-2_
 62
    7
 10
3195.7052880709284
 20
774.52662788462362
 40
60
 41
1
 50
0
  1
三角隅棟
  0
LINE
  8
_1-0_
  6
CONTINUOUS
 62
    7
 10
3057.9226796461617
 20
742.14621324515008
 11
3557.9226796461617
 21
742.14621324515008
  0
LINE
  8
_1-0_
  6
CONTINUOUS
 62
    7
 10
3557.9226796461617
 20
742.14621324515008
 11
3557.9226796461617
 21
862.14621324515008
  0
LINE
  8
_1-0_
  6
CONTINUOUS
 62
    7
 10
3557.9226796461617
 20
862.14621324515008
 11
3057.9226796461617
 21
862.14621324515008
  0
LINE
  8
_1-0_
  6
CONTINUOUS
 62
    7
 10
3057.9226796461617
 20
862.14621324515008
 11
3057.9226796461617
 21
742.14621324515008
  0
LINE
  8
_0-1_
  6
CONTINUOUS
 62
    7
 10
4522.847269692219
 20
2473.8269550748751
 11
4522.847269692219
 21
2443.8269488888795
  0
LINE
  8
_0-1_
  6
CONTINUOUS
 62
    7
 10
4216.8472870130063
 20
2473.8269550748751
 11
4522.847269692219
 21
2473.8269550748751
  0
LINE
  8
_0-1_
  6
CONTINUOUS
 62
    7
 10
4216.8472870130063
 20
2443.8269488888795
 11
4522.847269692219
 21
2443.8269488888795
  0
LINE
  8
_0-1_
  6
CONTINUOUS
 62
    7
 10
4216.8472870130063
 20
2473.8269550748751
 11
4216.8472870130063
 21
2443.8269488888795
  0
LINE
  8
_0-1_
  6
CONTINUOUS
 62
    7
 10
4339.8472721666167
 20
2475.8269493012795
 11
4399.8472226786525
 21
2475.8269493012795
  0
LINE
  8
_0-1_
  6
CONTINUOUS
 62
    7
 10
4339.8472721666167
 20
2475.8269493012795
 11
4339.8472721666167
 21
2473.8269550748751
  0
LINE
  8
_0-1_
  6
CONTINUOUS
 62
    7
 10
4399.8472226786525
 20
2475.8269493012795
 11
4399.8472226786525
 21
2473.8269550748751
  0
LINE
  8
_0-1_
  6
CONTINUOUS
 62
    7
 10
4216.8472870130063
 20
2473.8269550748751
 11
4216.8472870130063
 21
2443.8269488888795
  0
LINE
  8
_0-1_
  6
CONTINUOUS
 62
    7
 10
3910.8473043337935
 20
2473.8269550748751
 11
4216.8472870130063
 21
2473.8269550748751
  0
LINE
  8
_0-1_
  6
CONTINUOUS
 62
    7
 10
3871.8473241289794
 20
2458.8269674468661
 11
3878.8473348513717
 21
2458.8269674468661
  0
LINE
  8
_0-1_
  6
CONTINUOUS
 62
    7
 10
3878.8473348513717
 20
2458.8269674468661
 11
3878.8473348513717
 21
2455.8269761072602
  0
LINE
  8
_0-1_
  6
CONTINUOUS
 62
    7
 10
3905.8472878378052
 20
2458.8269674468661
 11
3910.8473043337935
 21
2458.8269674468661
  0
LINE
  8
_0-1_
  6
CONTINUOUS
 62
    7
 10
3878.8473348513717
 20
2455.8269761072602
 11
3905.8472878378052
 21
2455.8269761072602
  0
LINE
  8
_0-1_
  6
CONTINUOUS
 62
    7
 10
3871.8473241289794
 20
2458.8269674468661
 11
3871.8473241289794
 21
2446.8269711584635
  0
LINE
  8
_0-1_
  6
CONTINUOUS
 62
    7
 10
3905.8472878378052
 20
2458.8269674468661
 11
3905.8472878378052
 21
2455.8269761072602
  0
LINE
  8
_0-1_
  6
CONTINUOUS
 62
    7
 10
3871.8473241289794
 20
2446.8269711584635
 11
3910.8473043337935
 21
2446.8269711584635
  0
LINE
  8
_0-1_
  6
CONTINUOUS
 62
    7
 10
3910.8473043337935
 20
2443.8269488888795
 11
4216.8472870130063
 21
2443.8269488888795
  0
LINE
  8
_0-1_
  6
CONTINUOUS
 62
    7
 10
3910.8473043337935
 20
2473.8269550748751
 11
3910.8473043337935
 21
2443.8269488888795
  0
LINE
  8
_0-1_
  6
CONTINUOUS
 62
    7
 10
4033.8472894874039
 20
2475.8269493012795
 11
4093.8472399994398
 21
2475.8269493012795
  0
LINE
  8
_0-1_
  6
CONTINUOUS
 62
    7
 10
4033.8472894874039
 20
2475.8269493012795
 11
4033.8472894874039
 21
2473.8269550748751
  0
LINE
  8
_0-1_
  6
CONTINUOUS
 62
    7
 10
4093.8472399994398
 20
2475.8269493012795
 11
4093.8472399994398
 21
2473.8269550748751
  0
LINE
  8
_0-1_
  6
CONTINUOUS
 62
    7
 10
4828.8472523714318
 20
2473.8269550748751
 11
4828.8472523714318
 21
2443.8269488888795
  0
LINE
  8
_0-1_
  6
CONTINUOUS
 62
    7
 10
4522.847269692219
 20
2473.8269550748751
 11
4828.8472523714318
 21
2473.8269550748751
  0
LINE
  8
_0-1_
  6
CONTINUOUS
 62
    7
 10
4522.847269692219
 20
2443.8269488888795
 11
4828.8472523714318
 21
2443.8269488888795
  0
LINE
  8
_0-1_
  6
CONTINUOUS
 62
    7
 10
4522.847269692219
 20
2473.8269550748751
 11
4522.847269692219
 21
2443.8269488888795
  0
LINE
  8
_0-1_
  6
CONTINUOUS
 62
    7
 10
4645.8472548458294
 20
2475.8269493012795
 11
4705.8472053578644
 21
2475.8269493012795
  0
LINE
  8
_0-1_
  6
CONTINUOUS
 62
    7
 10
4645.8472548458294
 20
2475.8269493012795
 11
4645.8472548458294
 21
2473.8269550748751
  0
LINE
  8
_0-1_
  6
CONTINUOUS
 62
    7
 10
4705.8472053578644
 20
2475.8269493012795
 11
4705.8472053578644
 21
2473.8269550748751
  0
LINE
  8
_0-1_
  6
CONTINUOUS
 62
    7
 10
5134.8472350506436
 20
2473.8269550748751
 11
5134.8472350506436
 21
2443.8269488888795
  0
LINE
  8
_0-1_
  6
CONTINUOUS
 62
    7
 10
4828.8472523714318
 20
2473.8269550748751
 11
5134.8472350506436
 21
2473.8269550748751
  0
LINE
  8
_0-1_
  6
CONTINUOUS
 62
    7
 10
4828.8472523714318
 20
2443.8269488888795
 11
5134.8472350506436
 21
2443.8269488888795
  0
LINE
  8
_0-1_
  6
CONTINUOUS
 62
    7
 10
4828.8472523714318
 20
2473.8269550748751
 11
4828.8472523714318
 21
2443.8269488888795
  0
LINE
  8
_0-1_
  6
CONTINUOUS
 62
    7
 10
4951.8472375250421
 20
2475.8269493012795
 11
5011.8471880370771
 21
2475.8269493012795
  0
LINE
  8
_0-1_
  6
CONTINUOUS
 62
    7
 10
4951.8472375250421
 20
2475.8269493012795
 11
4951.8472375250421
 21
2473.8269550748751
  0
LINE
  8
_0-1_
  6
CONTINUOUS
 62
    7
 10
5011.8471880370771
 20
2475.8269493012795
 11
5011.8471880370771
 21
2473.8269550748751
  0
LINE
  8
_0-1_
  6
CONTINUOUS
 62
    7
 10
5440.8472177298563
 20
2473.8269550748751
 11
5440.8472177298563
 21
2443.8269488888795
  0
LINE
  8
_0-1_
  6
CONTINUOUS
 62
    7
 10
5134.8472350506436
 20
2473.8269550748751
 11
5440.8472177298563
 21
2473.8269550748751
  0
LINE
  8
_0-1_
  6
CONTINUOUS
 62
    7
 10
5134.8472350506436
 20
2443.8269488888795
 11
5440.8472177298563
 21
2443.8269488888795
  0
LINE
  8
_0-1_
  6
CONTINUOUS
 62
    7
 10
5134.8472350506436
 20
2473.8269550748751
 11
5134.8472350506436
 21
2443.8269488888795
  0
LINE
  8
_0-1_
  6
CONTINUOUS
 62
    7
 10
5257.847220204254
 20
2475.8269493012795
 11
5317.8471707162898
 21
2475.8269493012795
  0
LINE
  8
_0-1_
  6
CONTINUOUS
 62
    7
 10
5257.847220204254
 20
2475.8269493012795
 11
5257.847220204254
 21
2473.8269550748751
  0
LINE
  8
_0-1_
  6
CONTINUOUS
 62
    7
 10
5317.8471707162898
 20
2475.8269493012795
 11
5317.8471707162898
 21
2473.8269550748751
  0
LINE
  8
_0-1_
  6
CONTINUOUS
 62
    7
 10
5746.847200409069
 20
2473.8269550748751
 11
5746.847200409069
 21
2443.8269488888795
  0
LINE
  8
_0-1_
  6
CONTINUOUS
 62
    7
 10
5440.8472177298563
 20
2473.8269550748751
 11
5746.847200409069
 21
2473.8269550748751
  0
LINE
  8
_0-1_
  6
CONTINUOUS
 62
    7
 10
5440.8472177298563
 20
2443.8269488888795
 11
5746.847200409069
 21
2443.8269488888795
  0
LINE
  8
_0-1_
  6
CONTINUOUS
 62
    7
 10
5440.8472177298563
 20
2473.8269550748751
 11
5440.8472177298563
 21
2443.8269488888795
  0
LINE
  8
_0-1_
  6
CONTINUOUS
 62
    7
 10
5563.8472028834667
 20
2475.8269493012795
 11
5623.8471533955017
 21
2475.8269493012795
  0
LINE
  8
_0-1_
  6
CONTINUOUS
 62
    7
 10
5563.8472028834667
 20
2475.8269493012795
 11
5563.8472028834667
 21
2473.8269550748751
  0
LINE
  8
_0-1_
  6
CONTINUOUS
 62
    7
 10
5623.8471533955017
 20
2475.8269493012795
 11
5623.8471533955017
 21
2473.8269550748751
  0
LINE
  8
_0-1_
  6
CONTINUOUS
 62
    7
 10
6052.8471830882809
 20
2473.8269550748751
 11
6052.8471830882809
 21
2443.8269488888795
  0
LINE
  8
_0-1_
  6
CONTINUOUS
 62
    7
 10
5746.847200409069
 20
2473.8269550748751
 11
6052.8471830882809
 21
2473.8269550748751
  0
LINE
  8
_0-1_
  6
CONTINUOUS
 62
    7
 10
5746.847200409069
 20
2443.8269488888795
 11
6052.8471830882809
 21
2443.8269488888795
  0
LINE
  8
_0-1_
  6
CONTINUOUS
 62
    7
 10
5746.847200409069
 20
2473.8269550748751
 11
5746.847200409069
 21
2443.8269488888795
  0
LINE
  8
_0-1_
  6
CONTINUOUS
 62
    7
 10
5869.8471855626794
 20
2475.8269493012795
 11
5929.8471360747144
 21
2475.8269493012795
  0
LINE
  8
_0-1_
  6
CONTINUOUS
 62
    7
 10
5869.8471855626794
 20
2475.8269493012795
 11
5869.8471855626794
 21
2473.8269550748751
  0
LINE
  8
_0-1_
  6
CONTINUOUS
 62
    7
 10
5929.8471360747144
 20
2475.8269493012795
 11
5929.8471360747144
 21
2473.8269550748751
  0
LINE
  8
_0-1_
  6
CONTINUOUS
 62
    7
 10
6358.8471657674936
 20
2473.8269550748751
 11
6358.8471657674936
 21
2443.8269488888795
  0
LINE
  8
_0-1_
  6
CONTINUOUS
 62
    7
 10
6052.8471830882809
 20
2473.8269550748751
 11
6358.8471657674936
 21
2473.8269550748751
  0
LINE
  8
_0-1_
  6
CONTINUOUS
 62
    7
 10
6052.8471830882809
 20
2443.8269488888795
 11
6358.8471657674936
 21
2443.8269488888795
  0
LINE
  8
_0-1_
  6
CONTINUOUS
 62
    7
 10
6052.8471830882809
 20
2473.8269550748751
 11
6052.8471830882809
 21
2443.8269488888795
  0
LINE
  8
_0-1_
  6
CONTINUOUS
 62
    7
 10
6175.8471682418913
 20
2475.8269493012795
 11
6235.8471187539271
 21
2475.8269493012795
  0
LINE
  8
_0-1_
  6
CONTINUOUS
 62
    7
 10
6175.8471682418913
 20
2475.8269493012795
 11
6175.8471682418913
 21
2473.8269550748751
  0
LINE
  8
_0-1_
  6
CONTINUOUS
 62
    7
 10
6235.8471187539271
 20
2475.8269493012795
 11
6235.8471187539271
 21
2473.8269550748751
  0
LINE
  8
_0-1_
  6
CONTINUOUS
 62
    7
 10
6664.8471484467063
 20
2473.8269550748751
 11
6664.8471484467063
 21
2443.8269488888795
  0
LINE
  8
_0-1_
  6
CONTINUOUS
 62
    7
 10
6358.8471657674936
 20
2473.8269550748751
 11
6664.8471484467063
 21
2473.8269550748751
  0
LINE
  8
_0-1_
  6
CONTINUOUS
 62
    7
 10
6358.8471657674936
 20
2443.8269488888795
 11
6664.8471484467063
 21
2443.8269488888795
  0
LINE
  8
_0-1_
  6
CONTINUOUS
 62
    7
 10
6358.8471657674936
 20
2473.8269550748751
 11
6358.8471657674936
 21
2443.8269488888795
  0
LINE
  8
_0-1_
  6
CONTINUOUS
 62
    7
 10
6481.847150921104
 20
2475.8269493012795
 11
6541.8471014331399
 21
2475.8269493012795
  0
LINE
  8
_0-1_
  6
CONTINUOUS
 62
    7
 10
6481.847150921104
 20
2475.8269493012795
 11
6481.847150921104
 21
2473.8269550748751
  0
LINE
  8
_0-1_
  6
CONTINUOUS
 62
    7
 10
6541.8471014331399
 20
2475.8269493012795
 11
6541.8471014331399
 21
2473.8269550748751
  0
LINE
  8
_0-1_
  6
CONTINUOUS
 62
    7
 10
6970.8471311259191
 20
2473.8269550748751
 11
6970.8471311259191
 21
2443.8269488888795
  0
LINE
  8
_0-1_
  6
CONTINUOUS
 62
    7
 10
6664.8471484467063
 20
2473.8269550748751
 11
6970.8471311259191
 21
2473.8269550748751
  0
LINE
  8
_0-1_
  6
CONTINUOUS
 62
    7
 10
6664.8471484467063
 20
2443.8269488888795
 11
6970.8471311259191
 21
2443.8269488888795
  0
LINE
  8
_0-1_
  6
CONTINUOUS
 62
    7
 10
6664.8471484467063
 20
2473.8269550748751
 11
6664.8471484467063
 21
2443.8269488888795
  0
LINE
  8
_0-1_
  6
CONTINUOUS
 62
    7
 10
6787.8471336003167
 20
2475.8269493012795
 11
6847.8470841123526
 21
2475.8269493012795
  0
LINE
  8
_0-1_
  6
CONTINUOUS
 62
    7
 10
6787.8471336003167
 20
2475.8269493012795
 11
6787.8471336003167
 21
2473.8269550748751
  0
LINE
  8
_0-1_
  6
CONTINUOUS
 62
    7
 10
6847.8470841123526
 20
2475.8269493012795
 11
6847.8470841123526
 21
2473.8269550748751
  0
LINE
  8
_0-1_
  6
CONTINUOUS
 62
    7
 10
7276.8471138051318
 20
2473.8269550748751
 11
7276.8471138051318
 21
2443.8269488888795
  0
LINE
  8
_0-1_
  6
CONTINUOUS
 62
    7
 10
6970.8471311259191
 20
2473.8269550748751
 11
7276.8471138051318
 21
2473.8269550748751
  0
LINE
  8
_0-1_
  6
CONTINUOUS
 62
    7
 10
6970.8471311259191
 20
2443.8269488888795
 11
7276.8471138051318
 21
2443.8269488888795
  0
LINE
  8
_0-1_
  6
CONTINUOUS
 62
    7
 10
6970.8471311259191
 20
2473.8269550748751
 11
6970.8471311259191
 21
2443.8269488888795
  0
LINE
  8
_0-1_
  6
CONTINUOUS
 62
    7
 10
7093.8471162795295
 20
2475.8269493012795
 11
7153.8470667915644
 21
2475.8269493012795
  0
LINE
  8
_0-1_
  6
CONTINUOUS
 62
    7
 10
7093.8471162795295
 20
2475.8269493012795
 11
7093.8471162795295
 21
2473.8269550748751
  0
LINE
  8
_0-1_
  6
CONTINUOUS
 62
    7
 10
7153.8470667915644
 20
2475.8269493012795
 11
7153.8470667915644
 21
2473.8269550748751
  0
LINE
  8
_0-1_
  6
CONTINUOUS
 62
    7
 10
7582.8470964843436
 20
2473.8269550748751
 11
7582.8470964843436
 21
2443.8269488888795
  0
LINE
  8
_0-1_
  6
CONTINUOUS
 62
    7
 10
7276.8471138051318
 20
2473.8269550748751
 11
7582.8470964843436
 21
2473.8269550748751
  0
LINE
  8
_0-1_
  6
CONTINUOUS
 62
    7
 10
7276.8471138051318
 20
2443.8269488888795
 11
7582.8470964843436
 21
2443.8269488888795
  0
LINE
  8
_0-1_
  6
CONTINUOUS
 62
    7
 10
7276.8471138051318
 20
2473.8269550748751
 11
7276.8471138051318
 21
2443.8269488888795
  0
LINE
  8
_0-1_
  6
CONTINUOUS
 62
    7
 10
7399.8470989587422
 20
2475.8269493012795
 11
7459.8470494707772
 21
2475.8269493012795
  0
LINE
  8
_0-1_
  6
CONTINUOUS
 62
    7
 10
7399.8470989587422
 20
2475.8269493012795
 11
7399.8470989587422
 21
2473.8269550748751
  0
LINE
  8
_0-1_
  6
CONTINUOUS
 62
    7
 10
7459.8470494707772
 20
2475.8269493012795
 11
7459.8470494707772
 21
2473.8269550748751
  0
LINE
  8
_0-1_
  6
CONTINUOUS
 62
    7
 10
7888.8470791635564
 20
2473.8269550748751
 11
7888.8470791635564
 21
2443.8269488888795
  0
LINE
  8
_0-1_
  6
CONTINUOUS
 62
    7
 10
7582.8470964843436
 20
2473.8269550748751
 11
7888.8470791635564
 21
2473.8269550748751
  0
LINE
  8
_0-1_
  6
CONTINUOUS
 62
    7
 10
7582.8470964843436
 20
2443.8269488888795
 11
7888.8470791635564
 21
2443.8269488888795
  0
LINE
  8
_0-1_
  6
CONTINUOUS
 62
    7
 10
7582.8470964843436
 20
2473.8269550748751
 11
7582.8470964843436
 21
2443.8269488888795
  0
LINE
  8
_0-1_
  6
CONTINUOUS
 62
    7
 10
7705.847081637954
 20
2475.8269493012795
 11
7765.8470321499899
 21
2475.8269493012795
  0
LINE
  8
_0-1_
  6
CONTINUOUS
 62
    7
 10
7705.847081637954
 20
2475.8269493012795
 11
7705.847081637954
 21
2473.8269550748751
  0
LINE
  8
_0-1_
  6
CONTINUOUS
 62
    7
 10
7765.8470321499899
 20
2475.8269493012795
 11
7765.8470321499899
 21
2473.8269550748751
  0
LINE
  8
_0-1_
  6
CONTINUOUS
 62
    7
 10
3854.3524223753802
 20
2479.9123500703267
 11
3854.3524223753802
 21
2363.912313779153
  0
LINE
  8
_0-1_
  6
CONTINUOUS
 62
    7
 10
3952.3524487689615
 20
2479.9123500703267
 11
3854.3524223753802
 21
2479.9123500703267
  0
LINE
  8
_0-1_
  6
CONTINUOUS
 62
    7
 10
3952.3524487689615
 20
2495.9123038815601
 11
3952.3524487689615
 21
2479.9123500703267
  0
LINE
  8
_0-1_
  6
CONTINUOUS
 62
    7
 10
3854.3524223753802
 20
2363.912313779153
 11
3839.3523728874156
 21
2363.912313779153
  0
LINE
  8
_0-1_
  6
CONTINUOUS
 62
    7
 10
3839.3523728874156
 20
2490.9122873855717
 11
3839.3523728874156
 21
2363.912313779153
  0
LINE
  8
_0-1_
  6
CONTINUOUS
 62
    7
 10
3875.3523926826019
 20
2493.2984733151538
 11
3865.3524834105365
 21
2493.2984733151538
  0
LINE
  8
_0-1_
  6
CONTINUOUS
 62
    7
 10
3875.3523926826019
 20
2495.9123038815601
 11
3875.3523926826019
 21
2493.2984733151538
  0
LINE
  8
_0-1_
  6
CONTINUOUS
 62
    7
 10
3865.3524834105365
 20
2495.9123038815601
 11
3865.3524834105365
 21
2493.2984733151538
  0
LINE
  8
_0-1_
  6
CONTINUOUS
 62
    7
 10
3844.3523893834035
 20
2495.9123038815601
 11
3865.3524834105365
 21
2495.9123038815601
  0
LINE
  8
_0-1_
  6
CONTINUOUS
 62
    7
 10
3875.3523926826019
 20
2495.9123038815601
 11
3952.3524487689615
 21
2495.9123038815601
  0
LINE
  8
ADD_LINE
  6
DOT
 62
    3
 10
3952.3524487689615
 20
2495.9123038815601
 11
3952.3524487689615
 21
2507.3035982062802
  0
LINE
  8
ADD_LINE
  6
DOT
 62
    3
 10
3952.3524487689615
 20
2495.9123038815601
 11
3961.8614374329181
 21
2495.9123038815601
  0
ARC
  8
_0-1_
  6
CONTINUOUS
 62
    7
 10
3844.3523893834035
 20
2490.9122873855717
 40
4.9999995811565503
 50
90
 51
180
  0
CIRCLE
  8
ADD_LINE
  6
DOT
 62
    3
 10
3952.3524487689615
 20
2495.9123038815601
 40
2.9999997970220211
  0
LINE
  8
_0-1_
  6
CONTINUOUS
 62
    7
 10
7960.0069177950518
 20
2479.7117864641609
 11
7960.0069177950518
 21
2363.7117501729872
  0
LINE
  8
_0-1_
  6
CONTINUOUS
 62
    7
 10
7862.0068914014701
 20
2479.7117864641609
 11
7960.0069177950518
 21
2479.7117864641609
  0
LINE
  8
_0-1_
  6
CONTINUOUS
 62
    7
 10
7862.0068914014701
 20
2495.7117402753938
 11
7862.0068914014701
 21
2479.7117864641609
  0
LINE
  8
_0-1_
  6
CONTINUOUS
 62
    7
 10
7960.0069177950518
 20
2363.7117501729872
 11
7975.0069672830159
 21
2363.7117501729872
  0
LINE
  8
_0-1_
  6
CONTINUOUS
 62
    7
 10
7975.0069672830159
 20
2490.7117237794055
 11
7975.0069672830159
 21
2363.7117501729872
  0
LINE
  8
_0-1_
  6
CONTINUOUS
 62
    7
 10
7939.0069474878292
 20
2493.0979097089876
 11
7949.0068567598955
 21
2493.0979097089876
  0
LINE
  8
_0-1_
  6
CONTINUOUS
 62
    7
 10
7939.0069474878292
 20
2495.7117402753938
 11
7939.0069474878292
 21
2493.0979097089876
  0
LINE
  8
_0-1_
  6
CONTINUOUS
 62
    7
 10
7949.0068567598955
 20
2495.7117402753938
 11
7949.0068567598955
 21
2493.0979097089876
  0
LINE
  8
_0-1_
  6
CONTINUOUS
 62
    7
 10
7970.0069507870276
 20
2495.7117402753938
 11
7949.0068567598955
 21
2495.7117402753938
  0
LINE
  8
_0-1_
  6
CONTINUOUS
 62
    7
 10
7939.0069474878292
 20
2495.7117402753938
 11
7862.0068914014701
 21
2495.7117402753938
  0
LINE
  8
ADD_LINE
  6
DOT
 62
    3
 10
7862.0068914014701
 20
2495.7117402753938
 11
7862.0068914014701
 21
2507.1030346001139
  0
LINE
  8
ADD_LINE
  6
DOT
 62
    3
 10
7862.0068914014701
 20
2495.7117402753938
 11
7852.4979027375139
 21
2495.7117402753938
  0
ARC
  8
_0-1_
  6
CONTINUOUS
 62
    7
 10
7970.0069507870276
 20
2490.7117237794055
 40
4.9999995811565503
 50
0.0000000000000035
 51
90
  0
CIRCLE
  8
ADD_LINE
  6
DOT
 62
    3
 10
7862.0068914014701
 20
2495.7117402753938
 40
2.9999997970220211
  0
LINE
  8
_0-0_
  6
CONTINUOUS
 62
    7
 10
4522.8472078322629
 20
3008.8924751128206
 11
4675.8471682418913
 21
3008.8924751128206
  0
LINE
  8
_0-0_
  6
CONTINUOUS
 62
    7
 10
4216.8472870130063
 20
3130.691263647449
 11
4369.8472474226346
 21
3130.691263647449
  0
LINE
  8
_0-0_
  6
CONTINUOUS
 62
    7
 10
4522.8472078322629
 20
3245.1757310249827
 11
4675.8471682418913
 21
3245.1757310249827
  0
LINE
  8
_0-0_
  6
CONTINUOUS
 62
    7
 10
4216.8472870130063
 20
3360.6593604063169
 11
4369.8472474226346
 21
3360.6593604063169
  0
LINE
  8
_0-0_
  6
CONTINUOUS
 62
    7
 10
4522.8472078322629
 20
3476.1432372274744
 11
4675.8471682418913
 21
3476.1432372274744
  0
LINE
  8
_0-0_
  6
CONTINUOUS
 62
    7
 10
4216.8472870130063
 20
3591.627114048631
 11
4369.8472474226346
 21
3591.627114048631
  0
LINE
  8
_0-0_
  6
CONTINUOUS
 62
    7
 10
4522.8472078322629
 20
3707.1109908697881
 11
4675.8471682418913
 21
3707.1109908697881
  0
LINE
  8
_0-0_
  6
CONTINUOUS
 62
    7
 10
4216.8472870130063
 20
3822.5948676909452
 11
4369.8472474226346
 21
3822.5948676909452
  0
LINE
  8
_0-0_
  6
CONTINUOUS
 62
    7
 10
4522.8472078322629
 20
3938.0784970722798
 11
4675.8471682418913
 21
3938.0784970722798
  0
LINE
  8
_0-0_
  6
CONTINUOUS
 62
    7
 10
4216.8472870130063
 20
4053.5626213332598
 11
4369.8472474226346
 21
4053.5626213332598
  0
LINE
  8
_0-0_
  6
CONTINUOUS
 62
    7
 10
4522.8472078322629
 20
4169.046250714594
 11
4675.8471682418913
 21
4169.046250714594
  0
LINE
  8
_0-0_
  6
CONTINUOUS
 62
    7
 10
4216.8472870130063
 20
4284.530374975574
 11
4369.8472474226346
 21
4284.530374975574
  0
LINE
  8
_0-0_
  6
CONTINUOUS
 62
    7
 10
4522.8472078322629
 20
4400.0140043569081
 11
4675.8471682418913
 21
4400.0140043569081
  0
LINE
  8
_0-0_
  6
CONTINUOUS
 62
    7
 10
7123.8460399162996
 20
3008.8924751128206
 11
7276.8469900852187
 21
3008.8924751128206
  0
LINE
  8
_0-0_
  6
CONTINUOUS
 62
    7
 10
7429.845960735558
 20
3130.691263647449
 11
7582.8469109044772
 21
3130.691263647449
  0
LINE
  8
_0-0_
  6
CONTINUOUS
 62
    7
 10
7123.8460399162996
 20
3245.1757310249827
 11
7276.8469900852187
 21
3245.1757310249827
  0
LINE
  8
_0-0_
  6
CONTINUOUS
 62
    7
 10
7429.845960735558
 20
3360.6593604063169
 11
7582.8469109044772
 21
3360.6593604063169
  0
LINE
  8
_0-0_
  6
CONTINUOUS
 62
    7
 10
7123.8460399162996
 20
3476.1432372274744
 11
7276.8469900852187
 21
3476.1432372274744
  0
LINE
  8
_0-0_
  6
CONTINUOUS
 62
    7
 10
7429.845960735558
 20
3591.627114048631
 11
7582.8469109044772
 21
3591.627114048631
  0
LINE
  8
_0-0_
  6
CONTINUOUS
 62
    7
 10
7123.8460399162996
 20
3707.1109908697881
 11
7276.8469900852187
 21
3707.1109908697881
  0
LINE
  8
_0-0_
  6
CONTINUOUS
 62
    7
 10
7429.845960735558
 20
3822.5948676909452
 11
7582.8469109044772
 21
3822.5948676909452
  0
LINE
  8
_0-0_
  6
CONTINUOUS
 62
    7
 10
7123.8460399162996
 20
3938.0784970722798
 11
7276.8469900852187
 21
3938.0784970722798
  0
LINE
  8
_0-0_
  6
CONTINUOUS
 62
    7
 10
7429.845960735558
 20
4053.5626213332598
 11
7582.8469109044772
 21
4053.5626213332598
  0
LINE
  8
_0-0_
  6
CONTINUOUS
 62
    7
 10
7123.8460399162996
 20
4169.046250714594
 11
7276.8469900852187
 21
4169.046250714594
  0
LINE
  8
_0-0_
  6
CONTINUOUS
 62
    7
 10
7123.8460399162996
 20
4400.0140043569081
 11
7276.8469900852187
 21
4400.0140043569081
  0
LINE
  8
_0-0_
  6
CONTINUOUS
 62
    7
 10
7429.845960735558
 20
4284.530374975574
 11
7582.8469109044772
 21
4284.530374975574
  0
TEXT
  8
_1-0_
 62
    7
 10
6811.0149750415976
 20
2054.5257903494175
 40
60
 41
1
 50
0
  1
平板　（フルフラット）
  0
LINE
  8
_1-0_
  6
CONTINUOUS
 62
    7
 10
6677.0382695507487
 20
2022.4792013311148
 11
7677.0382695507487
 21
2022.4792013311148
  0
LINE
  8
_1-0_
  6
CONTINUOUS
 62
    7
 10
7677.0382695507487
 20
2022.4792013311148
 11
7677.0382695507487
 21
2142.4792013311148
  0
LINE
  8
_1-0_
  6
CONTINUOUS
 62
    7
 10
7677.0382695507487
 20
2142.4792013311148
 11
6677.0382695507487
 21
2142.4792013311148
  0
LINE
  8
_1-0_
  6
CONTINUOUS
 62
    7
 10
6677.0382695507487
 20
2142.4792013311148
 11
6677.0382695507487
 21
2022.4792013311148
  0
TEXT
  8
_1-0_
 62
    7
 10
6266.1742419958946
 20
229.50758853436582
 40
60
 41
1
 50
0
  1
〒475－0807　半田市八軒町２８番地
  0
ENDSEC
  0
EOF
