0
SECTION
2
HEADER
  9
$EXTMIN
10
0
20
0
30
0
  9
$EXTMAX
10
1248.389
20
1210.608
30
0
  9
$LTSCALE
40
5.000
  9
$DIMSCALE
40
5.000
  9
$PDMODE
70
0
  9
$PDSIZE
40
40
0
ENDSEC
0
SECTION
2
TABLES
0
TABLE
2
LTYPE
70
9
0
LTYPE
5
1f4
2
CONTINUOUS
70
0
3
実線
72
65
73
0
40
0.0
0
LTYPE
5
1f5
2
DOT
70
0
3
--  --  --  --  --  --  --  --     
72
65
73
2
40
5.000
49
1.000
49
-4.000
0
LTYPE
5
1f6
2
DASHED
70
0
3
----    ----    ----    ----    
72
65
73
2
40
5.000
49
2.000
49
-3.000
0
LTYPE
5
1f7
2
DASHED2
70
0
3
------  ------  ------  ------ 
72
65
73
2
40
10.000
49
4.000
49
-6.000
0
LTYPE
5
1f8
2
CENTER
70
0
3
----- - ----- - ----- - ----- - 
72
65
73
4
40
9.000
49
6.000
49
-1.000
49
1.000
49
-1.000
0
LTYPE
5
1f9
2
CENTER2
70
0
3
----------  --  ----------  -- 
72
65
73
4
40
18.000
49
12.000
49
-2.000
49
2.000
49
-2.000
0
LTYPE
5
1fa
2
PHANTOM
70
0
3
--- - - --- - - --- - - --- - -
72
65
73
6
40
10.000
49
5.000
49
-1.000
49
1.000
49
-1.000
49
1.000
49
-1.000
0
LTYPE
5
1fb
2
PHANTOM2
70
0
3
--------  -  -  --------  -  -
72
65
73
6
40
16.000
49
6.000
49
-2.000
49
2.000
49
-2.000
49
2.000
49
-2.000
0
LTYPE
5
1fc
2
HIDDEN
70
0
3
-   -   -   -   -   -   -   -   
72
65
73
2
40
2.500
49
0.500
49
-2.000
0
ENDTAB
0
TABLE
2
STYLE
70
1
0
STYLE
5
1fd
100
AcDbSymbolTableRecord
100
AcDbTextStyleTableRecord
2
STANDARD
70
0
40
0.0
41
1.0
50
0.0
71
0
42
0.0
3
txt.shx
4
extfont.shx
0
STYLE
5
1fe
100
AcDbSymbolTableRecord
100
AcDbTextStyleTableRecord
2
TATEGAKI
70
4
40
0.0
41
1.0
50
0.0
71
0
42
0.0
3
txt.shx
4
extfont.shx
0
STYLE
5
1ff
100
AcDbSymbolTableRecord
100
AcDbTextStyleTableRecord
2
MT
70
0
40
0.0
41
1.0
50
0.0
71
0
42
0.0
3
MS Mincho
4

0
STYLE
5
200
100
AcDbSymbolTableRecord
100
AcDbTextStyleTableRecord
2
TMT
70
4
40
0.0
41
1.0
50
0.0
71
0
42
0.0
3
@MS Mincho
4

0
ENDTAB
0
TABLE
2
LAYER
5
4f1
100
AcDbSymbolTable
70
10
0
LAYER
5
4f2
100
AcDbSymbolTableRecord
100
AcDbLayerTableRecord
2
0
70
64
62
  7
  6
CONTINUOUS
0
LAYER
5
4f3
100
AcDbSymbolTableRecord
100
AcDbLayerTableRecord
2
0-0
70
64
62
  7
  6
CONTINUOUS
0
LAYER
5
4f4
100
AcDbSymbolTableRecord
100
AcDbLayerTableRecord
2
0-1
70
64
62
  7
  6
CONTINUOUS
0
LAYER
5
4f5
100
AcDbSymbolTableRecord
100
AcDbLayerTableRecord
2
0-2
70
64
62
  7
  6
CONTINUOUS
0
LAYER
5
4f6
100
AcDbSymbolTableRecord
100
AcDbLayerTableRecord
2
ADD_LINE
70
64
62
  -7
  6
CONTINUOUS
0
ENDTAB
0
ENDSEC
0
SECTION
2
ENTITIES
0
LINE
5
4f7
8
0-0
6
CONTINUOUS
62
  7
10
810.633
20
1037.838
30
0.0
11
697.923
21
1037.838
31
0.0
0
LINE
5
4f8
8
0-0
6
CONTINUOUS
62
  7
10
697.923
20
1037.838
30
0.0
11
697.923
21
727.838
31
0.0
0
LINE
5
4f9
8
0-0
6
CONTINUOUS
62
  7
10
706.923
20
1029.838
30
0.0
11
706.923
21
1037.838
31
0.0
0
LINE
5
4fa
8
0-0
6
CONTINUOUS
62
  7
10
706.809
20
798.042
30
0.0
11
706.666
21
795.498
31
0.0
0
LINE
5
4fb
8
0-0
6
CONTINUOUS
62
  7
10
706.666
20
795.498
30
0.0
11
706.508
21
792.661
31
0.0
0
LINE
5
4fc
8
0-0
6
CONTINUOUS
62
  7
10
706.508
20
792.661
30
0.0
11
706.339
21
789.637
31
0.0
0
LINE
5
4fd
8
0-0
6
CONTINUOUS
62
  7
10
706.339
20
789.637
30
0.0
11
706.159
21
786.512
31
0.0
0
LINE
5
4fe
8
0-0
6
CONTINUOUS
62
  7
10
706.159
20
786.512
30
0.0
11
705.971
21
783.357
31
0.0
0
LINE
5
4ff
8
0-0
6
CONTINUOUS
62
  7
10
705.971
20
783.357
30
0.0
11
705.775
21
780.232
31
0.0
0
LINE
5
500
8
0-0
6
CONTINUOUS
62
  7
10
705.775
20
780.232
30
0.0
11
705.573
21
777.181
31
0.0
0
LINE
5
501
8
0-0
6
CONTINUOUS
62
  7
10
705.573
20
777.181
30
0.0
11
705.364
21
774.239
31
0.0
0
LINE
5
502
8
0-0
6
CONTINUOUS
62
  7
10
705.364
20
774.239
30
0.0
11
705.150
21
771.431
31
0.0
0
LINE
5
503
8
0-0
6
CONTINUOUS
62
  7
10
705.150
20
771.431
30
0.0
11
704.932
21
768.775
31
0.0
0
LINE
5
504
8
0-0
6
CONTINUOUS
62
  7
10
704.932
20
768.775
30
0.0
11
704.709
21
766.283
31
0.0
0
LINE
5
505
8
0-0
6
CONTINUOUS
62
  7
10
704.709
20
766.283
30
0.0
11
704.480
21
763.959
31
0.0
0
LINE
5
506
8
0-0
6
CONTINUOUS
62
  7
10
704.480
20
763.959
30
0.0
11
704.248
21
761.804
31
0.0
0
LINE
5
507
8
0-0
6
CONTINUOUS
62
  7
10
704.248
20
761.804
30
0.0
11
704.011
21
759.816
31
0.0
0
LINE
5
508
8
0-0
6
CONTINUOUS
62
  7
10
704.011
20
759.816
30
0.0
11
703.769
21
757.988
31
0.0
0
LINE
5
509
8
0-0
6
CONTINUOUS
62
  7
10
703.769
20
757.988
30
0.0
11
703.523
21
756.314
31
0.0
0
LINE
5
50a
8
0-0
6
CONTINUOUS
62
  7
10
703.523
20
756.314
30
0.0
11
703.272
21
754.782
31
0.0
0
LINE
5
50b
8
0-0
6
CONTINUOUS
62
  7
10
703.272
20
754.782
30
0.0
11
703.015
21
753.384
31
0.0
0
LINE
5
50c
8
0-0
6
CONTINUOUS
62
  7
10
703.015
20
753.384
30
0.0
11
702.754
21
752.109
31
0.0
0
LINE
5
50d
8
0-0
6
CONTINUOUS
62
  7
10
702.754
20
752.109
30
0.0
11
702.486
21
750.944
31
0.0
0
LINE
5
50e
8
0-0
6
CONTINUOUS
62
  7
10
702.486
20
750.944
30
0.0
11
702.214
21
749.881
31
0.0
0
LINE
5
50f
8
0-0
6
CONTINUOUS
62
  7
10
702.214
20
749.881
30
0.0
11
701.935
21
748.908
31
0.0
0
LINE
5
510
8
0-0
6
CONTINUOUS
62
  7
10
701.935
20
748.908
30
0.0
11
701.651
21
748.016
31
0.0
0
LINE
5
511
8
0-0
6
CONTINUOUS
62
  7
10
701.651
20
748.016
30
0.0
11
701.360
21
747.197
31
0.0
0
LINE
5
512
8
0-0
6
CONTINUOUS
62
  7
10
701.360
20
747.197
30
0.0
11
701.062
21
746.444
31
0.0
0
LINE
5
513
8
0-0
6
CONTINUOUS
62
  7
10
701.062
20
746.444
30
0.0
11
700.757
21
745.749
31
0.0
0
LINE
5
514
8
0-0
6
CONTINUOUS
62
  7
10
700.757
20
745.749
30
0.0
11
700.445
21
745.107
31
0.0
0
LINE
5
515
8
0-0
6
CONTINUOUS
62
  7
10
700.445
20
745.107
30
0.0
11
700.123
21
744.514
31
0.0
0
LINE
5
516
8
0-0
6
CONTINUOUS
62
  7
10
700.123
20
744.514
30
0.0
11
699.792
21
743.966
31
0.0
0
LINE
5
517
8
0-0
6
CONTINUOUS
62
  7
10
699.792
20
743.966
30
0.0
11
699.450
21
743.461
31
0.0
0
LINE
5
518
8
0-0
6
CONTINUOUS
62
  7
10
699.450
20
743.461
30
0.0
11
699.095
21
742.997
31
0.0
0
LINE
5
519
8
0-0
6
CONTINUOUS
62
  7
10
699.095
20
742.997
30
0.0
11
698.724
21
742.572
31
0.0
0
LINE
5
51a
8
0-0
6
CONTINUOUS
62
  7
10
698.724
20
742.572
30
0.0
11
698.335
21
742.186
31
0.0
0
LINE
5
51b
8
0-0
6
CONTINUOUS
62
  7
10
698.335
20
742.186
30
0.0
11
697.923
21
741.838
31
0.0
0
LINE
5
51c
8
0-0
6
CONTINUOUS
62
  7
10
706.809
20
798.042
30
0.0
11
706.828
21
798.601
31
0.0
0
LINE
5
51d
8
0-0
6
CONTINUOUS
62
  7
10
706.828
20
798.601
30
0.0
11
706.845
21
799.127
31
0.0
0
LINE
5
51e
8
0-0
6
CONTINUOUS
62
  7
10
706.845
20
799.127
30
0.0
11
706.860
21
799.619
31
0.0
0
LINE
5
51f
8
0-0
6
CONTINUOUS
62
  7
10
706.860
20
799.619
30
0.0
11
706.875
21
800.077
31
0.0
0
LINE
5
520
8
0-0
6
CONTINUOUS
62
  7
10
706.875
20
800.077
30
0.0
11
706.887
21
800.500
31
0.0
0
LINE
5
521
8
0-0
6
CONTINUOUS
62
  7
10
706.887
20
800.500
30
0.0
11
706.898
21
800.890
31
0.0
0
LINE
5
522
8
0-0
6
CONTINUOUS
62
  7
10
706.898
20
800.890
30
0.0
11
706.908
21
801.246
31
0.0
0
LINE
5
523
8
0-0
6
CONTINUOUS
62
  7
10
706.908
20
801.246
30
0.0
11
706.916
21
801.568
31
0.0
0
LINE
5
524
8
0-0
6
CONTINUOUS
62
  7
10
706.916
20
801.568
30
0.0
11
706.923
21
801.856
31
0.0
0
LINE
5
525
8
0-0
6
CONTINUOUS
62
  7
10
706.923
20
1022.838
30
0.0
11
706.923
21
801.856
31
0.0
0
LINE
5
526
8
0-0
6
CONTINUOUS
62
  7
10
835.923
20
757.838
30
0.0
11
835.820
21
756.617
31
0.0
0
LINE
5
527
8
0-0
6
CONTINUOUS
62
  7
10
835.820
20
756.617
30
0.0
11
835.720
21
755.509
31
0.0
0
LINE
5
528
8
0-0
6
CONTINUOUS
62
  7
10
835.720
20
755.509
30
0.0
11
835.617
21
754.486
31
0.0
0
LINE
5
529
8
0-0
6
CONTINUOUS
62
  7
10
835.617
20
754.486
30
0.0
11
835.508
21
753.527
31
0.0
0
LINE
5
52a
8
0-0
6
CONTINUOUS
62
  7
10
835.508
20
753.527
30
0.0
11
835.390
21
752.612
31
0.0
0
LINE
5
52b
8
0-0
6
CONTINUOUS
62
  7
10
835.390
20
752.612
30
0.0
11
835.258
21
751.725
31
0.0
0
LINE
5
52c
8
0-0
6
CONTINUOUS
62
  7
10
835.258
20
751.725
30
0.0
11
835.110
21
750.856
31
0.0
0
LINE
5
52d
8
0-0
6
CONTINUOUS
62
  7
10
835.110
20
750.856
30
0.0
11
834.944
21
749.994
31
0.0
0
LINE
5
52e
8
0-0
6
CONTINUOUS
62
  7
10
834.944
20
749.994
30
0.0
11
834.756
21
749.132
31
0.0
0
LINE
5
52f
8
0-0
6
CONTINUOUS
62
  7
10
834.756
20
749.132
30
0.0
11
834.546
21
748.266
31
0.0
0
LINE
5
530
8
0-0
6
CONTINUOUS
62
  7
10
834.546
20
748.266
30
0.0
11
834.310
21
747.390
31
0.0
0
LINE
5
531
8
0-0
6
CONTINUOUS
62
  7
10
834.310
20
747.390
30
0.0
11
834.049
21
746.504
31
0.0
0
LINE
5
532
8
0-0
6
CONTINUOUS
62
  7
10
834.049
20
746.504
30
0.0
11
833.760
21
745.607
31
0.0
0
LINE
5
533
8
0-0
6
CONTINUOUS
62
  7
10
833.760
20
745.607
30
0.0
11
833.445
21
744.700
31
0.0
0
LINE
5
534
8
0-0
6
CONTINUOUS
62
  7
10
833.445
20
744.700
30
0.0
11
833.101
21
743.783
31
0.0
0
LINE
5
535
8
0-0
6
CONTINUOUS
62
  7
10
833.101
20
743.783
30
0.0
11
832.729
21
742.861
31
0.0
0
LINE
5
536
8
0-0
6
CONTINUOUS
62
  7
10
832.729
20
742.861
30
0.0
11
832.331
21
741.935
31
0.0
0
LINE
5
537
8
0-0
6
CONTINUOUS
62
  7
10
832.331
20
741.935
30
0.0
11
831.906
21
741.009
31
0.0
0
LINE
5
538
8
0-0
6
CONTINUOUS
62
  7
10
831.906
20
741.009
30
0.0
11
831.456
21
740.088
31
0.0
0
LINE
5
539
8
0-0
6
CONTINUOUS
62
  7
10
831.456
20
740.088
30
0.0
11
830.982
21
739.175
31
0.0
0
LINE
5
53a
8
0-0
6
CONTINUOUS
62
  7
10
830.982
20
739.175
30
0.0
11
830.487
21
738.276
31
0.0
0
LINE
5
53b
8
0-0
6
CONTINUOUS
62
  7
10
830.487
20
738.276
30
0.0
11
829.970
21
737.395
31
0.0
0
LINE
5
53c
8
0-0
6
CONTINUOUS
62
  7
10
829.970
20
737.395
30
0.0
11
829.435
21
736.536
31
0.0
0
LINE
5
53d
8
0-0
6
CONTINUOUS
62
  7
10
829.435
20
736.536
30
0.0
11
828.883
21
735.704
31
0.0
0
LINE
5
53e
8
0-0
6
CONTINUOUS
62
  7
10
828.883
20
735.704
30
0.0
11
828.315
21
734.903
31
0.0
0
LINE
5
53f
8
0-0
6
CONTINUOUS
62
  7
10
828.315
20
734.903
30
0.0
11
827.732
21
734.135
31
0.0
0
LINE
5
540
8
0-0
6
CONTINUOUS
62
  7
10
827.732
20
734.135
30
0.0
11
827.136
21
733.404
31
0.0
0
LINE
5
541
8
0-0
6
CONTINUOUS
62
  7
10
827.136
20
733.404
30
0.0
11
826.526
21
732.712
31
0.0
0
LINE
5
542
8
0-0
6
CONTINUOUS
62
  7
10
826.526
20
732.712
30
0.0
11
825.903
21
732.061
31
0.0
0
LINE
5
543
8
0-0
6
CONTINUOUS
62
  7
10
825.903
20
732.061
30
0.0
11
825.267
21
731.452
31
0.0
0
LINE
5
544
8
0-0
6
CONTINUOUS
62
  7
10
825.267
20
731.452
30
0.0
11
824.615
21
730.885
31
0.0
0
LINE
5
545
8
0-0
6
CONTINUOUS
62
  7
10
824.615
20
730.885
30
0.0
11
823.947
21
730.360
31
0.0
0
LINE
5
546
8
0-0
6
CONTINUOUS
62
  7
10
823.947
20
730.360
30
0.0
11
823.261
21
729.876
31
0.0
0
LINE
5
547
8
0-0
6
CONTINUOUS
62
  7
10
823.261
20
729.876
30
0.0
11
822.554
21
729.433
31
0.0
0
LINE
5
548
8
0-0
6
CONTINUOUS
62
  7
10
822.554
20
729.433
30
0.0
11
821.824
21
729.031
31
0.0
0
LINE
5
549
8
0-0
6
CONTINUOUS
62
  7
10
821.824
20
729.031
30
0.0
11
821.069
21
728.668
31
0.0
0
LINE
5
54a
8
0-0
6
CONTINUOUS
62
  7
10
821.069
20
728.668
30
0.0
11
820.286
21
728.347
31
0.0
0
LINE
5
54b
8
0-0
6
CONTINUOUS
62
  7
10
820.286
20
728.347
30
0.0
11
819.474
21
728.068
31
0.0
0
LINE
5
54c
8
0-0
6
CONTINUOUS
62
  7
10
819.474
20
728.068
30
0.0
11
818.633
21
727.838
31
0.0
0
LINE
5
54d
8
0-0
6
CONTINUOUS
62
  7
10
818.633
20
727.838
30
0.0
11
697.923
21
727.838
31
0.0
0
LINE
5
54e
8
0-0
6
CONTINUOUS
62
  7
10
811.988
20
1022.838
30
0.0
11
706.923
21
1022.838
31
0.0
0
LINE
5
54f
8
0-0
6
CONTINUOUS
62
  7
10
811.356
20
1029.838
30
0.0
11
706.923
21
1029.838
31
0.0
0
LINE
5
550
8
0-0
6
CONTINUOUS
62
  7
10
810.633
20
1037.838
30
0.0
11
811.356
21
1029.838
31
0.0
0
LINE
5
551
8
0-0
6
CONTINUOUS
62
  7
10
811.988
20
1022.838
30
0.0
11
835.923
21
757.838
31
0.0
0
LINE
5
552
8
0-0
6
CONTINUOUS
62
  7
10
1220.389
20
1037.838
30
0.0
11
1248.389
21
727.838
31
0.0
0
LINE
5
553
8
0-0
6
CONTINUOUS
62
  7
10
1110.389
20
1037.838
30
0.0
11
1110.389
21
1029.838
31
0.0
0
LINE
5
554
8
0-0
6
CONTINUOUS
62
  7
10
1232.667
20
801.856
30
0.0
11
1232.985
21
799.708
31
0.0
0
LINE
5
555
8
0-0
6
CONTINUOUS
62
  7
10
1232.985
20
799.708
30
0.0
11
1233.284
21
797.642
31
0.0
0
LINE
5
556
8
0-0
6
CONTINUOUS
62
  7
10
1233.284
20
797.642
30
0.0
11
1233.567
21
795.647
31
0.0
0
LINE
5
557
8
0-0
6
CONTINUOUS
62
  7
10
1233.567
20
795.647
30
0.0
11
1233.835
21
793.712
31
0.0
0
LINE
5
558
8
0-0
6
CONTINUOUS
62
  7
10
1233.835
20
793.712
30
0.0
11
1234.092
21
791.830
31
0.0
0
LINE
5
559
8
0-0
6
CONTINUOUS
62
  7
10
1234.092
20
791.830
30
0.0
11
1234.340
21
789.995
31
0.0
0
LINE
5
55a
8
0-0
6
CONTINUOUS
62
  7
10
1234.340
20
789.995
30
0.0
11
1234.581
21
788.200
31
0.0
0
LINE
5
55b
8
0-0
6
CONTINUOUS
62
  7
10
1234.581
20
788.200
30
0.0
11
1234.816
21
786.442
31
0.0
0
LINE
5
55c
8
0-0
6
CONTINUOUS
62
  7
10
1234.816
20
786.442
30
0.0
11
1235.049
21
784.717
31
0.0
0
LINE
5
55d
8
0-0
6
CONTINUOUS
62
  7
10
1235.049
20
784.717
30
0.0
11
1235.281
21
783.021
31
0.0
0
LINE
5
55e
8
0-0
6
CONTINUOUS
62
  7
10
1235.281
20
783.021
30
0.0
11
1235.513
21
781.352
31
0.0
0
LINE
5
55f
8
0-0
6
CONTINUOUS
62
  7
10
1235.513
20
781.352
30
0.0
11
1235.747
21
779.709
31
0.0
0
LINE
5
560
8
0-0
6
CONTINUOUS
62
  7
10
1235.747
20
779.709
30
0.0
11
1235.985
21
778.089
31
0.0
0
LINE
5
561
8
0-0
6
CONTINUOUS
62
  7
10
1235.985
20
778.089
30
0.0
11
1236.226
21
776.492
31
0.0
0
LINE
5
562
8
0-0
6
CONTINUOUS
62
  7
10
1236.226
20
776.492
30
0.0
11
1236.472
21
774.918
31
0.0
0
LINE
5
563
8
0-0
6
CONTINUOUS
62
  7
10
1236.472
20
774.918
30
0.0
11
1236.723
21
773.366
31
0.0
0
LINE
5
564
8
0-0
6
CONTINUOUS
62
  7
10
1236.723
20
773.366
30
0.0
11
1236.979
21
771.836
31
0.0
0
LINE
5
565
8
0-0
6
CONTINUOUS
62
  7
10
1236.979
20
771.836
30
0.0
11
1237.241
21
770.330
31
0.0
0
LINE
5
566
8
0-0
6
CONTINUOUS
62
  7
10
1237.241
20
770.330
30
0.0
11
1237.509
21
768.848
31
0.0
0
LINE
5
567
8
0-0
6
CONTINUOUS
62
  7
10
1237.509
20
768.848
30
0.0
11
1237.783
21
767.393
31
0.0
0
LINE
5
568
8
0-0
6
CONTINUOUS
62
  7
10
1237.783
20
767.393
30
0.0
11
1238.061
21
765.965
31
0.0
0
LINE
5
569
8
0-0
6
CONTINUOUS
62
  7
10
1238.061
20
765.965
30
0.0
11
1238.345
21
764.568
31
0.0
0
LINE
5
56a
8
0-0
6
CONTINUOUS
62
  7
10
1238.345
20
764.568
30
0.0
11
1238.633
21
763.202
31
0.0
0
LINE
5
56b
8
0-0
6
CONTINUOUS
62
  7
10
1238.633
20
763.202
30
0.0
11
1238.926
21
761.871
31
0.0
0
LINE
5
56c
8
0-0
6
CONTINUOUS
62
  7
10
1238.926
20
761.871
30
0.0
11
1239.223
21
760.577
31
0.0
0
LINE
5
56d
8
0-0
6
CONTINUOUS
62
  7
10
1239.223
20
760.577
30
0.0
11
1239.524
21
759.322
31
0.0
0
LINE
5
56e
8
0-0
6
CONTINUOUS
62
  7
10
1239.524
20
759.322
30
0.0
11
1239.829
21
758.107
31
0.0
0
LINE
5
56f
8
0-0
6
CONTINUOUS
62
  7
10
1239.829
20
758.107
30
0.0
11
1240.138
21
756.935
31
0.0
0
LINE
5
570
8
0-0
6
CONTINUOUS
62
  7
10
1240.138
20
756.935
30
0.0
11
1240.452
21
755.806
31
0.0
0
LINE
5
571
8
0-0
6
CONTINUOUS
62
  7
10
1240.452
20
755.806
30
0.0
11
1240.771
21
754.720
31
0.0
0
LINE
5
572
8
0-0
6
CONTINUOUS
62
  7
10
1240.771
20
754.720
30
0.0
11
1241.096
21
753.679
31
0.0
0
LINE
5
573
8
0-0
6
CONTINUOUS
62
  7
10
1241.096
20
753.679
30
0.0
11
1241.429
21
752.679
31
0.0
0
LINE
5
574
8
0-0
6
CONTINUOUS
62
  7
10
1241.429
20
752.679
30
0.0
11
1241.770
21
751.720
31
0.0
0
LINE
5
575
8
0-0
6
CONTINUOUS
62
  7
10
1241.770
20
751.720
30
0.0
11
1242.123
21
750.797
31
0.0
0
LINE
5
576
8
0-0
6
CONTINUOUS
62
  7
10
1242.123
20
750.797
30
0.0
11
1242.489
21
749.905
31
0.0
0
LINE
5
577
8
0-0
6
CONTINUOUS
62
  7
10
1242.489
20
749.905
30
0.0
11
1242.872
21
749.040
31
0.0
0
LINE
5
578
8
0-0
6
CONTINUOUS
62
  7
10
1242.872
20
749.040
30
0.0
11
1243.275
21
748.193
31
0.0
0
LINE
5
579
8
0-0
6
CONTINUOUS
62
  7
10
1243.275
20
748.193
30
0.0
11
1243.703
21
747.355
31
0.0
0
LINE
5
57a
8
0-0
6
CONTINUOUS
62
  7
10
1243.703
20
747.355
30
0.0
11
1244.161
21
746.516
31
0.0
0
LINE
5
57b
8
0-0
6
CONTINUOUS
62
  7
10
1244.161
20
746.516
30
0.0
11
1244.654
21
745.664
31
0.0
0
LINE
5
57c
8
0-0
6
CONTINUOUS
62
  7
10
1244.654
20
745.664
30
0.0
11
1245.189
21
744.785
31
0.0
0
LINE
5
57d
8
0-0
6
CONTINUOUS
62
  7
10
1245.189
20
744.785
30
0.0
11
1245.774
21
743.865
31
0.0
0
LINE
5
57e
8
0-0
6
CONTINUOUS
62
  7
10
1245.774
20
743.865
30
0.0
11
1246.416
21
742.888
31
0.0
0
LINE
5
57f
8
0-0
6
CONTINUOUS
62
  7
10
1246.416
20
742.888
30
0.0
11
1247.125
21
741.838
31
0.0
0
LINE
5
580
8
0-0
6
CONTINUOUS
62
  7
10
1110.389
20
757.838
30
0.0
11
1110.537
21
757.011
31
0.0
0
LINE
5
581
8
0-0
6
CONTINUOUS
62
  7
10
1110.537
20
757.011
30
0.0
11
1110.685
21
756.217
31
0.0
0
LINE
5
582
8
0-0
6
CONTINUOUS
62
  7
10
1110.685
20
756.217
30
0.0
11
1110.837
21
755.446
31
0.0
0
LINE
5
583
8
0-0
6
CONTINUOUS
62
  7
10
1110.837
20
755.446
30
0.0
11
1110.996
21
754.691
31
0.0
0
LINE
5
584
8
0-0
6
CONTINUOUS
62
  7
10
1110.996
20
754.691
30
0.0
11
1111.163
21
753.946
31
0.0
0
LINE
5
585
8
0-0
6
CONTINUOUS
62
  7
10
1111.163
20
753.946
30
0.0
11
1111.341
21
753.207
31
0.0
0
LINE
5
586
8
0-0
6
CONTINUOUS
62
  7
10
1111.341
20
753.207
30
0.0
11
1111.529
21
752.473
31
0.0
0
LINE
5
587
8
0-0
6
CONTINUOUS
62
  7
10
1111.529
20
752.473
30
0.0
11
1111.729
21
751.741
31
0.0
0
LINE
5
588
8
0-0
6
CONTINUOUS
62
  7
10
1111.729
20
751.741
30
0.0
11
1111.940
21
751.013
31
0.0
0
LINE
5
589
8
0-0
6
CONTINUOUS
62
  7
10
1111.940
20
751.013
30
0.0
11
1112.163
21
750.288
31
0.0
0
LINE
5
58a
8
0-0
6
CONTINUOUS
62
  7
10
1112.163
20
750.288
30
0.0
11
1112.398
21
749.567
31
0.0
0
LINE
5
58b
8
0-0
6
CONTINUOUS
62
  7
10
1112.398
20
749.567
30
0.0
11
1112.644
21
748.851
31
0.0
0
LINE
5
58c
8
0-0
6
CONTINUOUS
62
  7
10
1112.644
20
748.851
30
0.0
11
1112.902
21
748.141
31
0.0
0
LINE
5
58d
8
0-0
6
CONTINUOUS
62
  7
10
1112.902
20
748.141
30
0.0
11
1113.170
21
747.438
31
0.0
0
LINE
5
58e
8
0-0
6
CONTINUOUS
62
  7
10
1113.170
20
747.438
30
0.0
11
1113.448
21
746.743
31
0.0
0
LINE
5
58f
8
0-0
6
CONTINUOUS
62
  7
10
1113.448
20
746.743
30
0.0
11
1113.737
21
746.058
31
0.0
0
LINE
5
590
8
0-0
6
CONTINUOUS
62
  7
10
1113.737
20
746.058
30
0.0
11
1114.035
21
745.382
31
0.0
0
LINE
5
591
8
0-0
6
CONTINUOUS
62
  7
10
1114.035
20
745.382
30
0.0
11
1114.344
21
744.718
31
0.0
0
LINE
5
592
8
0-0
6
CONTINUOUS
62
  7
10
1114.344
20
744.718
30
0.0
11
1114.662
21
744.064
31
0.0
0
LINE
5
593
8
0-0
6
CONTINUOUS
62
  7
10
1114.662
20
744.064
30
0.0
11
1114.991
21
743.421
31
0.0
0
LINE
5
594
8
0-0
6
CONTINUOUS
62
  7
10
1114.991
20
743.421
30
0.0
11
1115.329
21
742.790
31
0.0
0
LINE
5
595
8
0-0
6
CONTINUOUS
62
  7
10
1115.329
20
742.790
30
0.0
11
1115.678
21
742.171
31
0.0
0
LINE
5
596
8
0-0
6
CONTINUOUS
62
  7
10
1115.678
20
742.171
30
0.0
11
1116.037
21
741.563
31
0.0
0
LINE
5
597
8
0-0
6
CONTINUOUS
62
  7
10
1116.037
20
741.563
30
0.0
11
1116.408
21
740.966
31
0.0
0
LINE
5
598
8
0-0
6
CONTINUOUS
62
  7
10
1116.408
20
740.966
30
0.0
11
1116.789
21
740.380
31
0.0
0
LINE
5
599
8
0-0
6
CONTINUOUS
62
  7
10
1116.789
20
740.380
30
0.0
11
1117.183
21
739.804
31
0.0
0
LINE
5
59a
8
0-0
6
CONTINUOUS
62
  7
10
1117.183
20
739.804
30
0.0
11
1117.589
21
739.239
31
0.0
0
LINE
5
59b
8
0-0
6
CONTINUOUS
62
  7
10
1117.589
20
739.239
30
0.0
11
1118.007
21
738.684
31
0.0
0
LINE
5
59c
8
0-0
6
CONTINUOUS
62
  7
10
1118.007
20
738.684
30
0.0
11
1118.439
21
738.138
31
0.0
0
LINE
5
59d
8
0-0
6
CONTINUOUS
62
  7
10
1118.439
20
738.138
30
0.0
11
1118.885
21
737.601
31
0.0
0
LINE
5
59e
8
0-0
6
CONTINUOUS
62
  7
10
1118.885
20
737.601
30
0.0
11
1119.345
21
737.073
31
0.0
0
LINE
5
59f
8
0-0
6
CONTINUOUS
62
  7
10
1119.345
20
737.073
30
0.0
11
1119.820
21
736.552
31
0.0
0
LINE
5
5a0
8
0-0
6
CONTINUOUS
62
  7
10
1119.820
20
736.552
30
0.0
11
1120.310
21
736.038
31
0.0
0
LINE
5
5a1
8
0-0
6
CONTINUOUS
62
  7
10
1120.310
20
736.038
30
0.0
11
1120.816
21
735.530
31
0.0
0
LINE
5
5a2
8
0-0
6
CONTINUOUS
62
  7
10
1120.816
20
735.530
30
0.0
11
1121.337
21
735.028
31
0.0
0
LINE
5
5a3
8
0-0
6
CONTINUOUS
62
  7
10
1121.337
20
735.028
30
0.0
11
1121.875
21
734.530
31
0.0
0
LINE
5
5a4
8
0-0
6
CONTINUOUS
62
  7
10
1121.875
20
734.530
30
0.0
11
1122.429
21
734.035
31
0.0
0
LINE
5
5a5
8
0-0
6
CONTINUOUS
62
  7
10
1122.429
20
734.035
30
0.0
11
1123.000
21
733.543
31
0.0
0
LINE
5
5a6
8
0-0
6
CONTINUOUS
62
  7
10
1123.000
20
733.543
30
0.0
11
1123.587
21
733.051
31
0.0
0
LINE
5
5a7
8
0-0
6
CONTINUOUS
62
  7
10
1123.587
20
733.051
30
0.0
11
1124.191
21
732.558
31
0.0
0
LINE
5
5a8
8
0-0
6
CONTINUOUS
62
  7
10
1124.191
20
732.558
30
0.0
11
1124.811
21
732.064
31
0.0
0
LINE
5
5a9
8
0-0
6
CONTINUOUS
62
  7
10
1124.811
20
732.064
30
0.0
11
1125.447
21
731.565
31
0.0
0
LINE
5
5aa
8
0-0
6
CONTINUOUS
62
  7
10
1125.447
20
731.565
30
0.0
11
1126.099
21
731.061
31
0.0
0
LINE
5
5ab
8
0-0
6
CONTINUOUS
62
  7
10
1126.099
20
731.061
30
0.0
11
1126.768
21
730.551
31
0.0
0
LINE
5
5ac
8
0-0
6
CONTINUOUS
62
  7
10
1126.768
20
730.551
30
0.0
11
1127.453
21
730.031
31
0.0
0
LINE
5
5ad
8
0-0
6
CONTINUOUS
62
  7
10
1127.453
20
730.031
30
0.0
11
1128.155
21
729.502
31
0.0
0
LINE
5
5ae
8
0-0
6
CONTINUOUS
62
  7
10
1128.155
20
729.502
30
0.0
11
1128.877
21
728.961
31
0.0
0
LINE
5
5af
8
0-0
6
CONTINUOUS
62
  7
10
1128.877
20
728.961
30
0.0
11
1129.620
21
728.407
31
0.0
0
LINE
5
5b0
8
0-0
6
CONTINUOUS
62
  7
10
1129.620
20
728.407
30
0.0
11
1130.389
21
727.838
31
0.0
0
LINE
5
5b1
8
0-0
6
CONTINUOUS
62
  7
10
1130.389
20
727.838
30
0.0
11
1248.389
21
727.838
31
0.0
0
LINE
5
5b2
8
0-0
6
CONTINUOUS
62
  7
10
1110.389
20
1022.838
30
0.0
11
1110.389
21
757.838
31
0.0
0
LINE
5
5b3
8
0-0
6
CONTINUOUS
62
  7
10
835.923
20
757.838
30
0.0
11
703.747
21
757.838
31
0.0
0
LINE
5
5b4
8
0-0
6
CONTINUOUS
62
  7
10
1110.389
20
757.838
30
0.0
11
1239.829
21
757.838
31
0.0
0
LINE
5
5b5
8
0-0
6
CONTINUOUS
62
  7
10
1216.840
20
1037.838
30
0.0
11
1220.389
21
1037.838
31
0.0
0
LINE
5
5b6
8
0-0
6
CONTINUOUS
62
  7
10
1110.389
20
1037.838
30
0.0
11
1215.280
21
1037.838
31
0.0
0
LINE
5
5b7
8
0-0
6
CONTINUOUS
62
  7
10
1215.280
20
1037.838
30
0.0
11
1216.840
21
1037.838
31
0.0
0
LINE
5
5b8
8
0-0
6
CONTINUOUS
62
  7
10
1110.389
20
1029.838
30
0.0
11
1212.075
21
1029.838
31
0.0
0
LINE
5
5b9
8
0-0
6
CONTINUOUS
62
  7
10
1110.389
20
1022.838
30
0.0
11
1212.708
21
1022.838
31
0.0
0
LINE
5
5ba
8
0-0
6
CONTINUOUS
62
  7
10
1211.353
20
1037.838
30
0.0
11
1212.075
21
1029.838
31
0.0
0
LINE
5
5bb
8
0-0
6
CONTINUOUS
62
  7
10
1212.708
20
1022.838
30
0.0
11
1232.667
21
801.855
31
0.0
0
LINE
5
5bc
8
0-0
6
CONTINUOUS
62
  7
10
822.923
20
421.189
30
0.0
11
815.923
21
414.189
31
0.0
0
LINE
5
5bd
8
0-0
6
CONTINUOUS
62
  7
10
806.923
20
435.189
30
0.0
11
801.923
21
421.189
31
0.0
0
LINE
5
5be
8
0-0
6
CONTINUOUS
62
  7
10
815.923
20
414.189
30
0.0
11
801.923
21
414.189
31
0.0
0
LINE
5
5bf
8
0-0
6
CONTINUOUS
62
  7
10
801.923
20
421.189
30
0.0
11
801.923
21
414.189
31
0.0
0
LINE
5
5c0
8
0-0
6
CONTINUOUS
62
  7
10
718.923
20
523.189
30
0.0
11
704.923
21
518.189
31
0.0
0
LINE
5
5c1
8
0-0
6
CONTINUOUS
62
  7
10
704.923
20
539.189
30
0.0
11
697.923
21
532.189
31
0.0
0
LINE
5
5c2
8
0-0
6
CONTINUOUS
62
  7
10
704.923
20
518.189
30
0.0
11
697.923
21
518.189
31
0.0
0
LINE
5
5c3
8
0-0
6
CONTINUOUS
62
  7
10
697.923
20
532.189
30
0.0
11
697.923
21
518.189
31
0.0
0
LINE
5
5c4
8
0-0
6
CONTINUOUS
62
  7
10
798.923
20
523.189
30
0.0
11
718.923
21
523.189
31
0.0
0
LINE
5
5c5
8
0-0
6
CONTINUOUS
62
  7
10
806.923
20
515.189
30
0.0
11
806.923
21
435.189
31
0.0
0
LINE
5
5c6
8
0-0
6
CONTINUOUS
62
  7
10
802.924
20
539.189
30
0.0
11
704.923
21
539.189
31
0.0
0
LINE
5
5c7
8
0-0
6
CONTINUOUS
62
  7
10
822.923
20
519.189
30
0.0
11
822.923
21
421.189
31
0.0
0
LINE
5
5c8
8
0-2
6
CONTINUOUS
62
  7
10
1220.389
20
1208.108
30
0.0
11
1110.389
21
1208.108
31
0.0
0
LINE
5
5c9
8
0-2
6
CONTINUOUS
62
  7
10
1220.389
20
1090.541
30
0.0
11
1220.389
21
1208.108
31
0.0
0
LINE
5
5ca
8
0-2
6
CONTINUOUS
62
  7
10
1110.389
20
1090.541
30
0.0
11
1110.389
21
1208.108
31
0.0
0
LINE
5
5cb
8
0-2
6
CONTINUOUS
62
  7
10
807.923
20
1208.108
30
0.0
11
697.923
21
1208.108
31
0.0
0
LINE
5
5cc
8
0-2
6
CONTINUOUS
62
  7
10
807.923
20
1090.541
30
0.0
11
807.923
21
1208.108
31
0.0
0
LINE
5
5cd
8
0-2
6
CONTINUOUS
62
  7
10
697.923
20
1090.541
30
0.0
11
697.923
21
1208.108
31
0.0
0
LINE
5
5ce
8
0-2
6
CONTINUOUS
62
  7
10
1248.389
20
624.324
30
0.0
11
1110.389
21
624.324
31
0.0
0
LINE
5
5cf
8
0-2
6
CONTINUOUS
62
  7
10
1248.389
20
681.081
30
0.0
11
1248.389
21
624.324
31
0.0
0
LINE
5
5d0
8
0-2
6
CONTINUOUS
62
  7
10
1110.389
20
681.081
30
0.0
11
1110.389
21
624.324
31
0.0
0
LINE
5
5d1
8
0-2
6
CONTINUOUS
62
  7
10
835.923
20
624.324
30
0.0
11
697.923
21
624.324
31
0.0
0
LINE
5
5d2
8
0-2
6
CONTINUOUS
62
  7
10
835.923
20
681.081
30
0.0
11
835.923
21
624.324
31
0.0
0
LINE
5
5d3
8
0-2
6
CONTINUOUS
62
  7
10
697.923
20
681.081
30
0.0
11
697.923
21
624.324
31
0.0
0
LINE
5
5d4
8
0-2
6
CONTINUOUS
62
  7
10
1110.389
20
757.838
30
0.0
11
1239.829
21
757.838
31
0.0
0
LINE
5
5d5
8
0-2
6
CONTINUOUS
62
  7
10
490.854
20
1037.838
30
0.0
11
490.854
21
727.838
31
0.0
0
LINE
5
5d6
8
0-2
6
CONTINUOUS
62
  7
10
616.185
20
1037.838
30
0.0
11
490.854
21
1037.838
31
0.0
0
LINE
5
5d7
8
0-2
6
CONTINUOUS
62
  7
10
616.185
20
727.838
30
0.0
11
490.854
21
727.838
31
0.0
0
LINE
5
5d8
8
0-2
6
CONTINUOUS
62
  7
10
490.854
20
539.189
30
0.0
11
490.854
21
518.189
31
0.0
0
LINE
5
5d9
8
0-2
6
CONTINUOUS
62
  7
10
616.185
20
539.189
30
0.0
11
490.854
21
539.189
31
0.0
0
LINE
5
5da
8
0-2
6
CONTINUOUS
62
  7
10
616.185
20
518.189
30
0.0
11
490.854
21
518.189
31
0.0
0
LINE
5
5db
8
ADD_LINE
6
HIDDEN
62
  3
10
697.923
20
518.189
30
0.0
11
690.837
21
518.189
31
0.0
0
LINE
5
5dc
8
ADD_LINE
6
HIDDEN
62
  3
10
697.923
20
518.189
30
0.0
11
697.923
21
513.139
31
0.0
0
LINE
5
5dd
8
ADD_LINE
6
HIDDEN
62
  3
10
697.923
20
532.189
30
0.0
11
697.923
21
544.120
31
0.0
0
ARC
5
5de
8
0-0
6
CONTINUOUS
62
  7
10
710.323
20
1026.338
30
0.0
40
4.879
50
494.165833
51
225.833176
0
ARC
5
5df
8
0-0
6
CONTINUOUS
62
  7
10
814.919
20
1026.338
30
0.0
40
6.597
50
507.955872
51
212.043198
0
CIRCLE
5
5e0
8
0-0
6
CONTINUOUS
62
  7
10
744.923
20
947.838
30
0.0
40
3.000
0
CIRCLE
5
5e1
8
0-0
6
CONTINUOUS
62
  7
10
752.923
20
827.838
30
0.0
40
3.000
0
ARC
5
5e2
8
0-0
6
CONTINUOUS
62
  7
10
1108.657
20
1026.338
30
0.0
40
5.628
50
321.548889
51
398.452087
0
CIRCLE
5
5e3
8
0-0
6
CONTINUOUS
62
  7
10
1181.327
20
947.838
30
0.0
40
3.000
0
CIRCLE
5
5e4
8
0-0
6
CONTINUOUS
62
  7
10
1184.133
20
827.838
30
0.0
40
3.000
0
ARC
5
5e5
8
0-0
6
CONTINUOUS
62
  7
10
1208.357
20
1025.974
30
0.0
40
5.363
50
324.221405
51
406.100586
0
ARC
5
5e6
8
0-0
6
CONTINUOUS
62
  7
10
801.606
20
517.872
30
0.0
40
21.358
50
363.535156
51
446.464844
0
ARC
5
5e7
8
0-0
6
CONTINUOUS
62
  7
10
798.645
20
514.911
30
0.0
40
8.283
50
361.925903
51
448.074097
0
CIRCLE
5
5e8
8
ADD_LINE
6
HIDDEN
62
  3
10
697.923
20
518.189
30
0.0
40
3.000
0
TEXT
5
5e9
100
AcDbEntity
8
0-2
62
7
100
AcDbText
10
1156.014
20
1210.608
30
0.0
40
9.750
41
0.800
50
0.000
1
110
100
AcDbText
0
TEXT
5
5ea
100
AcDbEntity
8
0-2
62
7
100
AcDbText
10
743.548
20
1210.608
30
0.0
40
9.750
41
0.800
50
0.000
1
110
100
AcDbText
0
TEXT
5
5eb
100
AcDbEntity
8
0-2
62
7
100
AcDbText
10
1170.014
20
626.824
30
0.0
40
9.750
41
0.800
50
0.000
1
138
100
AcDbText
0
TEXT
5
5ec
100
AcDbEntity
8
0-2
62
7
100
AcDbText
10
757.548
20
626.824
30
0.0
40
9.750
41
0.800
50
0.000
1
138
100
AcDbText
0
TEXT
5
5ed
100
AcDbEntity
8
0-2
62
7
100
AcDbText
10
505.854
20
873.463
30
0.0
40
9.750
41
0.800
50
90.000
1
310
100
AcDbText
0
TEXT
5
5ee
100
AcDbEntity
8
0-2
62
7
100
AcDbText
10
487.258
20
522.956
30
0.0
40
9.750
41
0.800
50
90.000
1
21
100
AcDbText
0
POINT
5
5ef
8
0-2
62
  7
10
1220.389
20
1208.108
30
0.0
0
POINT
5
5f0
8
0-2
62
  7
10
1110.389
20
1208.108
30
0.0
0
POINT
5
5f1
8
0-2
62
  7
10
807.923
20
1208.108
30
0.0
0
POINT
5
5f2
8
0-2
62
  7
10
697.923
20
1208.108
30
0.0
0
POINT
5
5f3
8
0-2
62
  7
10
1248.389
20
624.324
30
0.0
0
POINT
5
5f4
8
0-2
62
  7
10
1110.389
20
624.324
30
0.0
0
POINT
5
5f5
8
0-2
62
  7
10
835.923
20
624.324
30
0.0
0
POINT
5
5f6
8
0-2
62
  7
10
697.923
20
624.324
30
0.0
0
POINT
5
5f7
8
0-2
62
  7
10
490.854
20
1037.838
30
0.0
0
POINT
5
5f8
8
0-2
62
  7
10
490.854
20
727.838
30
0.0
0
POINT
5
5f9
8
0-2
62
  7
10
490.854
20
539.189
30
0.0
0
POINT
5
5fa
8
0-2
62
  7
10
490.854
20
518.189
30
0.0
0
ENDSEC
0
EOF
