0
SECTION
2
HEADER
  9
$EXTMIN
10
0
20
0
30
0
  9
$EXTMAX
10
1494.181
20
1301.109
30
0
  9
$LTSCALE
40
5.000
  9
$DIMSCALE
40
5.000
  9
$PDMODE
70
0
  9
$PDSIZE
40
40
0
ENDSEC
0
SECTION
2
TABLES
0
TABLE
2
LTYPE
70
9
0
LTYPE
5
1f4
2
CONTINUOUS
70
0
3
実線
72
65
73
0
40
0.0
0
LTYPE
5
1f5
2
DOT
70
0
3
--  --  --  --  --  --  --  --     
72
65
73
2
40
5.000
49
1.000
49
-4.000
0
LTYPE
5
1f6
2
DASHED
70
0
3
----    ----    ----    ----    
72
65
73
2
40
5.000
49
2.000
49
-3.000
0
LTYPE
5
1f7
2
DASHED2
70
0
3
------  ------  ------  ------ 
72
65
73
2
40
10.000
49
4.000
49
-6.000
0
LTYPE
5
1f8
2
CENTER
70
0
3
----- - ----- - ----- - ----- - 
72
65
73
4
40
9.000
49
6.000
49
-1.000
49
1.000
49
-1.000
0
LTYPE
5
1f9
2
CENTER2
70
0
3
----------  --  ----------  -- 
72
65
73
4
40
18.000
49
12.000
49
-2.000
49
2.000
49
-2.000
0
LTYPE
5
1fa
2
PHANTOM
70
0
3
--- - - --- - - --- - - --- - -
72
65
73
6
40
10.000
49
5.000
49
-1.000
49
1.000
49
-1.000
49
1.000
49
-1.000
0
LTYPE
5
1fb
2
PHANTOM2
70
0
3
--------  -  -  --------  -  -
72
65
73
6
40
16.000
49
6.000
49
-2.000
49
2.000
49
-2.000
49
2.000
49
-2.000
0
LTYPE
5
1fc
2
HIDDEN
70
0
3
-   -   -   -   -   -   -   -   
72
65
73
2
40
2.500
49
0.500
49
-2.000
0
ENDTAB
0
TABLE
2
STYLE
70
1
0
STYLE
5
1fd
100
AcDbSymbolTableRecord
100
AcDbTextStyleTableRecord
2
STANDARD
70
0
40
0.0
41
1.0
50
0.0
71
0
42
0.0
3
txt.shx
4
extfont.shx
0
STYLE
5
1fe
100
AcDbSymbolTableRecord
100
AcDbTextStyleTableRecord
2
TATEGAKI
70
4
40
0.0
41
1.0
50
0.0
71
0
42
0.0
3
txt.shx
4
extfont.shx
0
STYLE
5
1ff
100
AcDbSymbolTableRecord
100
AcDbTextStyleTableRecord
2
MT
70
0
40
0.0
41
1.0
50
0.0
71
0
42
0.0
3
MS Mincho
4

0
STYLE
5
200
100
AcDbSymbolTableRecord
100
AcDbTextStyleTableRecord
2
TMT
70
4
40
0.0
41
1.0
50
0.0
71
0
42
0.0
3
@MS Mincho
4

0
ENDTAB
0
TABLE
2
LAYER
5
438d
100
AcDbSymbolTable
70
10
0
LAYER
5
438e
100
AcDbSymbolTableRecord
100
AcDbLayerTableRecord
2
0
70
64
62
  7
  6
CONTINUOUS
0
LAYER
5
438f
100
AcDbSymbolTableRecord
100
AcDbLayerTableRecord
2
0-0
70
64
62
  7
  6
CONTINUOUS
0
LAYER
5
4390
100
AcDbSymbolTableRecord
100
AcDbLayerTableRecord
2
0-1
70
64
62
  7
  6
CONTINUOUS
0
LAYER
5
4391
100
AcDbSymbolTableRecord
100
AcDbLayerTableRecord
2
0-2
70
64
62
  7
  6
CONTINUOUS
0
LAYER
5
4392
100
AcDbSymbolTableRecord
100
AcDbLayerTableRecord
2
ADD_LINE
70
64
62
  -7
  6
CONTINUOUS
0
ENDTAB
0
ENDSEC
0
SECTION
2
ENTITIES
0
LINE
5
4393
8
0-0
6
CONTINUOUS
62
  7
10
889.108
20
854.460
30
0.0
11
884.108
21
849.460
31
0.0
0
LINE
5
4394
8
0-0
6
CONTINUOUS
62
  7
10
889.108
20
854.460
30
0.0
11
758.108
21
854.460
31
0.0
0
LINE
5
4395
8
0-0
6
CONTINUOUS
62
  7
10
871.108
20
1159.459
30
0.0
11
871.108
21
969.459
31
0.0
0
LINE
5
4396
8
0-0
6
CONTINUOUS
62
  7
10
871.108
20
1159.459
30
0.0
11
758.108
21
1159.459
31
0.0
0
LINE
5
4397
8
0-0
6
CONTINUOUS
62
  7
10
884.108
20
849.460
30
0.0
11
758.108
21
849.460
31
0.0
0
LINE
5
4398
8
0-0
6
CONTINUOUS
62
  7
10
758.108
20
1159.459
30
0.0
11
758.108
21
849.460
31
0.0
0
LINE
5
4399
8
0-0
6
CONTINUOUS
62
  7
10
889.108
20
882.459
30
0.0
11
889.108
21
854.460
31
0.0
0
LINE
5
439a
8
0-0
6
CONTINUOUS
62
  7
10
866.108
20
1142.460
30
0.0
11
758.108
21
1142.460
31
0.0
0
LINE
5
439b
8
0-0
6
CONTINUOUS
62
  7
10
866.108
20
1148.460
30
0.0
11
866.108
21
1142.460
31
0.0
0
LINE
5
439c
8
0-0
6
CONTINUOUS
62
  7
10
866.108
20
1148.460
30
0.0
11
758.108
21
1148.460
31
0.0
0
LINE
5
439d
8
0-0
6
CONTINUOUS
62
  7
10
843.108
20
1123.459
30
0.0
11
834.108
21
1123.459
31
0.0
0
LINE
5
439e
8
0-0
6
CONTINUOUS
62
  7
10
843.108
20
872.460
30
0.0
11
843.039
21
871.743
31
0.0
0
LINE
5
439f
8
0-0
6
CONTINUOUS
62
  7
10
843.039
20
871.743
30
0.0
11
842.966
21
871.044
31
0.0
0
LINE
5
43a0
8
0-0
6
CONTINUOUS
62
  7
10
842.966
20
871.044
30
0.0
11
842.888
21
870.360
31
0.0
0
LINE
5
43a1
8
0-0
6
CONTINUOUS
62
  7
10
842.888
20
870.360
30
0.0
11
842.803
21
869.691
31
0.0
0
LINE
5
43a2
8
0-0
6
CONTINUOUS
62
  7
10
842.803
20
869.691
30
0.0
11
842.712
21
869.035
31
0.0
0
LINE
5
43a3
8
0-0
6
CONTINUOUS
62
  7
10
842.712
20
869.035
30
0.0
11
842.614
21
868.391
31
0.0
0
LINE
5
43a4
8
0-0
6
CONTINUOUS
62
  7
10
842.614
20
868.391
30
0.0
11
842.509
21
867.760
31
0.0
0
LINE
5
43a5
8
0-0
6
CONTINUOUS
62
  7
10
842.509
20
867.760
30
0.0
11
842.396
21
867.142
31
0.0
0
LINE
5
43a6
8
0-0
6
CONTINUOUS
62
  7
10
842.396
20
867.142
30
0.0
11
842.277
21
866.537
31
0.0
0
LINE
5
43a7
8
0-0
6
CONTINUOUS
62
  7
10
842.277
20
866.537
30
0.0
11
842.150
21
865.946
31
0.0
0
LINE
5
43a8
8
0-0
6
CONTINUOUS
62
  7
10
842.150
20
865.946
30
0.0
11
842.016
21
865.371
31
0.0
0
LINE
5
43a9
8
0-0
6
CONTINUOUS
62
  7
10
842.016
20
865.371
30
0.0
11
841.874
21
864.812
31
0.0
0
LINE
5
43aa
8
0-0
6
CONTINUOUS
62
  7
10
841.874
20
864.812
30
0.0
11
841.727
21
864.272
31
0.0
0
LINE
5
43ab
8
0-0
6
CONTINUOUS
62
  7
10
841.727
20
864.272
30
0.0
11
841.573
21
863.753
31
0.0
0
LINE
5
43ac
8
0-0
6
CONTINUOUS
62
  7
10
841.573
20
863.753
30
0.0
11
841.413
21
863.255
31
0.0
0
LINE
5
43ad
8
0-0
6
CONTINUOUS
62
  7
10
841.413
20
863.255
30
0.0
11
841.248
21
862.782
31
0.0
0
LINE
5
43ae
8
0-0
6
CONTINUOUS
62
  7
10
841.248
20
862.782
30
0.0
11
841.077
21
862.334
31
0.0
0
LINE
5
43af
8
0-0
6
CONTINUOUS
62
  7
10
841.077
20
862.334
30
0.0
11
840.901
21
861.915
31
0.0
0
LINE
5
43b0
8
0-0
6
CONTINUOUS
62
  7
10
840.901
20
861.915
30
0.0
11
840.720
21
861.524
31
0.0
0
LINE
5
43b1
8
0-0
6
CONTINUOUS
62
  7
10
840.720
20
861.524
30
0.0
11
840.535
21
861.166
31
0.0
0
LINE
5
43b2
8
0-0
6
CONTINUOUS
62
  7
10
840.535
20
861.166
30
0.0
11
840.345
21
860.840
31
0.0
0
LINE
5
43b3
8
0-0
6
CONTINUOUS
62
  7
10
840.345
20
860.840
30
0.0
11
840.151
21
860.547
31
0.0
0
LINE
5
43b4
8
0-0
6
CONTINUOUS
62
  7
10
840.151
20
860.547
30
0.0
11
839.951
21
860.289
31
0.0
0
LINE
5
43b5
8
0-0
6
CONTINUOUS
62
  7
10
839.951
20
860.289
30
0.0
11
839.747
21
860.067
31
0.0
0
LINE
5
43b6
8
0-0
6
CONTINUOUS
62
  7
10
839.747
20
860.067
30
0.0
11
839.536
21
859.879
31
0.0
0
LINE
5
43b7
8
0-0
6
CONTINUOUS
62
  7
10
839.536
20
859.879
30
0.0
11
839.318
21
859.726
31
0.0
0
LINE
5
43b8
8
0-0
6
CONTINUOUS
62
  7
10
839.318
20
859.726
30
0.0
11
839.091
21
859.606
31
0.0
0
LINE
5
43b9
8
0-0
6
CONTINUOUS
62
  7
10
839.091
20
859.606
30
0.0
11
838.856
21
859.518
31
0.0
0
LINE
5
43ba
8
0-0
6
CONTINUOUS
62
  7
10
838.856
20
859.518
30
0.0
11
838.608
21
859.459
31
0.0
0
LINE
5
43bb
8
0-0
6
CONTINUOUS
62
  7
10
834.108
20
872.460
30
0.0
11
834.177
21
871.743
31
0.0
0
LINE
5
43bc
8
0-0
6
CONTINUOUS
62
  7
10
834.177
20
871.743
30
0.0
11
834.250
21
871.044
31
0.0
0
LINE
5
43bd
8
0-0
6
CONTINUOUS
62
  7
10
834.250
20
871.044
30
0.0
11
834.329
21
870.360
31
0.0
0
LINE
5
43be
8
0-0
6
CONTINUOUS
62
  7
10
834.329
20
870.360
30
0.0
11
834.413
21
869.691
31
0.0
0
LINE
5
43bf
8
0-0
6
CONTINUOUS
62
  7
10
834.413
20
869.691
30
0.0
11
834.504
21
869.035
31
0.0
0
LINE
5
43c0
8
0-0
6
CONTINUOUS
62
  7
10
834.504
20
869.035
30
0.0
11
834.602
21
868.391
31
0.0
0
LINE
5
43c1
8
0-0
6
CONTINUOUS
62
  7
10
834.602
20
868.391
30
0.0
11
834.708
21
867.760
31
0.0
0
LINE
5
43c2
8
0-0
6
CONTINUOUS
62
  7
10
834.708
20
867.760
30
0.0
11
834.820
21
867.142
31
0.0
0
LINE
5
43c3
8
0-0
6
CONTINUOUS
62
  7
10
834.820
20
867.142
30
0.0
11
834.940
21
866.537
31
0.0
0
LINE
5
43c4
8
0-0
6
CONTINUOUS
62
  7
10
834.940
20
866.537
30
0.0
11
835.067
21
865.946
31
0.0
0
LINE
5
43c5
8
0-0
6
CONTINUOUS
62
  7
10
835.067
20
865.946
30
0.0
11
835.201
21
865.371
31
0.0
0
LINE
5
43c6
8
0-0
6
CONTINUOUS
62
  7
10
835.201
20
865.371
30
0.0
11
835.342
21
864.812
31
0.0
0
LINE
5
43c7
8
0-0
6
CONTINUOUS
62
  7
10
835.342
20
864.812
30
0.0
11
835.490
21
864.272
31
0.0
0
LINE
5
43c8
8
0-0
6
CONTINUOUS
62
  7
10
835.490
20
864.272
30
0.0
11
835.644
21
863.753
31
0.0
0
LINE
5
43c9
8
0-0
6
CONTINUOUS
62
  7
10
835.644
20
863.753
30
0.0
11
835.804
21
863.255
31
0.0
0
LINE
5
43ca
8
0-0
6
CONTINUOUS
62
  7
10
835.804
20
863.255
30
0.0
11
835.969
21
862.782
31
0.0
0
LINE
5
43cb
8
0-0
6
CONTINUOUS
62
  7
10
835.969
20
862.782
30
0.0
11
836.140
21
862.334
31
0.0
0
LINE
5
43cc
8
0-0
6
CONTINUOUS
62
  7
10
836.140
20
862.334
30
0.0
11
836.316
21
861.915
31
0.0
0
LINE
5
43cd
8
0-0
6
CONTINUOUS
62
  7
10
836.316
20
861.915
30
0.0
11
836.496
21
861.524
31
0.0
0
LINE
5
43ce
8
0-0
6
CONTINUOUS
62
  7
10
836.496
20
861.524
30
0.0
11
836.681
21
861.166
31
0.0
0
LINE
5
43cf
8
0-0
6
CONTINUOUS
62
  7
10
836.681
20
861.166
30
0.0
11
836.871
21
860.840
31
0.0
0
LINE
5
43d0
8
0-0
6
CONTINUOUS
62
  7
10
836.871
20
860.840
30
0.0
11
837.066
21
860.547
31
0.0
0
LINE
5
43d1
8
0-0
6
CONTINUOUS
62
  7
10
837.066
20
860.547
30
0.0
11
837.265
21
860.289
31
0.0
0
LINE
5
43d2
8
0-0
6
CONTINUOUS
62
  7
10
837.265
20
860.289
30
0.0
11
837.470
21
860.067
31
0.0
0
LINE
5
43d3
8
0-0
6
CONTINUOUS
62
  7
10
837.470
20
860.067
30
0.0
11
837.681
21
859.879
31
0.0
0
LINE
5
43d4
8
0-0
6
CONTINUOUS
62
  7
10
837.681
20
859.879
30
0.0
11
837.899
21
859.726
31
0.0
0
LINE
5
43d5
8
0-0
6
CONTINUOUS
62
  7
10
837.899
20
859.726
30
0.0
11
838.125
21
859.606
31
0.0
0
LINE
5
43d6
8
0-0
6
CONTINUOUS
62
  7
10
838.125
20
859.606
30
0.0
11
838.361
21
859.518
31
0.0
0
LINE
5
43d7
8
0-0
6
CONTINUOUS
62
  7
10
838.361
20
859.518
30
0.0
11
838.608
21
859.459
31
0.0
0
LINE
5
43d8
8
0-0
6
CONTINUOUS
62
  7
10
834.108
20
1123.459
30
0.0
11
834.108
21
872.460
31
0.0
0
LINE
5
43d9
8
0-0
6
CONTINUOUS
62
  7
10
843.108
20
1123.459
30
0.0
11
843.108
21
872.460
31
0.0
0
LINE
5
43da
8
0-0
6
CONTINUOUS
62
  7
10
889.108
20
872.460
30
0.0
11
843.108
21
872.460
31
0.0
0
LINE
5
43db
8
0-0
6
CONTINUOUS
62
  7
10
834.108
20
872.460
30
0.0
11
758.108
21
872.460
31
0.0
0
LINE
5
43dc
8
0-0
6
CONTINUOUS
62
  7
10
758.108
20
672.084
30
0.0
11
758.108
21
656.084
31
0.0
0
LINE
5
43dd
8
0-0
6
CONTINUOUS
62
  7
10
871.108
20
559.084
30
0.0
11
855.108
21
559.084
31
0.0
0
LINE
5
43de
8
0-0
6
CONTINUOUS
62
  7
10
855.108
20
656.084
30
0.0
11
855.108
21
559.084
31
0.0
0
LINE
5
43df
8
0-0
6
CONTINUOUS
62
  7
10
855.108
20
656.084
30
0.0
11
758.108
21
656.084
31
0.0
0
LINE
5
43e0
8
0-0
6
CONTINUOUS
62
  7
10
868.987
20
672.084
30
0.0
11
871.108
21
669.963
31
0.0
0
LINE
5
43e1
8
0-0
6
CONTINUOUS
62
  7
10
871.108
20
669.963
30
0.0
11
871.108
21
559.084
31
0.0
0
LINE
5
43e2
8
0-0
6
CONTINUOUS
62
  7
10
868.987
20
672.084
30
0.0
11
851.023
21
672.084
31
0.0
0
LINE
5
43e3
8
0-0
6
CONTINUOUS
62
  7
10
851.023
20
672.084
30
0.0
11
843.108
21
672.084
31
0.0
0
LINE
5
43e4
8
0-0
6
CONTINUOUS
62
  7
10
834.108
20
672.084
30
0.0
11
758.108
21
672.084
31
0.0
0
LINE
5
43e5
8
0-0
6
CONTINUOUS
62
  7
10
843.108
20
671.084
30
0.0
11
843.108
21
672.084
31
0.0
0
LINE
5
43e6
8
0-0
6
CONTINUOUS
62
  7
10
836.108
20
669.084
30
0.0
11
841.108
21
669.084
31
0.0
0
LINE
5
43e7
8
0-0
6
CONTINUOUS
62
  7
10
834.108
20
671.084
30
0.0
11
834.108
21
672.084
31
0.0
0
LINE
5
43e8
8
0-0
6
CONTINUOUS
62
  7
10
889.108
20
286.676
30
0.0
11
888.896
21
286.508
31
0.0
0
LINE
5
43e9
8
0-0
6
CONTINUOUS
62
  7
10
888.896
20
286.508
30
0.0
11
888.677
21
286.350
31
0.0
0
LINE
5
43ea
8
0-0
6
CONTINUOUS
62
  7
10
888.677
20
286.350
30
0.0
11
888.449
21
286.202
31
0.0
0
LINE
5
43eb
8
0-0
6
CONTINUOUS
62
  7
10
888.449
20
286.202
30
0.0
11
888.210
21
286.062
31
0.0
0
LINE
5
43ec
8
0-0
6
CONTINUOUS
62
  7
10
888.210
20
286.062
30
0.0
11
887.957
21
285.931
31
0.0
0
LINE
5
43ed
8
0-0
6
CONTINUOUS
62
  7
10
887.957
20
285.931
30
0.0
11
887.688
21
285.807
31
0.0
0
LINE
5
43ee
8
0-0
6
CONTINUOUS
62
  7
10
887.688
20
285.807
30
0.0
11
887.402
21
285.691
31
0.0
0
LINE
5
43ef
8
0-0
6
CONTINUOUS
62
  7
10
887.402
20
285.691
30
0.0
11
887.096
21
285.582
31
0.0
0
LINE
5
43f0
8
0-0
6
CONTINUOUS
62
  7
10
887.096
20
285.582
30
0.0
11
886.769
21
285.478
31
0.0
0
LINE
5
43f1
8
0-0
6
CONTINUOUS
62
  7
10
886.769
20
285.478
30
0.0
11
886.420
21
285.380
31
0.0
0
LINE
5
43f2
8
0-0
6
CONTINUOUS
62
  7
10
886.420
20
285.380
30
0.0
11
886.047
21
285.288
31
0.0
0
LINE
5
43f3
8
0-0
6
CONTINUOUS
62
  7
10
886.047
20
285.288
30
0.0
11
885.650
21
285.199
31
0.0
0
LINE
5
43f4
8
0-0
6
CONTINUOUS
62
  7
10
885.650
20
285.199
30
0.0
11
885.226
21
285.115
31
0.0
0
LINE
5
43f5
8
0-0
6
CONTINUOUS
62
  7
10
885.226
20
285.115
30
0.0
11
884.776
21
285.035
31
0.0
0
LINE
5
43f6
8
0-0
6
CONTINUOUS
62
  7
10
884.776
20
285.035
30
0.0
11
884.298
21
284.958
31
0.0
0
LINE
5
43f7
8
0-0
6
CONTINUOUS
62
  7
10
884.298
20
284.958
30
0.0
11
883.793
21
284.884
31
0.0
0
LINE
5
43f8
8
0-0
6
CONTINUOUS
62
  7
10
883.793
20
284.884
30
0.0
11
883.260
21
284.813
31
0.0
0
LINE
5
43f9
8
0-0
6
CONTINUOUS
62
  7
10
883.260
20
284.813
30
0.0
11
882.698
21
284.743
31
0.0
0
LINE
5
43fa
8
0-0
6
CONTINUOUS
62
  7
10
882.698
20
284.743
30
0.0
11
882.108
21
284.676
31
0.0
0
LINE
5
43fb
8
0-0
6
CONTINUOUS
62
  7
10
860.108
20
284.676
30
0.0
11
859.568
21
284.774
31
0.0
0
LINE
5
43fc
8
0-0
6
CONTINUOUS
62
  7
10
859.568
20
284.774
30
0.0
11
859.036
21
284.879
31
0.0
0
LINE
5
43fd
8
0-0
6
CONTINUOUS
62
  7
10
859.036
20
284.879
30
0.0
11
858.517
21
284.991
31
0.0
0
LINE
5
43fe
8
0-0
6
CONTINUOUS
62
  7
10
858.517
20
284.991
30
0.0
11
858.011
21
285.109
31
0.0
0
LINE
5
43ff
8
0-0
6
CONTINUOUS
62
  7
10
858.011
20
285.109
30
0.0
11
857.520
21
285.235
31
0.0
0
LINE
5
4400
8
0-0
6
CONTINUOUS
62
  7
10
857.520
20
285.235
30
0.0
11
857.047
21
285.368
31
0.0
0
LINE
5
4401
8
0-0
6
CONTINUOUS
62
  7
10
857.047
20
285.368
30
0.0
11
856.593
21
285.507
31
0.0
0
LINE
5
4402
8
0-0
6
CONTINUOUS
62
  7
10
856.593
20
285.507
30
0.0
11
856.159
21
285.654
31
0.0
0
LINE
5
4403
8
0-0
6
CONTINUOUS
62
  7
10
856.159
20
285.654
30
0.0
11
855.749
21
285.807
31
0.0
0
LINE
5
4404
8
0-0
6
CONTINUOUS
62
  7
10
855.749
20
285.807
30
0.0
11
855.364
21
285.967
31
0.0
0
LINE
5
4405
8
0-0
6
CONTINUOUS
62
  7
10
855.364
20
285.967
30
0.0
11
855.005
21
286.134
31
0.0
0
LINE
5
4406
8
0-0
6
CONTINUOUS
62
  7
10
855.005
20
286.134
30
0.0
11
854.675
21
286.308
31
0.0
0
LINE
5
4407
8
0-0
6
CONTINUOUS
62
  7
10
854.675
20
286.308
30
0.0
11
854.375
21
286.488
31
0.0
0
LINE
5
4408
8
0-0
6
CONTINUOUS
62
  7
10
854.375
20
286.488
30
0.0
11
854.108
21
286.676
31
0.0
0
LINE
5
4409
8
0-0
6
CONTINUOUS
62
  7
10
889.108
20
425.676
30
0.0
11
889.108
21
286.676
31
0.0
0
LINE
5
440a
8
0-0
6
CONTINUOUS
62
  7
10
882.108
20
284.676
30
0.0
11
860.108
21
284.676
31
0.0
0
LINE
5
440b
8
0-0
6
CONTINUOUS
62
  7
10
854.108
20
286.676
30
0.0
11
758.108
21
387.676
31
0.0
0
LINE
5
440c
8
0-0
6
CONTINUOUS
62
  7
10
882.108
20
416.676
30
0.0
11
882.108
21
284.676
31
0.0
0
LINE
5
440d
8
0-0
6
CONTINUOUS
62
  7
10
882.108
20
416.676
30
0.0
11
758.108
21
416.676
31
0.0
0
LINE
5
440e
8
0-0
6
CONTINUOUS
62
  7
10
758.108
20
416.676
30
0.0
11
758.108
21
387.676
31
0.0
0
LINE
5
440f
8
0-0
6
CONTINUOUS
62
  7
10
889.108
20
425.676
30
0.0
11
761.108
21
425.676
31
0.0
0
LINE
5
4410
8
0-0
6
CONTINUOUS
62
  7
10
761.108
20
425.676
30
0.0
11
758.108
21
416.676
31
0.0
0
LINE
5
4411
8
0-2
6
CONTINUOUS
62
  7
10
871.108
20
1289.189
30
0.0
11
758.108
21
1289.189
31
0.0
0
LINE
5
4412
8
0-2
6
CONTINUOUS
62
  7
10
871.108
20
1195.946
30
0.0
11
871.108
21
1289.189
31
0.0
0
LINE
5
4413
8
0-2
6
CONTINUOUS
62
  7
10
758.108
20
1195.946
30
0.0
11
758.108
21
1289.189
31
0.0
0
LINE
5
4414
8
0-2
6
CONTINUOUS
62
  7
10
889.108
20
762.162
30
0.0
11
758.108
21
762.162
31
0.0
0
LINE
5
4415
8
0-2
6
CONTINUOUS
62
  7
10
889.108
20
814.865
30
0.0
11
889.108
21
762.162
31
0.0
0
LINE
5
4416
8
0-2
6
CONTINUOUS
62
  7
10
758.108
20
814.865
30
0.0
11
758.108
21
762.162
31
0.0
0
LINE
5
4417
8
0-2
6
CONTINUOUS
62
  7
10
871.108
20
717.568
30
0.0
11
758.108
21
717.568
31
0.0
0
LINE
5
4418
8
0-2
6
CONTINUOUS
62
  7
10
871.108
20
685.135
30
0.0
11
871.108
21
717.568
31
0.0
0
LINE
5
4419
8
0-2
6
CONTINUOUS
62
  7
10
758.108
20
685.135
30
0.0
11
758.108
21
717.568
31
0.0
0
LINE
5
441a
8
0-2
6
CONTINUOUS
62
  7
10
871.108
20
522.633
30
0.0
11
855.108
21
522.633
31
0.0
0
LINE
5
441b
8
0-2
6
CONTINUOUS
62
  7
10
871.108
20
543.505
30
0.0
11
871.108
21
522.633
31
0.0
0
LINE
5
441c
8
0-2
6
CONTINUOUS
62
  7
10
855.108
20
543.505
30
0.0
11
855.108
21
522.633
31
0.0
0
LINE
5
441d
8
0-2
6
CONTINUOUS
62
  7
10
889.108
20
482.432
30
0.0
11
758.108
21
482.432
31
0.0
0
LINE
5
441e
8
0-2
6
CONTINUOUS
62
  7
10
889.108
20
445.946
30
0.0
11
889.108
21
482.432
31
0.0
0
LINE
5
441f
8
0-2
6
CONTINUOUS
62
  7
10
758.108
20
445.946
30
0.0
11
758.108
21
482.432
31
0.0
0
LINE
5
4420
8
0-2
6
CONTINUOUS
62
  7
10
1005.405
20
284.676
30
0.0
11
1005.405
21
425.676
31
0.0
0
LINE
5
4421
8
0-2
6
CONTINUOUS
62
  7
10
932.432
20
284.676
30
0.0
11
1005.405
21
284.676
31
0.0
0
LINE
5
4422
8
0-2
6
CONTINUOUS
62
  7
10
932.432
20
425.676
30
0.0
11
1005.405
21
425.676
31
0.0
0
LINE
5
4423
8
0-2
6
CONTINUOUS
62
  7
10
591.892
20
1159.459
30
0.0
11
591.892
21
849.460
31
0.0
0
LINE
5
4424
8
0-2
6
CONTINUOUS
62
  7
10
701.351
20
1159.459
30
0.0
11
591.892
21
1159.459
31
0.0
0
LINE
5
4425
8
0-2
6
CONTINUOUS
62
  7
10
701.351
20
849.460
30
0.0
11
591.892
21
849.460
31
0.0
0
LINE
5
4426
8
0-2
6
CONTINUOUS
62
  7
10
591.892
20
425.676
30
0.0
11
591.892
21
387.676
31
0.0
0
LINE
5
4427
8
0-2
6
CONTINUOUS
62
  7
10
701.351
20
425.676
30
0.0
11
591.892
21
425.676
31
0.0
0
LINE
5
4428
8
0-2
6
CONTINUOUS
62
  7
10
701.351
20
387.676
30
0.0
11
591.892
21
387.676
31
0.0
0
LINE
5
4429
8
0-0
6
CONTINUOUS
62
  7
10
887.108
20
882.109
30
0.0
11
887.108
21
854.460
31
0.0
0
LINE
5
442a
8
0-0
6
CONTINUOUS
62
  7
10
869.108
20
1159.459
30
0.0
11
869.108
21
969.400
31
0.0
0
LINE
5
442b
8
ADD_LINE
6
HIDDEN
62
  3
10
758.108
20
849.460
30
0.0
11
744.678
21
849.460
31
0.0
0
LINE
5
442c
8
ADD_LINE
6
HIDDEN
62
  3
10
758.108
20
849.460
30
0.0
11
758.108
21
837.581
31
0.0
0
LINE
5
442d
8
0-0
6
CONTINUOUS
62
  7
10
1264.865
20
1159.459
30
0.0
11
1379.865
21
1159.459
31
0.0
0
LINE
5
442e
8
0-0
6
CONTINUOUS
62
  7
10
1379.865
20
849.460
30
0.0
11
1270.865
21
849.460
31
0.0
0
LINE
5
442f
8
0-0
6
CONTINUOUS
62
  7
10
1264.865
20
869.460
30
0.0
11
1270.865
21
849.460
31
0.0
0
LINE
5
4430
8
0-0
6
CONTINUOUS
62
  7
10
1264.865
20
1159.459
30
0.0
11
1264.865
21
869.460
31
0.0
0
LINE
5
4431
8
0-0
6
CONTINUOUS
62
  7
10
1379.865
20
849.460
30
0.0
11
1405.865
21
849.460
31
0.0
0
LINE
5
4432
8
0-0
6
CONTINUOUS
62
  7
10
1379.865
20
1159.459
30
0.0
11
1405.865
21
849.460
31
0.0
0
LINE
5
4433
8
0-0
6
CONTINUOUS
62
  7
10
1403.097
20
882.460
30
0.0
11
1264.865
21
882.460
31
0.0
0
LINE
5
4434
8
0-0
6
CONTINUOUS
62
  7
10
1264.865
20
1148.460
30
0.0
11
1375.865
21
1148.460
31
0.0
0
LINE
5
4435
8
0-0
6
CONTINUOUS
62
  7
10
1375.865
20
1148.460
30
0.0
11
1375.865
21
1142.460
31
0.0
0
LINE
5
4436
8
0-0
6
CONTINUOUS
62
  7
10
1264.865
20
1142.460
30
0.0
11
1375.865
21
1142.460
31
0.0
0
LINE
5
4437
8
0-0
6
CONTINUOUS
62
  7
10
1266.365
20
869.680
30
0.0
11
1272.431
21
849.460
31
0.0
0
LINE
5
4438
8
0-0
6
CONTINUOUS
62
  7
10
1266.365
20
1159.459
30
0.0
11
1266.365
21
1148.460
31
0.0
0
LINE
5
4439
8
0-0
6
CONTINUOUS
62
  7
10
1266.365
20
1142.460
30
0.0
11
1266.365
21
869.680
31
0.0
0
LINE
5
443a
8
0-2
6
CONTINUOUS
62
  7
10
1379.865
20
1289.189
30
0.0
11
1264.865
21
1289.189
31
0.0
0
LINE
5
443b
8
0-2
6
CONTINUOUS
62
  7
10
1379.865
20
1195.946
30
0.0
11
1379.865
21
1289.189
31
0.0
0
LINE
5
443c
8
0-2
6
CONTINUOUS
62
  7
10
1264.865
20
1195.946
30
0.0
11
1264.865
21
1289.189
31
0.0
0
LINE
5
443d
8
0-2
6
CONTINUOUS
62
  7
10
1405.865
20
762.162
30
0.0
11
1264.865
21
762.162
31
0.0
0
LINE
5
443e
8
0-2
6
CONTINUOUS
62
  7
10
1405.865
20
814.865
30
0.0
11
1405.865
21
762.162
31
0.0
0
LINE
5
443f
8
0-2
6
CONTINUOUS
62
  7
10
1264.865
20
814.865
30
0.0
11
1264.865
21
762.162
31
0.0
0
LINE
5
4440
8
0-2
6
CONTINUOUS
62
  7
10
1159.459
20
849.460
30
0.0
11
1159.459
21
1159.459
31
0.0
0
LINE
5
4441
8
0-2
6
CONTINUOUS
62
  7
10
1232.432
20
849.460
30
0.0
11
1159.459
21
849.460
31
0.0
0
LINE
5
4442
8
0-2
6
CONTINUOUS
62
  7
10
1232.432
20
1159.459
30
0.0
11
1159.459
21
1159.459
31
0.0
0
ARC
5
4443
8
0-0
6
CONTINUOUS
62
  7
10
1181.359
20
988.287
30
0.0
40
310.822
50
183.472794
51
199.905975
0
CIRCLE
5
4444
8
0-0
6
CONTINUOUS
62
  7
10
828.108
20
1069.459
30
0.0
40
3.000
0
CIRCLE
5
4445
8
0-0
6
CONTINUOUS
62
  7
10
828.108
20
959.460
30
0.0
40
3.000
0
ARC
5
4446
8
0-0
6
CONTINUOUS
62
  7
10
841.108
20
671.084
30
0.0
40
2.000
50
270.000000
51
360.000000
0
ARC
5
4447
8
0-0
6
CONTINUOUS
62
  7
10
836.108
20
671.084
30
0.0
40
2.000
50
540.000000
51
270.000000
0
ARC
5
4448
8
0-0
6
CONTINUOUS
62
  7
10
1181.359
20
988.287
30
0.0
40
312.822
50
183.461517
51
199.841583
0
CIRCLE
5
4449
8
ADD_LINE
6
HIDDEN
62
  3
10
758.108
20
849.460
30
0.0
40
3.000
0
CIRCLE
5
444a
8
0-0
6
CONTINUOUS
62
  7
10
1329.865
20
1069.459
30
0.0
40
3.000
0
CIRCLE
5
444b
8
0-0
6
CONTINUOUS
62
  7
10
1329.865
20
969.459
30
0.0
40
3.000
0
TEXT
5
444c
100
AcDbEntity
8
0-2
62
7
100
AcDbText
10
805.233
20
1291.689
30
0.0
40
9.750
41
0.800
50
0.000
1
113
100
AcDbText
0
TEXT
5
444d
100
AcDbEntity
8
0-2
62
7
100
AcDbText
10
814.233
20
764.662
30
0.0
40
9.750
41
0.800
50
0.000
1
131
100
AcDbText
0
TEXT
5
444e
100
AcDbEntity
8
0-2
62
7
100
AcDbText
10
805.233
20
720.068
30
0.0
40
9.750
41
0.800
50
0.000
1
113
100
AcDbText
0
TEXT
5
444f
100
AcDbEntity
8
0-2
62
7
100
AcDbText
10
856.858
20
525.133
30
0.0
40
9.750
41
0.800
50
0.000
1
16
100
AcDbText
0
TEXT
5
4450
100
AcDbEntity
8
0-2
62
7
100
AcDbText
10
814.233
20
484.932
30
0.0
40
9.750
41
0.800
50
0.000
1
131
100
AcDbText
0
TEXT
5
4451
100
AcDbEntity
8
0-2
62
7
100
AcDbText
10
1002.905
20
345.801
30
0.0
40
9.750
41
0.800
50
90.000
1
141
100
AcDbText
0
TEXT
5
4452
100
AcDbEntity
8
0-2
62
7
100
AcDbText
10
589.392
20
995.084
30
0.0
40
9.750
41
0.800
50
90.000
1
310
100
AcDbText
0
TEXT
5
4453
100
AcDbEntity
8
0-2
62
7
100
AcDbText
10
589.392
20
400.426
30
0.0
40
9.750
41
0.800
50
90.000
1
38
100
AcDbText
0
TEXT
5
4454
100
AcDbEntity
8
0-2
62
7
100
AcDbText
10
1312.990
20
1291.689
30
0.0
40
9.750
41
0.800
50
0.000
1
115
100
AcDbText
0
TEXT
5
4455
100
AcDbEntity
8
0-2
62
7
100
AcDbText
10
1325.990
20
764.662
30
0.0
40
9.750
41
0.800
50
0.000
1
141
100
AcDbText
0
TEXT
5
4456
100
AcDbEntity
8
0-2
62
7
100
AcDbText
10
1156.959
20
995.084
30
0.0
40
9.750
41
0.800
50
90.000
1
310
100
AcDbText
0
POINT
5
4457
8
0-2
62
  7
10
871.108
20
1289.189
30
0.0
0
POINT
5
4458
8
0-2
62
  7
10
758.108
20
1289.189
30
0.0
0
POINT
5
4459
8
0-2
62
  7
10
889.108
20
762.162
30
0.0
0
POINT
5
445a
8
0-2
62
  7
10
758.108
20
762.162
30
0.0
0
POINT
5
445b
8
0-2
62
  7
10
871.108
20
717.568
30
0.0
0
POINT
5
445c
8
0-2
62
  7
10
758.108
20
717.568
30
0.0
0
POINT
5
445d
8
0-2
62
  7
10
871.108
20
522.633
30
0.0
0
POINT
5
445e
8
0-2
62
  7
10
855.108
20
522.633
30
0.0
0
POINT
5
445f
8
0-2
62
  7
10
889.108
20
482.432
30
0.0
0
POINT
5
4460
8
0-2
62
  7
10
758.108
20
482.432
30
0.0
0
POINT
5
4461
8
0-2
62
  7
10
1005.405
20
284.676
30
0.0
0
POINT
5
4462
8
0-2
62
  7
10
1005.405
20
425.676
30
0.0
0
POINT
5
4463
8
0-2
62
  7
10
591.892
20
1159.459
30
0.0
0
POINT
5
4464
8
0-2
62
  7
10
591.892
20
849.460
30
0.0
0
POINT
5
4465
8
0-2
62
  7
10
591.892
20
425.676
30
0.0
0
POINT
5
4466
8
0-2
62
  7
10
591.892
20
387.676
30
0.0
0
POINT
5
4467
8
0-2
62
  7
10
1379.865
20
1289.189
30
0.0
0
POINT
5
4468
8
0-2
62
  7
10
1264.865
20
1289.189
30
0.0
0
POINT
5
4469
8
0-2
62
  7
10
1405.865
20
762.162
30
0.0
0
POINT
5
446a
8
0-2
62
  7
10
1264.865
20
762.162
30
0.0
0
POINT
5
446b
8
0-2
62
  7
10
1159.459
20
849.460
30
0.0
0
POINT
5
446c
8
0-2
62
  7
10
1159.459
20
1159.459
30
0.0
0
ENDSEC
0
EOF
