0
SECTION
2
HEADER
  9
$EXTMIN
10
0
20
0
30
0
  9
$EXTMAX
10
1481.657
20
1243.041
30
0
  9
$LTSCALE
40
5.000
  9
$DIMSCALE
40
5.000
  9
$PDMODE
70
0
  9
$PDSIZE
40
40
0
ENDSEC
0
SECTION
2
TABLES
0
TABLE
2
LTYPE
70
9
0
LTYPE
5
1f4
2
CONTINUOUS
70
0
3
実線
72
65
73
0
40
0.0
0
LTYPE
5
1f5
2
DOT
70
0
3
--  --  --  --  --  --  --  --     
72
65
73
2
40
5.000
49
1.000
49
-4.000
0
LTYPE
5
1f6
2
DASHED
70
0
3
----    ----    ----    ----    
72
65
73
2
40
5.000
49
2.000
49
-3.000
0
LTYPE
5
1f7
2
DASHED2
70
0
3
------  ------  ------  ------ 
72
65
73
2
40
10.000
49
4.000
49
-6.000
0
LTYPE
5
1f8
2
CENTER
70
0
3
----- - ----- - ----- - ----- - 
72
65
73
4
40
9.000
49
6.000
49
-1.000
49
1.000
49
-1.000
0
LTYPE
5
1f9
2
CENTER2
70
0
3
----------  --  ----------  -- 
72
65
73
4
40
18.000
49
12.000
49
-2.000
49
2.000
49
-2.000
0
LTYPE
5
1fa
2
PHANTOM
70
0
3
--- - - --- - - --- - - --- - -
72
65
73
6
40
10.000
49
5.000
49
-1.000
49
1.000
49
-1.000
49
1.000
49
-1.000
0
LTYPE
5
1fb
2
PHANTOM2
70
0
3
--------  -  -  --------  -  -
72
65
73
6
40
16.000
49
6.000
49
-2.000
49
2.000
49
-2.000
49
2.000
49
-2.000
0
LTYPE
5
1fc
2
HIDDEN
70
0
3
-   -   -   -   -   -   -   -   
72
65
73
2
40
2.500
49
0.500
49
-2.000
0
ENDTAB
0
TABLE
2
STYLE
70
1
0
STYLE
5
1fd
100
AcDbSymbolTableRecord
100
AcDbTextStyleTableRecord
2
STANDARD
70
0
40
0.0
41
1.0
50
0.0
71
0
42
0.0
3
txt.shx
4
extfont.shx
0
STYLE
5
1fe
100
AcDbSymbolTableRecord
100
AcDbTextStyleTableRecord
2
TATEGAKI
70
4
40
0.0
41
1.0
50
0.0
71
0
42
0.0
3
txt.shx
4
extfont.shx
0
STYLE
5
1ff
100
AcDbSymbolTableRecord
100
AcDbTextStyleTableRecord
2
MT
70
0
40
0.0
41
1.0
50
0.0
71
0
42
0.0
3
MS Mincho
4

0
STYLE
5
200
100
AcDbSymbolTableRecord
100
AcDbTextStyleTableRecord
2
TMT
70
4
40
0.0
41
1.0
50
0.0
71
0
42
0.0
3
@MS Mincho
4

0
ENDTAB
0
TABLE
2
LAYER
5
8d8
100
AcDbSymbolTable
70
10
0
LAYER
5
8d9
100
AcDbSymbolTableRecord
100
AcDbLayerTableRecord
2
0
70
64
62
  7
  6
CONTINUOUS
0
LAYER
5
8da
100
AcDbSymbolTableRecord
100
AcDbLayerTableRecord
2
0-0
70
64
62
  7
  6
CONTINUOUS
0
LAYER
5
8db
100
AcDbSymbolTableRecord
100
AcDbLayerTableRecord
2
0-1
70
64
62
  7
  6
CONTINUOUS
0
LAYER
5
8dc
100
AcDbSymbolTableRecord
100
AcDbLayerTableRecord
2
0-2
70
64
62
  7
  6
CONTINUOUS
0
LAYER
5
8dd
100
AcDbSymbolTableRecord
100
AcDbLayerTableRecord
2
ADD_LINE
70
64
62
  -7
  6
CONTINUOUS
0
ENDTAB
0
ENDSEC
0
SECTION
2
ENTITIES
0
LINE
5
8de
8
0-0
6
CONTINUOUS
62
  7
10
997.676
20
1102.703
30
0.0
11
875.676
21
1102.703
31
0.0
0
LINE
5
8df
8
0-0
6
CONTINUOUS
62
  7
10
875.676
20
1102.703
30
0.0
11
875.676
21
742.703
31
0.0
0
LINE
5
8e0
8
0-0
6
CONTINUOUS
62
  7
10
997.676
20
1102.703
30
0.0
11
998.609
21
1090.703
31
0.0
0
LINE
5
8e1
8
0-0
6
CONTINUOUS
62
  7
10
998.998
20
1085.703
30
0.0
11
1000.165
21
1070.703
31
0.0
0
LINE
5
8e2
8
0-0
6
CONTINUOUS
62
  7
10
890.676
20
1102.703
30
0.0
11
888.676
21
766.703
31
0.0
0
LINE
5
8e3
8
0-0
6
CONTINUOUS
62
  7
10
1012.676
20
742.703
30
0.0
11
875.676
21
742.703
31
0.0
0
LINE
5
8e4
8
0-0
6
CONTINUOUS
62
  7
10
998.609
20
1090.703
30
0.0
11
888.104
21
1090.703
31
0.0
0
LINE
5
8e5
8
0-0
6
CONTINUOUS
62
  7
10
998.998
20
1085.703
30
0.0
11
888.104
21
1085.703
31
0.0
0
LINE
5
8e6
8
0-0
6
CONTINUOUS
62
  7
10
1000.165
20
1070.703
30
0.0
11
887.985
21
1070.703
31
0.0
0
LINE
5
8e7
8
0-0
6
CONTINUOUS
62
  7
10
1000.553
20
1065.703
30
0.0
11
887.985
21
1065.703
31
0.0
0
LINE
5
8e8
8
0-0
6
CONTINUOUS
62
  7
10
1022.693
20
764.296
30
0.0
11
1012.676
21
742.703
31
0.0
0
LINE
5
8e9
8
0-0
6
CONTINUOUS
62
  7
10
1000.553
20
1065.703
30
0.0
11
1023.585
21
769.586
31
0.0
0
LINE
5
8ea
8
0-0
6
CONTINUOUS
62
  7
10
1023.431
20
766.681
30
0.0
11
886.907
21
758.703
31
0.0
0
LINE
5
8eb
8
0-0
6
CONTINUOUS
62
  7
10
1386.865
20
1102.703
30
0.0
11
1414.865
21
742.703
31
0.0
0
LINE
5
8ec
8
0-0
6
CONTINUOUS
62
  7
10
1264.865
20
1102.703
30
0.0
11
1386.865
21
1102.703
31
0.0
0
LINE
5
8ed
8
0-0
6
CONTINUOUS
62
  7
10
1371.820
20
1102.703
30
0.0
11
1399.998
21
766.703
31
0.0
0
LINE
5
8ee
8
0-0
6
CONTINUOUS
62
  7
10
1277.865
20
742.703
30
0.0
11
1414.865
21
742.703
31
0.0
0
LINE
5
8ef
8
0-0
6
CONTINUOUS
62
  7
10
1401.342
20
758.703
30
0.0
11
1264.942
21
766.698
31
0.0
0
LINE
5
8f0
8
0-0
6
CONTINUOUS
62
  7
10
1265.136
20
766.203
30
0.0
11
1277.865
21
742.703
31
0.0
0
LINE
5
8f1
8
0-0
6
CONTINUOUS
62
  7
10
1264.865
20
1090.703
30
0.0
11
1375.745
21
1090.703
31
0.0
0
LINE
5
8f2
8
0-0
6
CONTINUOUS
62
  7
10
1264.865
20
1085.703
30
0.0
11
1375.745
21
1085.703
31
0.0
0
LINE
5
8f3
8
0-0
6
CONTINUOUS
62
  7
10
1388.187
20
1085.703
30
0.0
11
1388.187
21
1085.703
31
0.0
0
LINE
5
8f4
8
0-0
6
CONTINUOUS
62
  7
10
1264.865
20
1070.703
30
0.0
11
1377.423
21
1070.703
31
0.0
0
LINE
5
8f5
8
0-0
6
CONTINUOUS
62
  7
10
1264.865
20
1065.703
30
0.0
11
1377.423
21
1065.703
31
0.0
0
LINE
5
8f6
8
0-0
6
CONTINUOUS
62
  7
10
1264.865
20
1102.703
30
0.0
11
1264.865
21
1090.703
31
0.0
0
LINE
5
8f7
8
0-0
6
CONTINUOUS
62
  7
10
1264.865
20
1085.703
30
0.0
11
1264.865
21
1070.703
31
0.0
0
LINE
5
8f8
8
0-0
6
CONTINUOUS
62
  7
10
1264.865
20
1065.703
30
0.0
11
1264.865
21
767.130
31
0.0
0
LINE
5
8f9
8
0-0
6
CONTINUOUS
62
  7
10
888.676
20
444.177
30
0.0
11
875.676
21
434.177
31
0.0
0
LINE
5
8fa
8
0-0
6
CONTINUOUS
62
  7
10
885.676
20
422.177
30
0.0
11
896.676
21
429.177
31
0.0
0
LINE
5
8fb
8
0-0
6
CONTINUOUS
62
  7
10
875.676
20
422.177
30
0.0
11
885.676
21
422.177
31
0.0
0
LINE
5
8fc
8
0-0
6
CONTINUOUS
62
  7
10
875.676
20
434.177
30
0.0
11
875.676
21
422.177
31
0.0
0
LINE
5
8fd
8
0-0
6
CONTINUOUS
62
  7
10
1003.676
20
304.177
30
0.0
11
1003.676
21
294.177
31
0.0
0
LINE
5
8fe
8
0-0
6
CONTINUOUS
62
  7
10
1003.676
20
294.177
30
0.0
11
1015.676
21
294.177
31
0.0
0
LINE
5
8ff
8
0-0
6
CONTINUOUS
62
  7
10
1025.676
20
307.177
30
0.0
11
1015.676
21
294.177
31
0.0
0
LINE
5
900
8
0-0
6
CONTINUOUS
62
  7
10
1010.676
20
315.177
30
0.0
11
1003.676
21
304.177
31
0.0
0
LINE
5
901
8
0-0
6
CONTINUOUS
62
  7
10
896.676
20
429.177
30
0.0
11
998.810
21
429.177
31
0.0
0
LINE
5
902
8
0-0
6
CONTINUOUS
62
  7
10
1010.676
20
417.313
30
0.0
11
1010.676
21
315.177
31
0.0
0
LINE
5
903
8
0-0
6
CONTINUOUS
62
  7
10
888.676
20
444.177
30
0.0
11
1006.065
21
444.177
31
0.0
0
LINE
5
904
8
0-0
6
CONTINUOUS
62
  7
10
1025.676
20
422.964
30
0.0
11
1025.676
21
307.177
31
0.0
0
LINE
5
905
8
0-2
6
CONTINUOUS
62
  7
10
1386.865
20
1240.541
30
0.0
11
1264.865
21
1240.541
31
0.0
0
LINE
5
906
8
0-2
6
CONTINUOUS
62
  7
10
1386.865
20
1153.175
30
0.0
11
1386.865
21
1240.541
31
0.0
0
LINE
5
907
8
0-2
6
CONTINUOUS
62
  7
10
1264.865
20
1153.175
30
0.0
11
1264.865
21
1240.541
31
0.0
0
LINE
5
908
8
0-2
6
CONTINUOUS
62
  7
10
997.676
20
1240.541
30
0.0
11
875.676
21
1240.541
31
0.0
0
LINE
5
909
8
0-2
6
CONTINUOUS
62
  7
10
997.676
20
1153.175
30
0.0
11
997.676
21
1240.541
31
0.0
0
LINE
5
90a
8
0-2
6
CONTINUOUS
62
  7
10
875.676
20
1153.175
30
0.0
11
875.676
21
1240.541
31
0.0
0
LINE
5
90b
8
0-2
6
CONTINUOUS
62
  7
10
1414.865
20
621.440
30
0.0
11
1264.865
21
621.440
31
0.0
0
LINE
5
90c
8
0-2
6
CONTINUOUS
62
  7
10
1414.865
20
690.060
30
0.0
11
1414.865
21
621.440
31
0.0
0
LINE
5
90d
8
0-2
6
CONTINUOUS
62
  7
10
1264.865
20
690.060
30
0.0
11
1264.865
21
621.440
31
0.0
0
LINE
5
90e
8
0-2
6
CONTINUOUS
62
  7
10
1025.676
20
621.440
30
0.0
11
875.676
21
621.440
31
0.0
0
LINE
5
90f
8
0-2
6
CONTINUOUS
62
  7
10
1025.676
20
690.060
30
0.0
11
1025.676
21
621.440
31
0.0
0
LINE
5
910
8
0-2
6
CONTINUOUS
62
  7
10
875.676
20
690.060
30
0.0
11
875.676
21
621.440
31
0.0
0
LINE
5
911
8
0-2
6
CONTINUOUS
62
  7
10
1025.676
20
534.346
30
0.0
11
875.676
21
534.346
31
0.0
0
LINE
5
912
8
0-2
6
CONTINUOUS
62
  7
10
1025.676
20
471.005
30
0.0
11
1025.676
21
534.346
31
0.0
0
LINE
5
913
8
0-2
6
CONTINUOUS
62
  7
10
875.676
20
471.005
30
0.0
11
875.676
21
534.346
31
0.0
0
LINE
5
914
8
0-2
6
CONTINUOUS
62
  7
10
1010.676
20
373.660
30
0.0
11
1025.676
21
373.660
31
0.0
0
LINE
5
915
8
0-2
6
CONTINUOUS
62
  7
10
1010.676
20
350.457
30
0.0
11
1010.676
21
373.660
31
0.0
0
LINE
5
916
8
0-2
6
CONTINUOUS
62
  7
10
1025.676
20
350.457
30
0.0
11
1025.676
21
373.660
31
0.0
0
LINE
5
917
8
0-2
6
CONTINUOUS
62
  7
10
648.649
20
1102.703
30
0.0
11
648.649
21
742.703
31
0.0
0
LINE
5
918
8
0-2
6
CONTINUOUS
62
  7
10
794.595
20
1102.703
30
0.0
11
648.649
21
1102.703
31
0.0
0
LINE
5
919
8
0-2
6
CONTINUOUS
62
  7
10
794.595
20
742.703
30
0.0
11
648.649
21
742.703
31
0.0
0
LINE
5
91a
8
0-2
6
CONTINUOUS
62
  7
10
794.595
20
444.177
30
0.0
11
648.649
21
444.177
31
0.0
0
LINE
5
91b
8
0-2
6
CONTINUOUS
62
  7
10
794.595
20
294.177
30
0.0
11
648.649
21
294.177
31
0.0
0
LINE
5
91c
8
ADD_LINE
6
HIDDEN
62
  3
10
875.676
20
742.703
30
0.0
11
875.676
21
719.716
31
0.0
0
LINE
5
91d
8
ADD_LINE
6
HIDDEN
62
  3
10
875.676
20
742.703
30
0.0
11
855.672
21
742.703
31
0.0
0
LINE
5
91e
8
0-2
6
CONTINUOUS
62
  7
10
648.649
20
444.177
30
0.0
11
648.649
21
294.177
31
0.0
0
ARC
5
91f
8
0-0
6
CONTINUOUS
62
  7
10
999.057
20
1088.223
30
0.0
40
2.520
50
460.244202
51
268.649933
0
ARC
5
920
8
0-0
6
CONTINUOUS
62
  7
10
1000.647
20
1068.225
30
0.0
40
2.524
50
461.023010
51
267.870789
0
ARC
5
921
8
0-0
6
CONTINUOUS
62
  7
10
807.289
20
780.498
30
0.0
40
82.547
50
332.750671
51
350.379517
0
ARC
5
922
8
0-0
6
CONTINUOUS
62
  7
10
888.104
20
1088.203
30
0.0
40
2.500
50
450.000000
51
270.000000
0
ARC
5
923
8
0-0
6
CONTINUOUS
62
  7
10
887.985
20
1068.203
30
0.0
40
2.500
50
450.000000
51
270.000000
0
CIRCLE
5
924
8
0-0
6
CONTINUOUS
62
  7
10
962.676
20
1077.703
30
0.0
40
3.000
0
ARC
5
925
8
0-0
6
CONTINUOUS
62
  7
10
1012.660
20
768.708
30
0.0
40
10.960
50
336.261810
51
364.595520
0
ARC
5
926
8
0-0
6
CONTINUOUS
62
  7
10
1264.865
20
1088.203
30
0.0
40
2.500
50
270.000000
51
450.000000
0
ARC
5
927
8
0-0
6
CONTINUOUS
62
  7
10
1264.865
20
1068.203
30
0.0
40
2.500
50
270.000000
51
450.000000
0
ARC
5
928
8
0-0
6
CONTINUOUS
62
  7
10
1440.782
20
769.441
30
0.0
40
40.875
50
183.841293
51
220.854889
0
ARC
5
929
8
0-0
6
CONTINUOUS
62
  7
10
1267.341
20
767.350
30
0.0
40
2.485
50
185.067764
51
207.479645
0
ARC
5
92a
8
0-0
6
CONTINUOUS
62
  7
10
1375.745
20
1088.203
30
0.0
40
2.500
50
270.000000
51
450.000000
0
ARC
5
92b
8
0-0
6
CONTINUOUS
62
  7
10
1377.423
20
1068.203
30
0.0
40
2.500
50
270.000000
51
450.000000
0
CIRCLE
5
92c
8
0-0
6
CONTINUOUS
62
  7
10
1351.492
20
912.703
30
0.0
40
3.000
0
CIRCLE
5
92d
8
0-0
6
CONTINUOUS
62
  7
10
1358.492
20
822.703
30
0.0
40
3.000
0
ARC
5
92e
8
0-0
6
CONTINUOUS
62
  7
10
997.672
20
416.174
30
0.0
40
13.053
50
95.002960
51
95.003494
0
ARC
5
92f
8
0-0
6
CONTINUOUS
62
  7
10
997.672
20
416.174
30
0.0
40
13.053
50
5.006088
51
84.997040
0
ARC
5
930
8
0-0
6
CONTINUOUS
62
  7
10
1005.264
20
423.765
30
0.0
40
20.428
50
357.752625
51
87.752899
0
CIRCLE
5
931
8
ADD_LINE
6
HIDDEN
62
  3
10
875.676
20
742.703
30
0.0
40
3.000
0
CIRCLE
5
932
8
0-0
6
CONTINUOUS
62
  7
10
1308.568
20
1077.703
30
0.0
40
3.000
0
TEXT
5
933
100
AcDbEntity
8
0-2
62
7
100
AcDbText
10
1316.490
20
1243.041
30
0.0
40
9.750
41
0.800
50
0.000
1
122
100
AcDbText
0
TEXT
5
934
100
AcDbEntity
8
0-2
62
7
100
AcDbText
10
927.301
20
1243.041
30
0.0
40
9.750
41
0.800
50
0.000
1
122
100
AcDbText
0
TEXT
5
935
100
AcDbEntity
8
0-2
62
7
100
AcDbText
10
1330.490
20
623.940
30
0.0
40
9.750
41
0.800
50
0.000
1
150
100
AcDbText
0
TEXT
5
936
100
AcDbEntity
8
0-2
62
7
100
AcDbText
10
941.301
20
623.940
30
0.0
40
9.750
41
0.800
50
0.000
1
150
100
AcDbText
0
TEXT
5
937
100
AcDbEntity
8
0-2
62
7
100
AcDbText
10
941.301
20
536.846
30
0.0
40
9.750
41
0.800
50
0.000
1
150
100
AcDbText
0
TEXT
5
938
100
AcDbEntity
8
0-2
62
7
100
AcDbText
10
1011.926
20
376.160
30
0.0
40
9.750
41
0.800
50
0.000
1
15
100
AcDbText
0
TEXT
5
939
100
AcDbEntity
8
0-2
62
7
100
AcDbText
10
646.251
20
915.558
30
0.0
40
9.750
41
0.800
50
90.000
1
360
100
AcDbText
0
TEXT
5
93a
100
AcDbEntity
8
0-2
62
7
100
AcDbText
10
643.926
20
362.432
30
0.0
40
9.750
41
0.800
50
90.000
1
150
100
AcDbText
0
POINT
5
93b
8
0-2
62
  7
10
1386.865
20
1240.541
30
0.0
0
POINT
5
93c
8
0-2
62
  7
10
1264.865
20
1240.541
30
0.0
0
POINT
5
93d
8
0-2
62
  7
10
997.676
20
1240.541
30
0.0
0
POINT
5
93e
8
0-2
62
  7
10
875.676
20
1240.541
30
0.0
0
POINT
5
93f
8
0-2
62
  7
10
1414.865
20
621.440
30
0.0
0
POINT
5
940
8
0-2
62
  7
10
1264.865
20
621.440
30
0.0
0
POINT
5
941
8
0-2
62
  7
10
1025.676
20
621.440
30
0.0
0
POINT
5
942
8
0-2
62
  7
10
875.676
20
621.440
30
0.0
0
POINT
5
943
8
0-2
62
  7
10
1025.676
20
534.346
30
0.0
0
POINT
5
944
8
0-2
62
  7
10
875.676
20
534.346
30
0.0
0
POINT
5
945
8
0-2
62
  7
10
1010.676
20
373.660
30
0.0
0
POINT
5
946
8
0-2
62
  7
10
1025.676
20
373.660
30
0.0
0
POINT
5
947
8
0-2
62
  7
10
648.649
20
1102.703
30
0.0
0
POINT
5
948
8
0-2
62
  7
10
648.649
20
742.703
30
0.0
0
POINT
5
949
8
0-2
62
  7
10
648.649
20
444.177
30
0.0
0
POINT
5
94a
8
0-2
62
  7
10
648.649
20
294.177
30
0.0
0
ENDSEC
0
EOF
